  0
SECTION
  2
HEADER
  9
$ACADVER
  1
AC1018
  9
$ACADMAINTVER
 70
   104
  9
$DWGCODEPAGE
  3
ANSI_1252
  9
$LASTSAVEDBY
  1
Dennis
  9
$INSBASE
 10
0.0
 20
0.0
 30
0.0
  9
$EXTMIN
 10
3047.442345416769
 20
41923.64901684698
 30
-0.0015258207003583
  9
$EXTMAX
 10
3998.616492080012
 20
43031.83903501688
 30
0.0000000349246037
  9
$LIMMIN
 10
7745.235280411311
 20
45170.57018819427
  9
$LIMMAX
 10
8688.370072504804
 20
45763.99103806643
  9
$ORTHOMODE
 70
     0
  9
$REGENMODE
 70
     1
  9
$FILLMODE
 70
     1
  9
$QTEXTMODE
 70
     0
  9
$MIRRTEXT
 70
     0
  9
$LTSCALE
 40
1.0
  9
$ATTMODE
 70
     1
  9
$TEXTSIZE
 40
12.5
  9
$TRACEWID
 40
300.0
  9
$TEXTSTYLE
  7
5
  9
$CLAYER
  8
Title block
  9
$CELTYPE
  6
BYLAYER
  9
$CECOLOR
 62
   256
  9
$CELTSCALE
 40
1.0
  9
$DISPSILH
 70
     0
  9
$DIMSCALE
 40
1.0
  9
$DIMASZ
 40
3.0
  9
$DIMEXO
 40
1.0
  9
$DIMDLI
 40
1.0
  9
$DIMRND
 40
0.0
  9
$DIMDLE
 40
0.0
  9
$DIMEXE
 40
1.0
  9
$DIMTP
 40
0.0
  9
$DIMTM
 40
0.0
  9
$DIMTXT
 40
2.5
  9
$DIMCEN
 40
0.09
  9
$DIMTSZ
 40
0.0
  9
$DIMTOL
 70
     0
  9
$DIMLIM
 70
     0
  9
$DIMTIH
 70
     0
  9
$DIMTOH
 70
     0
  9
$DIMSE1
 70
     0
  9
$DIMSE2
 70
     0
  9
$DIMTAD
 70
     1
  9
$DIMZIN
 70
     0
  9
$DIMBLK
  1

  9
$DIMASO
 70
     1
  9
$DIMSHO
 70
     1
  9
$DIMPOST
  1

  9
$DIMAPOST
  1

  9
$DIMALT
 70
     0
  9
$DIMALTD
 70
     2
  9
$DIMALTF
 40
25.4
  9
$DIMLFAC
 40
1.0
  9
$DIMTOFL
 70
     0
  9
$DIMTVP
 40
0.0
  9
$DIMTIX
 70
     0
  9
$DIMSOXD
 70
     0
  9
$DIMSAH
 70
     0
  9
$DIMBLK1
  1

  9
$DIMBLK2
  1

  9
$DIMSTYLE
  2
STANDARD
  9
$DIMCLRD
 70
     7
  9
$DIMCLRE
 70
     7
  9
$DIMCLRT
 70
     0
  9
$DIMTFAC
 40
1.0
  9
$DIMGAP
 40
1.0
  9
$DIMJUST
 70
     0
  9
$DIMSD1
 70
     0
  9
$DIMSD2
 70
     0
  9
$DIMTOLJ
 70
     1
  9
$DIMTZIN
 70
     0
  9
$DIMALTZ
 70
     0
  9
$DIMALTTZ
 70
     0
  9
$DIMUPT
 70
     0
  9
$DIMDEC
 70
     0
  9
$DIMTDEC
 70
     0
  9
$DIMALTU
 70
     2
  9
$DIMALTTD
 70
     2
  9
$DIMTXSTY
  7
1
  9
$DIMAUNIT
 70
     0
  9
$DIMADEC
 70
     0
  9
$DIMALTRND
 40
0.0
  9
$DIMAZIN
 70
     0
  9
$DIMDSEP
 70
    46
  9
$DIMATFIT
 70
     3
  9
$DIMFRAC
 70
     0
  9
$DIMLDRBLK
  1

  9
$DIMLUNIT
 70
     2
  9
$DIMLWD
 70
    -2
  9
$DIMLWE
 70
    -2
  9
$DIMTMOVE
 70
     0
  9
$LUNITS
 70
     2
  9
$LUPREC
 70
     1
  9
$SKETCHINC
 40
100.0
  9
$FILLETRAD
 40
0.0
  9
$AUNITS
 70
     0
  9
$AUPREC
 70
     1
  9
$MENU
  1
ACAD
  9
$ELEVATION
 40
0.0
  9
$PELEVATION
 40
0.0
  9
$THICKNESS
 40
0.0
  9
$LIMCHECK
 70
     0
  9
$CHAMFERA
 40
0.0
  9
$CHAMFERB
 40
0.0
  9
$CHAMFERC
 40
0.0
  9
$CHAMFERD
 40
0.0
  9
$SKPOLY
 70
     1
  9
$TDCREATE
 40
2452452.799518588
  9
$TDUCREATE
 40
2452452.257851922
  9
$TDUPDATE
 40
2457470.609872431
  9
$TDUUPDATE
 40
2457470.068205764
  9
$TDINDWG
 40
1.0288775000
  9
$TDUSRTIMER
 40
1.0288775000
  9
$USRTIMER
 70
     1
  9
$ANGBASE
 50
0.0
  9
$ANGDIR
 70
     0
  9
$PDMODE
 70
     0
  9
$PDSIZE
 40
10.0
  9
$PLINEWID
 40
0.0
  9
$SPLFRAME
 70
     0
  9
$SPLINETYPE
 70
     6
  9
$SPLINESEGS
 70
     8
  9
$HANDSEED
  5
79FB
  9
$SURFTAB1
 70
     9
  9
$SURFTAB2
 70
     6
  9
$SURFTYPE
 70
     6
  9
$SURFU
 70
     6
  9
$SURFV
 70
     6
  9
$UCSBASE
  2

  9
$UCSNAME
  2

  9
$UCSORG
 10
0.0
 20
0.0
 30
0.0
  9
$UCSXDIR
 10
1.0
 20
0.0
 30
0.0
  9
$UCSYDIR
 10
0.0
 20
1.0
 30
0.0
  9
$UCSORTHOREF
  2

  9
$UCSORTHOVIEW
 70
     0
  9
$UCSORGTOP
 10
0.0
 20
0.0
 30
0.0
  9
$UCSORGBOTTOM
 10
0.0
 20
0.0
 30
0.0
  9
$UCSORGLEFT
 10
0.0
 20
0.0
 30
0.0
  9
$UCSORGRIGHT
 10
0.0
 20
0.0
 30
0.0
  9
$UCSORGFRONT
 10
0.0
 20
0.0
 30
0.0
  9
$UCSORGBACK
 10
0.0
 20
0.0
 30
0.0
  9
$PUCSBASE
  2

  9
$PUCSNAME
  2

  9
$PUCSORG
 10
0.0
 20
0.0
 30
0.0
  9
$PUCSXDIR
 10
1.0
 20
0.0
 30
0.0
  9
$PUCSYDIR
 10
0.0
 20
1.0
 30
0.0
  9
$PUCSORTHOREF
  2

  9
$PUCSORTHOVIEW
 70
     0
  9
$PUCSORGTOP
 10
0.0
 20
0.0
 30
0.0
  9
$PUCSORGBOTTOM
 10
0.0
 20
0.0
 30
0.0
  9
$PUCSORGLEFT
 10
0.0
 20
0.0
 30
0.0
  9
$PUCSORGRIGHT
 10
0.0
 20
0.0
 30
0.0
  9
$PUCSORGFRONT
 10
0.0
 20
0.0
 30
0.0
  9
$PUCSORGBACK
 10
0.0
 20
0.0
 30
0.0
  9
$USERI1
 70
    11
  9
$USERI2
 70
   110
  9
$USERI3
 70
     1
  9
$USERI4
 70
   250
  9
$USERI5
 70
   280
  9
$USERR1
 40
100.0
  9
$USERR2
 40
450.0
  9
$USERR3
 40
1.0
  9
$USERR4
 40
0.0
  9
$USERR5
 40
0.0
  9
$WORLDVIEW
 70
     0
  9
$SHADEDGE
 70
     3
  9
$SHADEDIF
 70
    70
  9
$TILEMODE
 70
     1
  9
$MAXACTVP
 70
    16
  9
$PINSBASE
 10
0.0
 20
0.0
 30
0.0
  9
$PLIMCHECK
 70
     0
  9
$PEXTMIN
 10
-8.208116320692397
 20
408.7933290775812
 30
0.0
  9
$PEXTMAX
 10
181.9704622977615
 20
685.3963845516719
 30
0.0
  9
$PLIMMIN
 10
-21.31373901966532
 20
398.1466391030053
  9
$PLIMMAX
 10
188.6595886170535
 20
695.1784689369897
  9
$UNITMODE
 70
     0
  9
$VISRETAIN
 70
     0
  9
$PLINEGEN
 70
     0
  9
$PSLTSCALE
 70
     0
  9
$TREEDEPTH
 70
     0
  9
$CMLSTYLE
  2
STANDARD
  9
$CMLJUST
 70
     0
  9
$CMLSCALE
 40
1.0
  9
$PROXYGRAPHICS
 70
     1
  9
$MEASUREMENT
 70
     0
  9
$CELWEIGHT
370
    -1
  9
$ENDCAPS
280
     0
  9
$JOINSTYLE
280
     0
  9
$LWDISPLAY
290
     1
  9
$INSUNITS
 70
     0
  9
$HYPERLINKBASE
  1

  9
$STYLESHEET
  1
Hebel monochrome.ctb
  9
$XEDIT
290
     1
  9
$CEPSNTYPE
380
     0
  9
$PSTYLEMODE
290
     1
  9
$FINGERPRINTGUID
  2
{563ABA43-34A0-4C26-9C44-B165A630EF25}
  9
$VERSIONGUID
  2
{A7C6F544-42F0-4103-9EEF-D2B72BD23041}
  9
$EXTNAMES
290
     1
  9
$PSVPSCALE
 40
0.0
  9
$OLESTARTUP
290
     0
  9
$SORTENTS
280
   127
  9
$INDEXCTL
280
     0
  9
$HIDETEXT
280
     0
  9
$XCLIPFRAME
290
     0
  9
$HALOGAP
280
     0
  9
$OBSCOLOR
 70
   257
  9
$OBSLTYPE
280
     0
  9
$INTERSECTIONDISPLAY
280
     0
  9
$INTERSECTIONCOLOR
 70
   257
  9
$DIMASSOC
280
     2
  9
$PROJECTNAME
  1

  0
ENDSEC
  0
SECTION
  2
CLASSES
  0
CLASS
  1
DICTIONARYVAR
  2
AcDbDictionaryVar
  3
ObjectDBX Classes
 90
        0
 91
        6
280
     0
281
     0
  0
CLASS
  1
RASTERVARIABLES
  2
AcDbRasterVariables
  3
ISM
 90
        0
 91
        1
280
     0
281
     0
  0
CLASS
  1
ACDBDICTIONARYWDFLT
  2
AcDbDictionaryWithDefault
  3
ObjectDBX Classes
 90
        0
 91
        1
280
     0
281
     0
  0
CLASS
  1
DIMASSOC
  2
AcDbDimAssoc
  3
"AcDbDimAssoc|Product Desc:     AcDim ARX App For Dimension|Company:          Autodesk, Inc.|WEB Address:      www.autodesk.com"
 90
        0
 91
        0
280
     0
281
     0
  0
CLASS
  1
MATERIAL
  2
AcDbMaterial
  3
ObjectDBX Classes
 90
     1153
 91
        3
280
     0
281
     0
  0
CLASS
  1
VISUALSTYLE
  2
AcDbVisualStyle
  3
ObjectDBX Classes
 90
     4095
 91
       26
280
     0
281
     0
  0
CLASS
  1
TABLESTYLE
  2
AcDbTableStyle
  3
ObjectDBX Classes
 90
     4095
 91
        1
280
     0
281
     0
  0
CLASS
  1
SCALE
  2
AcDbScale
  3
ObjectDBX Classes
 90
     1153
 91
       33
280
     0
281
     0
  0
CLASS
  1
MLEADERSTYLE
  2
AcDbMLeaderStyle
  3
ACDB_MLEADERSTYLE_CLASS
 90
     4095
 91
        1
280
     0
281
     0
  0
CLASS
  1
EXACXREFPANELOBJECT
  2
ExAcXREFPanelObject
  3
EXAC_ESW
 90
     1025
 91
        1
280
     0
281
     0
  0
CLASS
  1
NPOCOLLECTION
  2
AcDbImpNonPersistentObjectsCollection
  3
ObjectDBX Classes
 90
     1153
 91
        1
280
     0
281
     0
  0
CLASS
  1
CELLSTYLEMAP
  2
AcDbCellStyleMap
  3
ObjectDBX Classes
 90
     1152
 91
        4
280
     0
281
     0
  0
CLASS
  1
IMAGE
  2
AcDbRasterImage
  3
ISM
 90
     2175
 91
        4
280
     0
281
     1
  0
CLASS
  1
IMAGEDEF_REACTOR
  2
AcDbRasterImageDefReactor
  3
ISM
 90
        1
 91
        4
280
     0
281
     0
  0
CLASS
  1
SORTENTSTABLE
  2
AcDbSortentsTable
  3
ObjectDBX Classes
 90
        0
 91
        6
280
     0
281
     0
  0
CLASS
  1
IMAGEDEF
  2
AcDbRasterImageDef
  3
ISM
 90
        0
 91
        4
280
     0
281
     0
  0
CLASS
  1
AEC_REFEDIT_STATUS_TRACKER
  2
AecDbRefEditStatusTracker
  3
AecArchBase70|Product Desc: Autodesk Architectural Desktop 2007 |Company: Autodesk,Inc. |WEB Address: www.autodesk.com
 90
      129
 91
        0
280
     0
281
     0
  0
CLASS
  1
ACDBSECTIONVIEWSTYLE
  2
AcDbSectionViewStyle
  3
ObjectDBX Classes
 90
     1025
 91
        1
280
     0
281
     0
  0
CLASS
  1
ACDBDETAILVIEWSTYLE
  2
AcDbDetailViewStyle
  3
ObjectDBX Classes
 90
     1025
 91
        1
280
     0
281
     0
  0
ENDSEC
  0
SECTION
  2
TABLES
  0
TABLE
  2
VPORT
  5
55B
102
{ACAD_XDICTIONARY
360
2FC5
102
}
330
0
100
AcDbSymbolTable
 70
     1
  0
VPORT
  5
2F34
330
55B
100
AcDbSymbolTableRecord
100
AcDbViewportTableRecord
  2
*Active
 70
     0
 10
0.0
 20
0.0
 11
1.0
 21
1.0
 12
-19664.51274361383
 22
8547.308662546122
 13
0.0
 23
0.0
 14
1.0
 24
1.0
 15
1900.0
 25
1900.0
 16
0.0
 26
0.0
 36
1.0
 17
23187.54216236222
 27
34067.94128341666
 37
1200.0
 40
1393.888782244301
 41
1.500641848523748
 42
50.0
 43
0.0
 44
0.0
 50
0.0
 51
0.0
 71
     0
 72
 20000
 73
     1
 74
     0
 75
     0
 76
     0
 77
     0
 78
     1
281
     0
 65
     1
110
0.0
120
0.0
130
0.0
111
1.0
121
0.0
131
0.0
112
0.0
122
1.0
132
0.0
 79
     0
146
0.0
1001
ACAD_NAV_VCDISPLAY
1070
     3
  0
ENDTAB
  0
TABLE
  2
LTYPE
  5
556
330
0
100
AcDbSymbolTable
 70
     4
  0
LTYPE
  5
557
330
556
100
AcDbSymbolTableRecord
100
AcDbLinetypeTableRecord
  2
BYBLOCK
 70
     0
  3

 72
    65
 73
     0
 40
0.0
  0
LTYPE
  5
558
330
556
100
AcDbSymbolTableRecord
100
AcDbLinetypeTableRecord
  2
BYLAYER
 70
     0
  3

 72
    65
 73
     0
 40
0.0
  0
LTYPE
  5
5
330
556
100
AcDbSymbolTableRecord
100
AcDbLinetypeTableRecord
  2
CONTINUOUS
 70
     0
  3
Solid line
 72
    65
 73
     0
 40
0.0
  0
LTYPE
  5
5213
330
556
100
AcDbSymbolTableRecord
100
AcDbLinetypeTableRecord
  2
BATTING
 70
     0
  3
Batting SSSSSSSSSSSSSSSSSSSSSSSSSSSSSSSSSSSSSSS
 72
    65
 73
     4
 40
10.16254
 49
0.00254
 74
     0
 49
-2.54
 74
     4
 75
   134
340
5272
 46
2.54
 50
0.0
 44
-2.54
 45
0.0
 49
-5.08
 74
     4
 75
   134
340
5272
 46
2.54
 50
180.0
 44
2.54
 45
0.0
 49
-2.54
 74
     0
  0
LTYPE
  5
7547
330
556
100
AcDbSymbolTableRecord
100
AcDbLinetypeTableRecord
  2
PHANTOM2
 70
     0
  3
Phantom (.5x) ___ _ _ ___ _ _ ___ _ _ ___ _ _
 72
    65
 73
     6
 40
1.25
 49
0.625
 74
     0
 49
-0.125
 74
     0
 49
0.125
 74
     0
 49
-0.125
 74
     0
 49
0.125
 74
     0
 49
-0.125
 74
     0
  0
ENDTAB
  0
TABLE
  2
LAYER
  5
553
102
{ACAD_XDICTIONARY
360
2C65
102
}
330
0
100
AcDbSymbolTable
 70
    19
  0
LAYER
  5
24
102
{ACAD_XDICTIONARY
360
2F90
102
}
330
553
100
AcDbSymbolTableRecord
100
AcDbLayerTableRecord
  2
0
 70
     0
 62
     7
  6
CONTINUOUS
370
    -3
390
58B
  0
LAYER
  5
2F
330
553
100
AcDbSymbolTableRecord
100
AcDbLayerTableRecord
  2
DEFPOINTS
 70
     0
 62
   210
  6
CONTINUOUS
290
     0
370
    -3
390
58B
  0
LAYER
  5
12
102
{ACAD_XDICTIONARY
360
2F92
102
}
330
553
100
AcDbSymbolTableRecord
100
AcDbLayerTableRecord
  2
HB_XDET_PANELS
 70
     0
 62
     1
  6
CONTINUOUS
370
    50
390
58B
  0
LAYER
  5
4
102
{ACAD_XDICTIONARY
360
2F94
102
}
330
553
100
AcDbSymbolTableRecord
100
AcDbLayerTableRecord
  2
HB_XDET_TEXT
 70
     0
 62
     7
  6
CONTINUOUS
370
    -3
390
58B
  0
LAYER
  5
2FEE
330
553
100
AcDbSymbolTableRecord
100
AcDbLayerTableRecord
  2
Border
 70
     0
 62
     7
  6
CONTINUOUS
370
    -3
390
58B
1001
AcAecLayerStandard
1000

1000

  0
LAYER
  5
2FF6
102
{ACAD_XDICTIONARY
360
2FF7
102
}
330
553
100
AcDbSymbolTableRecord
100
AcDbLayerTableRecord
  2
3
 70
     0
 62
     2
  6
CONTINUOUS
370
    -3
390
58B
  0
LAYER
  5
2FF8
102
{ACAD_XDICTIONARY
360
2FF9
102
}
330
553
100
AcDbSymbolTableRecord
100
AcDbLayerTableRecord
  2
Title block
 70
     0
 62
     7
  6
CONTINUOUS
370
    50
390
58B
  0
LAYER
  5
30A7
330
553
100
AcDbSymbolTableRecord
100
AcDbLayerTableRecord
  2
Text
 70
     0
 62
     7
  6
CONTINUOUS
370
    -3
390
58B
1001
AcAecLayerStandard
1000

1000

  0
LAYER
  5
375E
330
553
100
AcDbSymbolTableRecord
100
AcDbLayerTableRecord
  2
Concrete
 70
     0
 62
     8
  6
CONTINUOUS
370
    -3
390
58B
1001
AcAecLayerStandard
1000

1000

  0
LAYER
  5
3767
330
553
100
AcDbSymbolTableRecord
100
AcDbLayerTableRecord
  2
Fixings & brackets
 70
     0
 62
     4
  6
CONTINUOUS
370
    -3
390
58B
1001
AcAecLayerStandard
1000

1000

  0
LAYER
  5
3774
330
553
100
AcDbSymbolTableRecord
100
AcDbLayerTableRecord
  2
Hatch
 70
     0
 62
     2
  6
CONTINUOUS
370
    -3
390
58B
1001
AcAecLayerStandard
1000

1000

  0
LAYER
  5
3963
330
553
100
AcDbSymbolTableRecord
100
AcDbLayerTableRecord
  2
DPC
 70
     0
 62
     5
  6
CONTINUOUS
370
    70
390
58B
1001
AcAecLayerStandard
1000

1000

  0
LAYER
  5
4667
330
553
100
AcDbSymbolTableRecord
100
AcDbLayerTableRecord
  2
Timber Section
 70
     0
 62
    32
  6
CONTINUOUS
370
    35
390
58B
1001
AcAecLayerStandard
1000

1000

  0
LAYER
  5
4668
330
553
100
AcDbSymbolTableRecord
100
AcDbLayerTableRecord
  2
Timber Elevation
 70
     0
 62
    31
  6
CONTINUOUS
370
    15
390
58B
1001
AcAecLayerStandard
1000

1000

  0
LAYER
  5
466D
330
553
100
AcDbSymbolTableRecord
100
AcDbLayerTableRecord
  2
Lining
 70
     0
 62
    92
  6
CONTINUOUS
370
    35
390
58B
1001
AcAecLayerStandard
1000

1000

  0
LAYER
  5
4671
330
553
100
AcDbSymbolTableRecord
100
AcDbLayerTableRecord
  2
Steel
 70
     0
 62
     3
  6
CONTINUOUS
370
    -3
390
58B
1001
AcAecLayerStandard
1000

1000

  0
LAYER
  5
5234
102
{ACAD_XDICTIONARY
360
5235
102
}
330
553
100
AcDbSymbolTableRecord
100
AcDbLayerTableRecord
  2
insulation
 70
     0
 62
   211
  6
BATTING
370
    13
390
58B
1001
AcAecLayerStandard
1000

1000

  0
LAYER
  5
78E9
330
553
100
AcDbSymbolTableRecord
100
AcDbLayerTableRecord
  2
Supercrete
 70
     0
 62
     7
  6
CONTINUOUS
370
    50
390
58B
1001
AcAecLayerStandard
1000

1000

1001
AcCmTransparency
1071
        0
  0
ENDTAB
  0
TABLE
  2
STYLE
  5
554
330
0
100
AcDbSymbolTable
 70
    11
  0
STYLE
  5
555
330
554
100
AcDbSymbolTableRecord
100
AcDbTextStyleTableRecord
  2
STANDARD
 70
     0
 40
0.0
 41
1.0
 50
0.0
 71
     0
 42
150.0
  3
times.ttf
  4

1001
ACAD
1000
Times New Roman
1071
       18
  0
STYLE
  5
6
330
554
100
AcDbSymbolTableRecord
100
AcDbTextStyleTableRecord
  2
ROMANS
 70
     0
 40
0.0
 41
1.0
 50
0.0
 71
     0
 42
100.0
  3
romans.shx
  4

  0
STYLE
  5
2FFB
330
554
100
AcDbSymbolTableRecord
100
AcDbTextStyleTableRecord
  2
Title block
 70
     0
 40
2.5
 41
1.0
 50
0.0
 71
     0
 42
2.5
  3
times.ttf
  4

1001
ACAD
1000
Times New Roman
1071
       18
  0
STYLE
  5
30E8
330
554
100
AcDbSymbolTableRecord
100
AcDbTextStyleTableRecord
  2
1
 70
     0
 40
2.5
 41
1.0
 50
0.0
 71
     0
 42
2.5
  3
swiss.ttf
  4

1001
ACAD
1000
Swis721 BT
1071
       34
  0
STYLE
  5
5272
330
554
100
AcDbSymbolTableRecord
100
AcDbTextStyleTableRecord
  2

 70
     1
 40
0.0
 41
1.0
 50
0.0
 71
     0
 42
4.0
  3
ltypeshp.shx
  4

  0
STYLE
  5
78D7
330
554
100
AcDbSymbolTableRecord
100
AcDbTextStyleTableRecord
  2
5
 70
     0
 40
12.5
 41
1.0
 50
0.0
 71
     0
 42
12.5
  3
swiss.ttf
  4

1001
ACAD
1000
Swis721 BT
1071
       34
  0
ENDTAB
  0
TABLE
  2
VIEW
  5
559
330
0
100
AcDbSymbolTable
 70
     6
  0
ENDTAB
  0
TABLE
  2
UCS
  5
55A
330
0
100
AcDbSymbolTable
 70
     0
  0
ENDTAB
  0
TABLE
  2
APPID
  5
55D
330
0
100
AcDbSymbolTable
 70
    32
  0
APPID
  5
62
330
55D
100
AcDbSymbolTableRecord
100
AcDbRegAppTableRecord
  2
ACAD
 70
     0
  0
APPID
  5
597
330
55D
100
AcDbSymbolTableRecord
100
AcDbRegAppTableRecord
  2
DCO15
 70
     0
  0
APPID
  5
F23
330
55D
100
AcDbSymbolTableRecord
100
AcDbRegAppTableRecord
  2
ACAD_DIMASSOC_CALC_DIMLFAC
 70
     0
  0
APPID
  5
F24
330
55D
100
AcDbSymbolTableRecord
100
AcDbRegAppTableRecord
  2
ACAD_DIMASSOC_DIMLFAC
 70
     0
  0
APPID
  5
F25
330
55D
100
AcDbSymbolTableRecord
100
AcDbRegAppTableRecord
  2
ACAD_DIMASSOC_OVERRIDDEN_DIMLFAC
 70
     0
  0
APPID
  5
2F87
330
55D
100
AcDbSymbolTableRecord
100
AcDbRegAppTableRecord
  2
ACAD_MLEADERVER
 70
     0
  0
APPID
  5
2FEF
330
55D
100
AcDbSymbolTableRecord
100
AcDbRegAppTableRecord
  2
AcAecLayerStandard
 70
     0
  0
APPID
  5
2FFD
330
55D
100
AcDbSymbolTableRecord
100
AcDbRegAppTableRecord
  2
AcadAnnoPO
 70
     0
  0
APPID
  5
2FFE
330
55D
100
AcDbSymbolTableRecord
100
AcDbRegAppTableRecord
  2
AcadAnnotative
 70
     0
  0
APPID
  5
2FFF
330
55D
100
AcDbSymbolTableRecord
100
AcDbRegAppTableRecord
  2
ACAD_DSTYLE_DIMJAG
 70
     0
  0
APPID
  5
3000
330
55D
100
AcDbSymbolTableRecord
100
AcDbRegAppTableRecord
  2
ACAD_DSTYLE_DIMTALN
 70
     0
  0
APPID
  5
3001
330
55D
100
AcDbSymbolTableRecord
100
AcDbRegAppTableRecord
  2
ACAD_PSEXT
 70
     0
  0
APPID
  5
3002
330
55D
100
AcDbSymbolTableRecord
100
AcDbRegAppTableRecord
  2
PROGE_PRINT_SETTINGS
 70
     0
  0
APPID
  5
3003
330
55D
100
AcDbSymbolTableRecord
100
AcDbRegAppTableRecord
  2
PCAD_LAYOUT
 70
     0
  0
APPID
  5
3004
330
55D
100
AcDbSymbolTableRecord
100
AcDbRegAppTableRecord
  2
RAK
 70
     0
  0
APPID
  5
3005
330
55D
100
AcDbSymbolTableRecord
100
AcDbRegAppTableRecord
  2
ACAD_DSTYLE_DIM_EXT1_LINETYPE
 70
     0
  0
APPID
  5
3006
330
55D
100
AcDbSymbolTableRecord
100
AcDbRegAppTableRecord
  2
ACAD_DSTYLE_DIM_EXT2_LINETYPE
 70
     0
  0
APPID
  5
3007
330
55D
100
AcDbSymbolTableRecord
100
AcDbRegAppTableRecord
  2
ACAD_DSTYLE_DIM_LINETYPE
 70
     0
  0
APPID
  5
3008
330
55D
100
AcDbSymbolTableRecord
100
AcDbRegAppTableRecord
  2
AcDbAttr
 70
     0
  0
APPID
  5
3009
330
55D
100
AcDbSymbolTableRecord
100
AcDbRegAppTableRecord
  2
ACAD_EXEMPT_FROM_CAD_STANDARDS
 70
     0
  0
APPID
  5
37C8
330
55D
100
AcDbSymbolTableRecord
100
AcDbRegAppTableRecord
  2
ACAD_DSTYLE_DIMJOGGED_JOGANGLE_SYMBOL
 70
     0
  0
APPID
  5
3981
330
55D
100
AcDbSymbolTableRecord
100
AcDbRegAppTableRecord
  2
ACAD_DSTYLE_DIMEXT_LENGTH
 70
     0
  0
APPID
  5
4337
330
55D
100
AcDbSymbolTableRecord
100
AcDbRegAppTableRecord
  2
ACAD_DSTYLE_DIMBREAK
 70
     0
  0
APPID
  5
527F
330
55D
100
AcDbSymbolTableRecord
100
AcDbRegAppTableRecord
  2
ACAD_DSTYLE_DIMTEXT_FILL
 70
     0
  0
APPID
  5
5280
330
55D
100
AcDbSymbolTableRecord
100
AcDbRegAppTableRecord
  2
ACAD_DSTYLE_DIMEXT_ENABLED
 70
     0
  0
APPID
  5
5281
330
55D
100
AcDbSymbolTableRecord
100
AcDbRegAppTableRecord
  2
ACAD_DSTYLE_DIMARC_LENGTH_SYMBOL
 70
     0
  0
APPID
  5
5282
330
55D
100
AcDbSymbolTableRecord
100
AcDbRegAppTableRecord
  2
AcDbDynamicBlockGUID
 70
     0
  0
APPID
  5
5283
330
55D
100
AcDbSymbolTableRecord
100
AcDbRegAppTableRecord
  2
AcDbBlockRepETag
 70
     0
  0
APPID
  5
5284
330
55D
100
AcDbSymbolTableRecord
100
AcDbRegAppTableRecord
  2
ACAUTHENVIRON
 70
     0
  0
APPID
  5
5285
330
55D
100
AcDbSymbolTableRecord
100
AcDbRegAppTableRecord
  2
AcDbDynamicBlockTrueName
 70
     0
  0
APPID
  5
755C
330
55D
100
AcDbSymbolTableRecord
100
AcDbRegAppTableRecord
  2
ACAD_NAV_VCDISPLAY
 70
     0
  0
APPID
  5
78EA
330
55D
100
AcDbSymbolTableRecord
100
AcDbRegAppTableRecord
  2
AcCmTransparency
 70
     0
  0
ENDTAB
  0
TABLE
  2
DIMSTYLE
  5
55E
330
0
100
AcDbSymbolTable
 70
     6
100
AcDbDimStyleTable
 71
     1
340
663
  0
DIMSTYLE
105
663
102
{ACAD_REACTORS
330
78BB
330
78BC
330
78B9
330
78BD
330
78B7
330
78BE
330
78BF
330
78B6
330
78BA
330
78AF
330
78B3
102
}
330
55E
100
AcDbSymbolTableRecord
100
AcDbDimStyleTableRecord
  2
STANDARD
 70
     0
 41
3.0
 42
1.0
 43
1.0
 44
1.0
 73
     0
 74
     0
 77
     1
140
2.5
147
1.0
176
     7
177
     7
271
     0
272
     0
340
30E8
1001
ACAD_DSTYLE_DIMJAG
1070
   388
1040
1.5
1001
ACAD_DSTYLE_DIMTALN
1070
   392
1070
     0
  0
ENDTAB
  0
TABLE
  2
BLOCK_RECORD
  5
1
330
0
100
AcDbSymbolTable
 70
     7
  0
BLOCK_RECORD
  5
2
102
{ACAD_XDICTIONARY
360
30CC
102
}
330
1
100
AcDbSymbolTableRecord
100
AcDbBlockTableRecord
  2
*MODEL_SPACE
340
58E
  0
BLOCK_RECORD
  5
5E
330
1
100
AcDbSymbolTableRecord
100
AcDbBlockTableRecord
  2
*PAPER_SPACE
340
58F
  0
BLOCK_RECORD
  5
300A
102
{ACAD_XDICTIONARY
360
3021
102
}
330
1
100
AcDbSymbolTableRecord
100
AcDbBlockTableRecord
  2
A4 Title Block
340
0
102
{BLKREFS
331
3700
102
}
1001
ACAD
1000
DesignCenter Data
1002
{
1070
     1
1070
     4
1002
}
  0
BLOCK_RECORD
  5
5286
102
{ACAD_XDICTIONARY
360
5334
102
}
330
1
100
AcDbSymbolTableRecord
100
AcDbBlockTableRecord
  2
50 long screw
340
0
102
{BLKREFS
331
579F
331
57A0
331
5341
331
55E1
102
}
1001
ACAD
1000
DesignCenter Data
1002
{
1070
     1
1070
     4
1002
}
  0
BLOCK_RECORD
  5
5724
102
{ACAD_XDICTIONARY
360
5782
102
}
330
1
100
AcDbSymbolTableRecord
100
AcDbBlockTableRecord
  2
25 long screw
340
0
102
{BLKREFS
331
5786
331
5787
331
57A1
331
57A2
102
}
1001
ACAD
1000
DesignCenter Data
1002
{
1070
     1
1070
     4
1002
}
  0
ENDTAB
  0
ENDSEC
  0
SECTION
  2
BLOCKS
  0
BLOCK
  5
5C
330
2
100
AcDbEntity
  8
0
100
AcDbBlockBegin
  2
*MODEL_SPACE
 70
     0
 10
0.0
 20
0.0
 30
0.0
  3
*MODEL_SPACE
  1

  0
ENDBLK
  5
5D
330
2
100
AcDbEntity
  8
0
100
AcDbBlockEnd
  0
BLOCK
  5
551
330
5E
100
AcDbEntity
 67
     1
  8
0
100
AcDbBlockBegin
  2
*PAPER_SPACE
 70
     0
 10
0.0
 20
0.0
 30
0.0
  3
*PAPER_SPACE
  1

  0
ENDBLK
  5
552
330
5E
100
AcDbEntity
 67
     1
  8
0
100
AcDbBlockEnd
  0
BLOCK
  5
3023
330
300A
100
AcDbEntity
  8
0
100
AcDbBlockBegin
  2
A4 Title Block
 70
     2
 10
0.0
 20
0.0
 30
0.0
  3
A4 Title Block
  1

  0
TEXT
  5
7868
330
300A
100
AcDbEntity
  8
3
 62
     7
100
AcDbText
 10
-853.4347976406543
 20
37.0581002795501
 30
0.0
 40
8.0
  1

 41
0.85
  7
ROMANS
100
AcDbText
  0
LINE
  5
7869
330
300A
100
AcDbEntity
  8
Title block
100
AcDbLine
 10
-53.39424020223919
 20
255.4041454248354
 30
0.0
 11
-53.39424020223919
 21
-21.19891004925512
 31
0.0
  0
LINE
  5
786A
330
300A
100
AcDbEntity
  8
Title block
100
AcDbLine
 10
-53.39424020223919
 20
-21.19891004925512
 30
0.0
 11
136.6057597977608
 21
-21.19891004925512
 31
0.0
  0
LINE
  5
786B
330
300A
100
AcDbEntity
  8
Title block
100
AcDbLine
 10
136.6057597977608
 20
-21.19891004925512
 30
0.0
 11
136.6057597977608
 21
255.4041454248354
 31
0.0
  0
LINE
  5
786C
330
300A
100
AcDbEntity
  8
Title block
100
AcDbLine
 10
136.6057597977608
 20
255.4041454248354
 30
0.0
 11
-53.39424020223919
 21
255.4041454248354
 31
0.0
  0
LINE
  5
786D
330
300A
100
AcDbEntity
  8
Title block
100
AcDbLine
 10
5.322295774367375
 20
-1.849809968847825
 30
0.0
 11
136.7843384162145
 21
-1.849809968847711
 31
0.0
  0
LINE
  5
786E
330
300A
100
AcDbEntity
  8
Title block
100
AcDbLine
 10
5.322295774367375
 20
-10.88464955839267
 30
0.0
 11
136.7843384162147
 21
-10.88464955839255
 31
0.0
  0
TEXT
  5
786F
330
300A
100
AcDbEntity
  8
0
100
AcDbText
 10
9.675893772968493
 20
-7.472611373172771
 30
0.0
 40
2.5
  1
Date:
  7
Title block
100
AcDbText
  0
TEXT
  5
7870
330
300A
100
AcDbEntity
  8
0
100
AcDbText
 10
91.38994071143883
 20
-7.411777803461195
 30
0.0
 40
2.5
  1
Detail No.
  7
Title block
100
AcDbText
  0
TEXT
  5
7871
330
300A
100
AcDbEntity
  8
0
100
AcDbText
 10
9.502250865730047
 20
7.648243604712661
 30
0.0
 40
2.5
  1
Title:
  7
Title block
100
AcDbText
  0
LWPOLYLINE
  5
7872
330
300A
100
AcDbEntity
  8
Title block
100
AcDbPolyline
 90
        2
 70
     0
 43
0.0
 10
-53.39424020223919
 20
12.10448104516263
 10
136.6057597977608
 20
12.10448104516263
  0
MTEXT
  5
7873
330
300A
100
AcDbEntity
  8
Title block
100
AcDbMText
 10
6.609142078680179
 20
-12.95411800504515
 30
0.0
 40
2.5
 41
129.8458211596216
 71
     1
 72
     1
  1
This drawing is to be read in conjunction with all the current, relevant Supercrete \PTechnical Literature, Project Specific Design Documentation and Specifications
  7
Title block
 73
     1
 44
1.0
  0
LWPOLYLINE
  5
7874
330
300A
100
AcDbEntity
  8
Title block
100
AcDbPolyline
 90
        2
 70
     0
 43
0.0
 10
46.71209860759859
 20
-1.849809968847822
 10
46.71209860759859
 20
-10.88464955839267
  0
LWPOLYLINE
  5
7875
330
300A
100
AcDbEntity
  8
Title block
100
AcDbPolyline
 90
        2
 70
     0
 43
0.0
 10
89.74925677747592
 20
-1.849809968847832
 10
89.74925677747592
 20
-10.88464955839268
  0
TEXT
  5
7876
330
300A
100
AcDbEntity
  8
0
100
AcDbText
 10
51.06569660619993
 20
-7.472611373172771
 30
0.0
 40
2.5
  1
Scale:
  7
Title block
100
AcDbText
  0
ATTDEF
  5
7877
330
300A
100
AcDbEntity
  8
Title block
100
AcDbText
 10
20.96937096573947
 20
-7.642940466626214
 30
0.0
 40
2.5
  1

100
AcDbAttributeDefinition
  3
Date
  2
DATE
 70
     0
1001
AcDbAttr
1070
     0
1070
     1
  0
ATTDEF
  5
7878
330
300A
100
AcDbEntity
  8
Title block
100
AcDbText
 10
63.23629700150786
 20
-7.642940466626214
 30
0.0
 40
2.5
  1

100
AcDbAttributeDefinition
  3
Scale
  2
SCALE
 70
     0
1001
AcDbAttr
1070
     0
1070
     1
  0
ATTDEF
  5
7879
330
300A
100
AcDbEntity
  8
Title block
100
AcDbText
 10
111.1388136280311
 20
-7.311601095675996
 30
0.0
 40
2.5
  1

100
AcDbAttributeDefinition
  3
Drg No
  2
DRGNO
 70
     0
1001
AcDbAttr
1070
     0
1070
     1
  0
ATTDEF
  5
787A
330
300A
100
AcDbEntity
  8
Title block
100
AcDbText
 10
8.067229221254478
 20
-0.0001543750333894
 30
0.0
 40
3.5
  1

  7
1
100
AcDbAttributeDefinition
  3
Title
  2
TITLE
 70
     0
  0
ATTDEF
  5
787B
330
300A
100
AcDbEntity
  8
Title block
100
AcDbText
 10
19.80232515842442
 20
6.748439479395983
 30
0.0
 40
3.5
  1

  7
1
100
AcDbAttributeDefinition
  3
Title2
  2
TITLE2
 70
     0
  0
LINE
  5
787C
330
300A
100
AcDbEntity
  8
Title block
100
AcDbLine
 10
5.160599931094154
 20
12.11369795074488
 30
0.0
 11
5.160599931094154
 21
-21.18969314367286
 31
0.0
  0
IMAGE
  5
787D
330
300A
100
AcDbEntity
  8
Title block
 92
      140
310
8C0000000100000084000000060000000500000060B1837676B24AC0CC5E2FB1C06AF1BF000000000000000060B1837676B24AC0FE0C208A7E35284000000000000000003028EF4E74A41440FE0C208A7E35284000000000000000003028EF4E74A41440CC5E2FB1C06AF1BF000000000000000060B1837676B24AC0CC5E2F
310
B1C06AF1BF0000000000000000
100
AcDbRasterImage
 90
        0
 10
-53.39424020223919
 20
-1.088562671784461
 30
0.0
 11
0.0428345575225555
 21
0.0
 31
0.0
 12
0.0
 22
0.0428345575225555
 32
0.0
 13
1367.0
 23
308.0
340
7880
 70
     7
280
     0
281
    50
282
    50
283
     0
360
787E
 71
     1
 91
        2
 14
-0.5
 24
-0.5
 14
1366.5
 24
307.5
  0
ENDBLK
  5
3024
330
300A
100
AcDbEntity
  8
0
100
AcDbBlockEnd
  0
BLOCK
  5
5336
330
5286
100
AcDbEntity
  8
0
100
AcDbBlockBegin
  2
50 long screw
 70
     0
 10
0.0
 20
0.0
 30
0.0
  3
50 long screw
  1

  0
LINE
  5
5533
330
5286
100
AcDbEntity
  8
Fixings & brackets
100
AcDbLine
 10
20709.33523387413
 20
-853.5050856402959
 30
0.0
 11
20708.88897254013
 21
-851.7899771496159
 31
0.0
  0
LINE
  5
5534
330
5286
100
AcDbEntity
  8
Fixings & brackets
100
AcDbLine
 10
20708.78598915536
 20
-853.5050856402959
 30
0.0
 11
20709.16359489952
 21
-853.9510134958401
 31
0.0
  0
LINE
  5
5535
330
5286
100
AcDbEntity
  8
Fixings & brackets
100
AcDbLine
 10
20708.89400966287
 20
-851.8093362365835
 30
0.0
 11
20709.85015079798
 21
-851.8093362365835
 31
0.0
  0
LINE
  5
5536
330
5286
100
AcDbEntity
  8
Fixings & brackets
100
AcDbLine
 10
20720.183699326
 20
-852.6650046116484
 30
0.0
 11
20716.97269788359
 21
-851.8093362365835
 31
0.0
  0
LINE
  5
5537
330
5286
100
AcDbEntity
  8
Fixings & brackets
100
AcDbLine
 10
20720.183699326
 20
-852.6650046116484
 30
0.0
 11
20716.97269788359
 21
-853.5206729867205
 31
0.0
  0
LINE
  5
5538
330
5286
100
AcDbEntity
  8
Fixings & brackets
100
AcDbLine
 10
20713.42024146997
 20
-851.7899771496159
 30
0.0
 11
20712.90532454613
 21
-851.312197304389
 31
0.0
  0
LINE
  5
5539
330
5286
100
AcDbEntity
  8
Fixings & brackets
100
AcDbLine
 10
20712.90532454613
 20
-851.8093362365835
 30
0.0
 11
20713.3172580852
 21
-853.5050856402959
 31
0.0
  0
LINE
  5
553A
330
5286
100
AcDbEntity
  8
Fixings & brackets
100
AcDbLine
 10
20712.31575241585
 20
-853.5206729867205
 30
0.0
 11
20713.33045724168
 21
-853.5206729867205
 31
0.0
  0
LINE
  5
553B
330
5286
100
AcDbEntity
  8
Fixings & brackets
100
AcDbLine
 10
20714.86704597948
 20
-851.8093362365835
 30
0.0
 11
20715.82318711458
 21
-851.8093362365835
 31
0.0
  0
LINE
  5
553C
330
5286
100
AcDbEntity
  8
Fixings & brackets
100
AcDbLine
 10
20715.30227057416
 20
-853.5206729867205
 30
0.0
 11
20716.24831981014
 21
-853.5206729867205
 31
0.0
  0
LINE
  5
553D
330
5286
100
AcDbEntity
  8
Fixings & brackets
100
AcDbLine
 10
20714.34709193289
 20
-851.8093362365835
 30
0.0
 11
20714.75902547197
 21
-853.5050856402959
 31
0.0
  0
LINE
  5
553E
330
5286
100
AcDbEntity
  8
Fixings & brackets
100
AcDbLine
 10
20715.30827019074
 20
-853.5050856402959
 30
0.0
 11
20714.86200885674
 21
-851.7899771496159
 31
0.0
  0
LINE
  5
553F
330
5286
100
AcDbEntity
  8
Fixings & brackets
100
AcDbLine
 10
20713.86650280397
 20
-853.5050856402959
 30
0.0
 11
20713.42024146997
 21
-851.7899771496159
 31
0.0
  0
LINE
  5
5540
330
5286
100
AcDbEntity
  8
Fixings & brackets
100
AcDbLine
 10
20713.86050318738
 20
-853.5206729867205
 30
0.0
 11
20714.77222462845
 21
-853.5206729867205
 31
0.0
  0
LINE
  5
5541
330
5286
100
AcDbEntity
  8
Fixings & brackets
100
AcDbLine
 10
20713.3172580852
 20
-853.5050856402959
 30
0.0
 11
20713.69486382935
 21
-853.9510134958401
 31
0.0
  0
LINE
  5
5542
330
5286
100
AcDbEntity
  8
Fixings & brackets
100
AcDbLine
 10
20713.69486382935
 20
-853.9510134958401
 30
0.0
 11
20713.86650280397
 21
-853.5050856402959
 31
0.0
  0
LINE
  5
5543
330
5286
100
AcDbEntity
  8
Fixings & brackets
100
AcDbLine
 10
20714.75902547197
 20
-853.5050856402959
 30
0.0
 11
20715.13663121612
 21
-853.9510134958401
 31
0.0
  0
LINE
  5
5544
330
5286
100
AcDbEntity
  8
Fixings & brackets
100
AcDbLine
 10
20715.13663121612
 20
-853.9510134958401
 30
0.0
 11
20715.30827019074
 21
-853.5050856402959
 31
0.0
  0
LINE
  5
5545
330
5286
100
AcDbEntity
  8
Fixings & brackets
100
AcDbLine
 10
20713.4252785927
 20
-851.8093362365835
 30
0.0
 11
20714.34709193289
 21
-851.8093362365835
 31
0.0
  0
LINE
  5
5546
330
5286
100
AcDbEntity
  8
Fixings & brackets
100
AcDbLine
 10
20714.86200885674
 20
-851.7899771496159
 30
0.0
 11
20714.34709193289
 21
-851.312197304389
 31
0.0
  0
LINE
  5
5547
330
5286
100
AcDbEntity
  8
Fixings & brackets
100
AcDbLine
 10
20714.34709193289
 20
-851.312197304389
 30
0.0
 11
20714.34709193289
 21
-851.8093362365835
 31
0.0
  0
LINE
  5
5548
330
5286
100
AcDbEntity
  8
Fixings & brackets
100
AcDbLine
 10
20715.82318711458
 20
-851.8093362365835
 30
0.0
 11
20716.23512065366
 21
-853.5050856402959
 31
0.0
  0
LINE
  5
5549
330
5286
100
AcDbEntity
  8
Fixings & brackets
100
AcDbLine
 10
20716.23512065366
 20
-853.5050856402959
 30
0.0
 11
20716.61272639781
 21
-853.9510134958401
 31
0.0
  0
LINE
  5
554A
330
5286
100
AcDbEntity
  8
Fixings & brackets
100
AcDbLine
 10
20716.33810403842
 20
-851.7899771496159
 30
0.0
 11
20715.82318711458
 21
-851.312197304389
 31
0.0
  0
LINE
  5
554B
330
5286
100
AcDbEntity
  8
Fixings & brackets
100
AcDbLine
 10
20715.82318711458
 20
-851.312197304389
 30
0.0
 11
20715.82318711458
 21
-851.8093362365835
 31
0.0
  0
LINE
  5
554C
330
5286
100
AcDbEntity
  8
Fixings & brackets
100
AcDbLine
 10
20716.78436537243
 20
-853.5050856402959
 30
0.0
 11
20716.33810403842
 21
-851.7899771496159
 31
0.0
  0
LINE
  5
554D
330
5286
100
AcDbEntity
  8
Fixings & brackets
100
AcDbLine
 10
20716.61272639781
 20
-853.9510134958401
 30
0.0
 11
20716.78436537243
 21
-853.5050856402959
 31
0.0
  0
LINE
  5
554E
330
5286
100
AcDbEntity
  8
Fixings & brackets
100
AcDbLine
 10
20716.77836575585
 20
-853.5206729867205
 30
0.0
 11
20716.97269788359
 21
-853.5206729867205
 31
0.0
  0
LINE
  5
554F
330
5286
100
AcDbEntity
  8
Fixings & brackets
100
AcDbLine
 10
20716.34314116117
 20
-851.8093362365835
 30
0.0
 11
20716.97269788359
 21
-851.8093362365835
 31
0.0
  0
LINE
  5
5550
330
5286
100
AcDbEntity
  8
Fixings & brackets
100
AcDbLine
 10
20710.37010484456
 20
-851.8093362365835
 30
0.0
 11
20711.36057377459
 21
-851.8093362365835
 31
0.0
  0
LINE
  5
5551
330
5286
100
AcDbEntity
  8
Fixings & brackets
100
AcDbLine
 10
20710.80532943924
 20
-853.5206729867205
 30
0.0
 11
20711.78570647015
 21
-853.5206729867205
 31
0.0
  0
LINE
  5
5552
330
5286
100
AcDbEntity
  8
Fixings & brackets
100
AcDbLine
 10
20711.36057377459
 20
-851.8093362365835
 30
0.0
 11
20711.77250731366
 21
-853.5050856402959
 31
0.0
  0
LINE
  5
5553
330
5286
100
AcDbEntity
  8
Fixings & brackets
100
AcDbLine
 10
20712.32175203243
 20
-853.5050856402959
 30
0.0
 11
20711.87549069843
 21
-851.7899771496159
 31
0.0
  0
LINE
  5
5554
330
5286
100
AcDbEntity
  8
Fixings & brackets
100
AcDbLine
 10
20711.77250731366
 20
-853.5050856402959
 30
0.0
 11
20712.15011305782
 21
-853.9510134958401
 31
0.0
  0
LINE
  5
5555
330
5286
100
AcDbEntity
  8
Fixings & brackets
100
AcDbLine
 10
20712.15011305782
 20
-853.9510134958401
 30
0.0
 11
20712.32175203243
 21
-853.5050856402959
 31
0.0
  0
LINE
  5
5556
330
5286
100
AcDbEntity
  8
Fixings & brackets
100
AcDbLine
 10
20711.87549069843
 20
-851.7899771496159
 30
0.0
 11
20711.36057377459
 21
-851.312197304389
 31
0.0
  0
LINE
  5
5557
330
5286
100
AcDbEntity
  8
Fixings & brackets
100
AcDbLine
 10
20711.36057377459
 20
-851.312197304389
 30
0.0
 11
20711.36057377459
 21
-851.8093362365835
 31
0.0
  0
LINE
  5
5558
330
5286
100
AcDbEntity
  8
Fixings & brackets
100
AcDbLine
 10
20710.26208433705
 20
-853.5050856402959
 30
0.0
 11
20710.6396900812
 21
-853.9510134958401
 31
0.0
  0
LINE
  5
5559
330
5286
100
AcDbEntity
  8
Fixings & brackets
100
AcDbLine
 10
20710.81132905582
 20
-853.5050856402959
 30
0.0
 11
20710.36506772182
 21
-851.7899771496159
 31
0.0
  0
LINE
  5
555A
330
5286
100
AcDbEntity
  8
Fixings & brackets
100
AcDbLine
 10
20709.85015079798
 20
-851.8093362365835
 30
0.0
 11
20710.26208433705
 21
-853.5050856402959
 31
0.0
  0
LINE
  5
555B
330
5286
100
AcDbEntity
  8
Fixings & brackets
100
AcDbLine
 10
20709.16359489952
 20
-853.9510134958401
 30
0.0
 11
20709.33523387413
 21
-853.5050856402959
 31
0.0
  0
LINE
  5
555C
330
5286
100
AcDbEntity
  8
Fixings & brackets
100
AcDbLine
 10
20709.32923425755
 20
-853.5206729867205
 30
0.0
 11
20710.27528349353
 21
-853.5206729867205
 31
0.0
  0
LINE
  5
555D
330
5286
100
AcDbEntity
  8
Fixings & brackets
100
AcDbLine
 10
20710.36506772182
 20
-851.7899771496159
 30
0.0
 11
20709.85015079798
 21
-851.312197304389
 31
0.0
  0
LINE
  5
555E
330
5286
100
AcDbEntity
  8
Fixings & brackets
100
AcDbLine
 10
20709.85015079798
 20
-851.312197304389
 30
0.0
 11
20709.85015079798
 21
-851.8093362365835
 31
0.0
  0
LINE
  5
555F
330
5286
100
AcDbEntity
  8
Fixings & brackets
100
AcDbLine
 10
20710.6396900812
 20
-853.9510134958401
 30
0.0
 11
20710.81132905582
 21
-853.5050856402959
 31
0.0
  0
LINE
  5
5560
330
5286
100
AcDbEntity
  8
Fixings & brackets
100
AcDbLine
 10
20712.90532454613
 20
-851.312197304389
 30
0.0
 11
20712.90532454613
 21
-851.8093362365835
 31
0.0
  0
LINE
  5
5561
330
5286
100
AcDbEntity
  8
Fixings & brackets
100
AcDbLine
 10
20711.88052782117
 20
-851.8093362365835
 30
0.0
 11
20712.90532454612
 21
-851.8093362365835
 31
0.0
  0
LINE
  5
5562
330
5286
100
AcDbEntity
  8
Fixings & brackets
100
AcDbLine
 10
20669.2913846208
 20
-850.761727756959
 30
0.0
 11
20669.2913846208
 21
-854.5682814663379
 31
0.0
  0
LINE
  5
5563
330
5286
100
AcDbEntity
  8
Fixings & brackets
100
AcDbLine
 10
20666.75178630178
 20
-850.761727756959
 30
0.0
 11
20666.75178630178
 21
-854.5682814663379
 31
0.0
  0
LINE
  5
5564
330
5286
100
AcDbEntity
  8
Fixings & brackets
100
AcDbLine
 10
20669.86678624325
 20
-855.731393213886
 30
0.0
 11
20669.86678624325
 21
-849.5986160094108
 31
0.0
  0
LINE
  5
5565
330
5286
100
AcDbEntity
  8
Fixings & brackets
100
AcDbLine
 10
20669.86678624325
 20
-851.8093362365835
 30
0.0
 11
20688.6531992419
 21
-851.8093362365835
 31
0.0
  0
LINE
  5
5566
330
5286
100
AcDbEntity
  8
Fixings & brackets
100
AcDbLine
 10
20669.86678624325
 20
-853.5206729867205
 30
0.0
 11
20689.07833193746
 21
-853.5206729867132
 31
0.0
  0
LINE
  5
5567
330
5286
100
AcDbEntity
  8
Fixings & brackets
100
AcDbLine
 10
20704.65520955764
 20
-851.8093362365835
 30
0.0
 11
20705.52484436166
 21
-851.8093362365835
 31
0.0
  0
LINE
  5
5568
330
5286
100
AcDbEntity
  8
Fixings & brackets
100
AcDbLine
 10
20705.09524874732
 20
-853.5050856403032
 30
0.0
 11
20704.64898741333
 21
-851.7899771496232
 31
0.0
  0
LINE
  5
5569
330
5286
100
AcDbEntity
  8
Fixings & brackets
100
AcDbLine
 10
20704.92360977271
 20
-853.9510134958474
 30
0.0
 11
20705.09524874732
 21
-853.5050856403032
 31
0.0
  0
LINE
  5
556A
330
5286
100
AcDbEntity
  8
Fixings & brackets
100
AcDbLine
 10
20707.4522422761
 20
-851.8093362365835
 30
0.0
 11
20708.37405561629
 21
-851.8093362365835
 31
0.0
  0
LINE
  5
556B
330
5286
100
AcDbEntity
  8
Fixings & brackets
100
AcDbLine
 10
20705.08924913074
 20
-853.5206729867205
 30
0.0
 11
20705.94997705722
 21
-853.5206729867205
 31
0.0
  0
LINE
  5
556C
330
5286
100
AcDbEntity
  8
Fixings & brackets
100
AcDbLine
 10
20706.93228822952
 20
-851.8093362365835
 30
0.0
 11
20707.34422176859
 21
-853.5050856402959
 31
0.0
  0
LINE
  5
556D
330
5286
100
AcDbEntity
  8
Fixings & brackets
100
AcDbLine
 10
20706.48602261951
 20
-853.5050856402959
 30
0.0
 11
20706.03976128551
 21
-851.7899771496159
 31
0.0
  0
LINE
  5
556E
330
5286
100
AcDbEntity
  8
Fixings & brackets
100
AcDbLine
 10
20707.89346648736
 20
-853.5050856402959
 30
0.0
 11
20707.44720515336
 21
-851.7899771496159
 31
0.0
  0
LINE
  5
556F
330
5286
100
AcDbEntity
  8
Fixings & brackets
100
AcDbLine
 10
20705.52484436166
 20
-851.8093362365835
 30
0.0
 11
20705.93677790074
 21
-853.5050856402959
 31
0.0
  0
LINE
  5
5570
330
5286
100
AcDbEntity
  8
Fixings & brackets
100
AcDbLine
 10
20706.48002300293
 20
-853.5206729867205
 30
0.0
 11
20707.35742092508
 21
-853.5206729867205
 31
0.0
  0
LINE
  5
5571
330
5286
100
AcDbEntity
  8
Fixings & brackets
100
AcDbLine
 10
20705.93677790074
 20
-853.5050856402959
 30
0.0
 11
20706.3143836449
 21
-853.9510134958401
 31
0.0
  0
LINE
  5
5572
330
5286
100
AcDbEntity
  8
Fixings & brackets
100
AcDbLine
 10
20706.3143836449
 20
-853.9510134958401
 30
0.0
 11
20706.48602261951
 21
-853.5050856402959
 31
0.0
  0
LINE
  5
5573
330
5286
100
AcDbEntity
  8
Fixings & brackets
100
AcDbLine
 10
20707.34422176859
 20
-853.5050856402959
 30
0.0
 11
20707.72182751275
 21
-853.9510134958401
 31
0.0
  0
LINE
  5
5574
330
5286
100
AcDbEntity
  8
Fixings & brackets
100
AcDbLine
 10
20707.72182751275
 20
-853.9510134958401
 30
0.0
 11
20707.89346648736
 21
-853.5050856402959
 31
0.0
  0
LINE
  5
5575
330
5286
100
AcDbEntity
  8
Fixings & brackets
100
AcDbLine
 10
20706.04479840825
 20
-851.8093362365835
 30
0.0
 11
20706.93228822952
 21
-851.8093362365835
 31
0.0
  0
LINE
  5
5576
330
5286
100
AcDbEntity
  8
Fixings & brackets
100
AcDbLine
 10
20706.03976128551
 20
-851.7899771496159
 30
0.0
 11
20705.52484436166
 21
-851.312197304389
 31
0.0
  0
LINE
  5
5577
330
5286
100
AcDbEntity
  8
Fixings & brackets
100
AcDbLine
 10
20705.52484436166
 20
-851.312197304389
 30
0.0
 11
20705.52484436166
 21
-851.8093362365835
 31
0.0
  0
LINE
  5
5578
330
5286
100
AcDbEntity
  8
Fixings & brackets
100
AcDbLine
 10
20707.44720515336
 20
-851.7899771496159
 30
0.0
 11
20706.93228822952
 21
-851.312197304389
 31
0.0
  0
LINE
  5
5579
330
5286
100
AcDbEntity
  8
Fixings & brackets
100
AcDbLine
 10
20706.93228822952
 20
-851.312197304389
 30
0.0
 11
20706.93228822952
 21
-851.8093362365835
 31
0.0
  0
LINE
  5
557A
330
5286
100
AcDbEntity
  8
Fixings & brackets
100
AcDbLine
 10
20708.37405561629
 20
-851.312197304389
 30
0.0
 11
20708.37405561629
 21
-851.8093362365835
 31
0.0
  0
LINE
  5
557B
330
5286
100
AcDbEntity
  8
Fixings & brackets
100
AcDbLine
 10
20707.88746687078
 20
-853.5206729867205
 30
0.0
 11
20708.79918831185
 21
-853.5206729867205
 31
0.0
  0
LINE
  5
557C
330
5286
100
AcDbEntity
  8
Fixings & brackets
100
AcDbLine
 10
20708.37405561629
 20
-851.8093362365835
 30
0.0
 11
20708.78598915536
 21
-853.5050856402959
 31
0.0
  0
LINE
  5
557D
330
5286
100
AcDbEntity
  8
Fixings & brackets
100
AcDbLine
 10
20708.88897254013
 20
-851.7899771496159
 30
0.0
 11
20708.37405561629
 21
-851.312197304389
 31
0.0
  0
LINE
  5
557E
330
5286
100
AcDbEntity
  8
Fixings & brackets
100
AcDbLine
 10
20703.77412682059
 20
-853.5050856402959
 30
0.0
 11
20703.3278654866
 21
-851.7899771496159
 31
0.0
  0
LINE
  5
557F
330
5286
100
AcDbEntity
  8
Fixings & brackets
100
AcDbLine
 10
20702.81294856275
 20
-851.8093362365835
 30
0.0
 11
20703.22488210182
 21
-853.5050856402959
 31
0.0
  0
LINE
  5
5580
330
5286
100
AcDbEntity
  8
Fixings & brackets
100
AcDbLine
 10
20703.22488210182
 20
-853.5050856402959
 30
0.0
 11
20703.60248784598
 21
-853.9510134958401
 31
0.0
  0
LINE
  5
5581
330
5286
100
AcDbEntity
  8
Fixings & brackets
100
AcDbLine
 10
20703.60248784598
 20
-853.9510134958401
 30
0.0
 11
20703.77412682059
 21
-853.5050856402959
 31
0.0
  0
LINE
  5
5582
330
5286
100
AcDbEntity
  8
Fixings & brackets
100
AcDbLine
 10
20703.33290260933
 20
-851.8093362365835
 30
0.0
 11
20704.13407048948
 21
-851.8093362365835
 31
0.0
  0
LINE
  5
5583
330
5286
100
AcDbEntity
  8
Fixings & brackets
100
AcDbLine
 10
20702.81294856275
 20
-851.312197304389
 30
0.0
 11
20702.81294856275
 21
-851.8093362365835
 31
0.0
  0
LINE
  5
5584
330
5286
100
AcDbEntity
  8
Fixings & brackets
100
AcDbLine
 10
20703.3278654866
 20
-851.7899771496159
 30
0.0
 11
20702.81294856275
 21
-851.312197304389
 31
0.0
  0
LINE
  5
5585
330
5286
100
AcDbEntity
  8
Fixings & brackets
100
AcDbLine
 10
20704.13407048948
 20
-851.312197304389
 30
0.0
 11
20704.13407048948
 21
-851.8093362365835
 31
0.0
  0
LINE
  5
5586
330
5286
100
AcDbEntity
  8
Fixings & brackets
100
AcDbLine
 10
20704.54600402856
 20
-853.5050856403032
 30
0.0
 11
20704.92360977271
 21
-853.9510134958474
 31
0.0
  0
LINE
  5
5587
330
5286
100
AcDbEntity
  8
Fixings & brackets
100
AcDbLine
 10
20704.13407048948
 20
-851.8093362365835
 30
0.0
 11
20704.54600402856
 21
-853.5050856403032
 31
0.0
  0
LINE
  5
5588
330
5286
100
AcDbEntity
  8
Fixings & brackets
100
AcDbLine
 10
20703.76812720401
 20
-853.5206729867205
 30
0.0
 11
20704.55920318504
 21
-853.5206729867205
 31
0.0
  0
LINE
  5
5589
330
5286
100
AcDbEntity
  8
Fixings & brackets
100
AcDbLine
 10
20704.64898741333
 20
-851.7899771496232
 30
0.0
 11
20704.13407048948
 21
-851.312197304389
 31
0.0
  0
LINE
  5
558A
330
5286
100
AcDbEntity
  8
Fixings & brackets
100
AcDbLine
 10
20669.86678624325
 20
-849.5986160094108
 30
0.0
 11
20669.2913846208
 21
-850.761727756959
 31
0.0
  0
LINE
  5
558B
330
5286
100
AcDbEntity
  8
Fixings & brackets
100
AcDbLine
 10
20669.2913846208
 20
-851.5679775301761
 30
0.0
 11
20666.75178630178
 21
-851.5679775301761
 31
0.0
  0
LINE
  5
558C
330
5286
100
AcDbEntity
  8
Fixings & brackets
100
AcDbLine
 10
20669.2913846208
 20
-853.7620316931279
 30
0.0
 11
20666.75178630178
 21
-853.7620316931279
 31
0.0
  0
LINE
  5
558D
330
5286
100
AcDbEntity
  8
Fixings & brackets
100
AcDbLine
 10
20669.2913846208
 20
-850.761727756959
 30
0.0
 11
20666.75178630178
 21
-850.761727756959
 31
0.0
  0
LINE
  5
558E
330
5286
100
AcDbEntity
  8
Fixings & brackets
100
AcDbLine
 10
20669.86678624325
 20
-855.731393213886
 30
0.0
 11
20669.2913846208
 21
-854.5682814663379
 31
0.0
  0
LINE
  5
558F
330
5286
100
AcDbEntity
  8
Fixings & brackets
100
AcDbLine
 10
20666.75178630178
 20
-854.5682814663379
 30
0.0
 11
20669.2913846208
 21
-854.5682814663379
 31
0.0
  0
LINE
  5
5590
330
5286
100
AcDbEntity
  8
Fixings & brackets
100
AcDbLine
 10
20695.17548455329
 20
-853.5050856402959
 30
0.0
 11
20694.72922321929
 21
-851.7899771496159
 31
0.0
  0
LINE
  5
5591
330
5286
100
AcDbEntity
  8
Fixings & brackets
100
AcDbLine
 10
20694.62623983453
 20
-853.5050856402959
 30
0.0
 11
20695.00384557867
 21
-853.9510134958401
 31
0.0
  0
LINE
  5
5592
330
5286
100
AcDbEntity
  8
Fixings & brackets
100
AcDbLine
 10
20694.73426034203
 20
-851.8093362365835
 30
0.0
 11
20695.69040147714
 21
-851.8093362365835
 31
0.0
  0
LINE
  5
5593
330
5286
100
AcDbEntity
  8
Fixings & brackets
100
AcDbLine
 10
20699.26049214913
 20
-851.7899771496159
 30
0.0
 11
20698.74557522529
 21
-851.312197304389
 31
0.0
  0
LINE
  5
5594
330
5286
100
AcDbEntity
  8
Fixings & brackets
100
AcDbLine
 10
20698.74557522529
 20
-851.8093362365835
 30
0.0
 11
20699.15750876436
 21
-853.5050856402959
 31
0.0
  0
LINE
  5
5595
330
5286
100
AcDbEntity
  8
Fixings & brackets
100
AcDbLine
 10
20698.15600309501
 20
-853.5206729867205
 30
0.0
 11
20699.17070792084
 21
-853.5206729867205
 31
0.0
  0
LINE
  5
5596
330
5286
100
AcDbEntity
  8
Fixings & brackets
100
AcDbLine
 10
20700.70729665864
 20
-851.8093362365835
 30
0.0
 11
20701.66343779374
 21
-851.8093362365835
 31
0.0
  0
LINE
  5
5597
330
5286
100
AcDbEntity
  8
Fixings & brackets
100
AcDbLine
 10
20701.14252125331
 20
-853.5206729867205
 30
0.0
 11
20702.0885704893
 21
-853.5206729867205
 31
0.0
  0
LINE
  5
5598
330
5286
100
AcDbEntity
  8
Fixings & brackets
100
AcDbLine
 10
20700.18734261205
 20
-851.8093362365835
 30
0.0
 11
20700.59927615113
 21
-853.5050856402959
 31
0.0
  0
LINE
  5
5599
330
5286
100
AcDbEntity
  8
Fixings & brackets
100
AcDbLine
 10
20701.1485208699
 20
-853.5050856402959
 30
0.0
 11
20700.7022595359
 21
-851.7899771496159
 31
0.0
  0
LINE
  5
559A
330
5286
100
AcDbEntity
  8
Fixings & brackets
100
AcDbLine
 10
20699.70675348313
 20
-853.5050856402959
 30
0.0
 11
20699.26049214913
 21
-851.7899771496159
 31
0.0
  0
LINE
  5
559B
330
5286
100
AcDbEntity
  8
Fixings & brackets
100
AcDbLine
 10
20699.70075386655
 20
-853.5206729867205
 30
0.0
 11
20700.61247530761
 21
-853.5206729867205
 31
0.0
  0
LINE
  5
559C
330
5286
100
AcDbEntity
  8
Fixings & brackets
100
AcDbLine
 10
20699.15750876436
 20
-853.5050856402959
 30
0.0
 11
20699.53511450852
 21
-853.9510134958401
 31
0.0
  0
LINE
  5
559D
330
5286
100
AcDbEntity
  8
Fixings & brackets
100
AcDbLine
 10
20699.53511450852
 20
-853.9510134958401
 30
0.0
 11
20699.70675348313
 21
-853.5050856402959
 31
0.0
  0
LINE
  5
559E
330
5286
100
AcDbEntity
  8
Fixings & brackets
100
AcDbLine
 10
20700.59927615113
 20
-853.5050856402959
 30
0.0
 11
20700.97688189528
 21
-853.9510134958401
 31
0.0
  0
LINE
  5
559F
330
5286
100
AcDbEntity
  8
Fixings & brackets
100
AcDbLine
 10
20700.97688189528
 20
-853.9510134958401
 30
0.0
 11
20701.1485208699
 21
-853.5050856402959
 31
0.0
  0
LINE
  5
55A0
330
5286
100
AcDbEntity
  8
Fixings & brackets
100
AcDbLine
 10
20699.26552927187
 20
-851.8093362365835
 30
0.0
 11
20700.18734261205
 21
-851.8093362365835
 31
0.0
  0
LINE
  5
55A1
330
5286
100
AcDbEntity
  8
Fixings & brackets
100
AcDbLine
 10
20700.7022595359
 20
-851.7899771496159
 30
0.0
 11
20700.18734261205
 21
-851.312197304389
 31
0.0
  0
LINE
  5
55A2
330
5286
100
AcDbEntity
  8
Fixings & brackets
100
AcDbLine
 10
20700.18734261205
 20
-851.312197304389
 30
0.0
 11
20700.18734261205
 21
-851.8093362365835
 31
0.0
  0
LINE
  5
55A3
330
5286
100
AcDbEntity
  8
Fixings & brackets
100
AcDbLine
 10
20701.66343779374
 20
-851.8093362365835
 30
0.0
 11
20702.07537133282
 21
-853.5050856402959
 31
0.0
  0
LINE
  5
55A4
330
5286
100
AcDbEntity
  8
Fixings & brackets
100
AcDbLine
 10
20702.07537133282
 20
-853.5050856402959
 30
0.0
 11
20702.45297707697
 21
-853.9510134958401
 31
0.0
  0
LINE
  5
55A5
330
5286
100
AcDbEntity
  8
Fixings & brackets
100
AcDbLine
 10
20702.17835471759
 20
-851.7899771496159
 30
0.0
 11
20701.66343779374
 21
-851.312197304389
 31
0.0
  0
LINE
  5
55A6
330
5286
100
AcDbEntity
  8
Fixings & brackets
100
AcDbLine
 10
20701.66343779374
 20
-851.312197304389
 30
0.0
 11
20701.66343779374
 21
-851.8093362365835
 31
0.0
  0
LINE
  5
55A7
330
5286
100
AcDbEntity
  8
Fixings & brackets
100
AcDbLine
 10
20702.62461605159
 20
-853.5050856402959
 30
0.0
 11
20702.17835471759
 21
-851.7899771496159
 31
0.0
  0
LINE
  5
55A8
330
5286
100
AcDbEntity
  8
Fixings & brackets
100
AcDbLine
 10
20702.45297707697
 20
-853.9510134958401
 30
0.0
 11
20702.62461605159
 21
-853.5050856402959
 31
0.0
  0
LINE
  5
55A9
330
5286
100
AcDbEntity
  8
Fixings & brackets
100
AcDbLine
 10
20702.618616435
 20
-853.5206729867205
 30
0.0
 11
20703.23808125831
 21
-853.5206729867205
 31
0.0
  0
LINE
  5
55AA
330
5286
100
AcDbEntity
  8
Fixings & brackets
100
AcDbLine
 10
20702.18339184032
 20
-851.8093362365835
 30
0.0
 11
20702.81294856275
 21
-851.8093362365835
 31
0.0
  0
LINE
  5
55AB
330
5286
100
AcDbEntity
  8
Fixings & brackets
100
AcDbLine
 10
20696.21035552372
 20
-851.8093362365835
 30
0.0
 11
20697.20082445375
 21
-851.8093362365835
 31
0.0
  0
LINE
  5
55AC
330
5286
100
AcDbEntity
  8
Fixings & brackets
100
AcDbLine
 10
20696.6455801184
 20
-853.5206729867205
 30
0.0
 11
20697.62595714931
 21
-853.5206729867205
 31
0.0
  0
LINE
  5
55AD
330
5286
100
AcDbEntity
  8
Fixings & brackets
100
AcDbLine
 10
20697.20082445375
 20
-851.8093362365835
 30
0.0
 11
20697.61275799283
 21
-853.5050856402959
 31
0.0
  0
LINE
  5
55AE
330
5286
100
AcDbEntity
  8
Fixings & brackets
100
AcDbLine
 10
20698.16200271159
 20
-853.5050856402959
 30
0.0
 11
20697.71574137759
 21
-851.7899771496159
 31
0.0
  0
LINE
  5
55AF
330
5286
100
AcDbEntity
  8
Fixings & brackets
100
AcDbLine
 10
20697.61275799283
 20
-853.5050856402959
 30
0.0
 11
20697.99036373698
 21
-853.9510134958401
 31
0.0
  0
LINE
  5
55B0
330
5286
100
AcDbEntity
  8
Fixings & brackets
100
AcDbLine
 10
20697.99036373698
 20
-853.9510134958401
 30
0.0
 11
20698.16200271159
 21
-853.5050856402959
 31
0.0
  0
LINE
  5
55B1
330
5286
100
AcDbEntity
  8
Fixings & brackets
100
AcDbLine
 10
20697.71574137759
 20
-851.7899771496159
 30
0.0
 11
20697.20082445375
 21
-851.312197304389
 31
0.0
  0
LINE
  5
55B2
330
5286
100
AcDbEntity
  8
Fixings & brackets
100
AcDbLine
 10
20697.20082445375
 20
-851.312197304389
 30
0.0
 11
20697.20082445375
 21
-851.8093362365835
 31
0.0
  0
LINE
  5
55B3
330
5286
100
AcDbEntity
  8
Fixings & brackets
100
AcDbLine
 10
20696.10233501621
 20
-853.5050856402959
 30
0.0
 11
20696.47994076036
 21
-853.9510134958401
 31
0.0
  0
LINE
  5
55B4
330
5286
100
AcDbEntity
  8
Fixings & brackets
100
AcDbLine
 10
20696.65157973498
 20
-853.5050856402959
 30
0.0
 11
20696.20531840098
 21
-851.7899771496159
 31
0.0
  0
LINE
  5
55B5
330
5286
100
AcDbEntity
  8
Fixings & brackets
100
AcDbLine
 10
20695.69040147714
 20
-851.8093362365835
 30
0.0
 11
20696.10233501621
 21
-853.5050856402959
 31
0.0
  0
LINE
  5
55B6
330
5286
100
AcDbEntity
  8
Fixings & brackets
100
AcDbLine
 10
20695.00384557867
 20
-853.9510134958401
 30
0.0
 11
20695.17548455329
 21
-853.5050856402959
 31
0.0
  0
LINE
  5
55B7
330
5286
100
AcDbEntity
  8
Fixings & brackets
100
AcDbLine
 10
20695.16948493671
 20
-853.5206729867205
 30
0.0
 11
20696.11553417269
 21
-853.5206729867205
 31
0.0
  0
LINE
  5
55B8
330
5286
100
AcDbEntity
  8
Fixings & brackets
100
AcDbLine
 10
20696.20531840098
 20
-851.7899771496159
 30
0.0
 11
20695.69040147714
 21
-851.312197304389
 31
0.0
  0
LINE
  5
55B9
330
5286
100
AcDbEntity
  8
Fixings & brackets
100
AcDbLine
 10
20695.69040147714
 20
-851.312197304389
 30
0.0
 11
20695.69040147714
 21
-851.8093362365835
 31
0.0
  0
LINE
  5
55BA
330
5286
100
AcDbEntity
  8
Fixings & brackets
100
AcDbLine
 10
20696.47994076036
 20
-853.9510134958401
 30
0.0
 11
20696.65157973498
 21
-853.5050856402959
 31
0.0
  0
LINE
  5
55BB
330
5286
100
AcDbEntity
  8
Fixings & brackets
100
AcDbLine
 10
20698.74557522529
 20
-851.312197304389
 30
0.0
 11
20698.74557522529
 21
-851.8093362365835
 31
0.0
  0
LINE
  5
55BC
330
5286
100
AcDbEntity
  8
Fixings & brackets
100
AcDbLine
 10
20697.72077850033
 20
-851.8093362365835
 30
0.0
 11
20698.74557522529
 21
-851.8093362365835
 31
0.0
  0
LINE
  5
55BD
330
5286
100
AcDbEntity
  8
Fixings & brackets
100
AcDbLine
 10
20690.4954602368
 20
-851.8093362365835
 30
0.0
 11
20691.36509504083
 21
-851.8093362365835
 31
0.0
  0
LINE
  5
55BE
330
5286
100
AcDbEntity
  8
Fixings & brackets
100
AcDbLine
 10
20690.91883370683
 20
-853.436480194294
 30
0.0
 11
20690.47257237283
 21
-851.7213717036138
 31
0.0
  0
LINE
  5
55BF
330
5286
100
AcDbEntity
  8
Fixings & brackets
100
AcDbLine
 10
20690.74719473221
 20
-853.8824080498381
 30
0.0
 11
20690.91883370683
 21
-853.436480194294
 31
0.0
  0
LINE
  5
55C0
330
5286
100
AcDbEntity
  8
Fixings & brackets
100
AcDbLine
 10
20693.29249295526
 20
-851.8093362365835
 30
0.0
 11
20694.21430629545
 21
-851.8093362365835
 31
0.0
  0
LINE
  5
55C1
330
5286
100
AcDbEntity
  8
Fixings & brackets
100
AcDbLine
 10
20690.88642764746
 20
-853.5206729867205
 30
0.0
 11
20691.79022773638
 21
-853.5206729867205
 31
0.0
  0
LINE
  5
55C2
330
5286
100
AcDbEntity
  8
Fixings & brackets
100
AcDbLine
 10
20692.77253890868
 20
-851.8093362365835
 30
0.0
 11
20693.18447244776
 21
-853.5050856402959
 31
0.0
  0
LINE
  5
55C3
330
5286
100
AcDbEntity
  8
Fixings & brackets
100
AcDbLine
 10
20692.32627329867
 20
-853.5050856402959
 30
0.0
 11
20691.88001196467
 21
-851.7899771496159
 31
0.0
  0
LINE
  5
55C4
330
5286
100
AcDbEntity
  8
Fixings & brackets
100
AcDbLine
 10
20693.73371716653
 20
-853.5050856402959
 30
0.0
 11
20693.28745583252
 21
-851.7899771496159
 31
0.0
  0
LINE
  5
55C5
330
5286
100
AcDbEntity
  8
Fixings & brackets
100
AcDbLine
 10
20691.36509504083
 20
-851.8093362365835
 30
0.0
 11
20691.7770285799
 21
-853.5050856402959
 31
0.0
  0
LINE
  5
55C6
330
5286
100
AcDbEntity
  8
Fixings & brackets
100
AcDbLine
 10
20692.32027368209
 20
-853.5206729867205
 30
0.0
 11
20693.19767160424
 21
-853.5206729867205
 31
0.0
  0
LINE
  5
55C7
330
5286
100
AcDbEntity
  8
Fixings & brackets
100
AcDbLine
 10
20691.7770285799
 20
-853.5050856402959
 30
0.0
 11
20692.15463432406
 21
-853.9510134958401
 31
0.0
  0
LINE
  5
55C8
330
5286
100
AcDbEntity
  8
Fixings & brackets
100
AcDbLine
 10
20692.15463432406
 20
-853.9510134958401
 30
0.0
 11
20692.32627329867
 21
-853.5050856402959
 31
0.0
  0
LINE
  5
55C9
330
5286
100
AcDbEntity
  8
Fixings & brackets
100
AcDbLine
 10
20693.18447244776
 20
-853.5050856402959
 30
0.0
 11
20693.56207819191
 21
-853.9510134958401
 31
0.0
  0
LINE
  5
55CA
330
5286
100
AcDbEntity
  8
Fixings & brackets
100
AcDbLine
 10
20693.56207819191
 20
-853.9510134958401
 30
0.0
 11
20693.73371716653
 21
-853.5050856402959
 31
0.0
  0
LINE
  5
55CB
330
5286
100
AcDbEntity
  8
Fixings & brackets
100
AcDbLine
 10
20691.88504908741
 20
-851.8093362365835
 30
0.0
 11
20692.77253890868
 21
-851.8093362365835
 31
0.0
  0
LINE
  5
55CC
330
5286
100
AcDbEntity
  8
Fixings & brackets
100
AcDbLine
 10
20691.88001196467
 20
-851.7899771496159
 30
0.0
 11
20691.36509504083
 21
-851.312197304389
 31
0.0
  0
LINE
  5
55CD
330
5286
100
AcDbEntity
  8
Fixings & brackets
100
AcDbLine
 10
20691.36509504083
 20
-851.312197304389
 30
0.0
 11
20691.36509504083
 21
-851.8093362365835
 31
0.0
  0
LINE
  5
55CE
330
5286
100
AcDbEntity
  8
Fixings & brackets
100
AcDbLine
 10
20693.28745583252
 20
-851.7899771496159
 30
0.0
 11
20692.77253890868
 21
-851.312197304389
 31
0.0
  0
LINE
  5
55CF
330
5286
100
AcDbEntity
  8
Fixings & brackets
100
AcDbLine
 10
20692.77253890868
 20
-851.312197304389
 30
0.0
 11
20692.77253890868
 21
-851.8093362365835
 31
0.0
  0
LINE
  5
55D0
330
5286
100
AcDbEntity
  8
Fixings & brackets
100
AcDbLine
 10
20694.21430629545
 20
-851.312197304389
 30
0.0
 11
20694.21430629545
 21
-851.8093362365835
 31
0.0
  0
LINE
  5
55D1
330
5286
100
AcDbEntity
  8
Fixings & brackets
100
AcDbLine
 10
20693.72771754994
 20
-853.5206729867205
 30
0.0
 11
20694.639438991
 21
-853.5206729867205
 31
0.0
  0
LINE
  5
55D2
330
5286
100
AcDbEntity
  8
Fixings & brackets
100
AcDbLine
 10
20694.21430629545
 20
-851.8093362365835
 30
0.0
 11
20694.62623983453
 21
-853.5050856402959
 31
0.0
  0
LINE
  5
55D3
330
5286
100
AcDbEntity
  8
Fixings & brackets
100
AcDbLine
 10
20694.72922321929
 20
-851.7899771496159
 30
0.0
 11
20694.21430629545
 21
-851.312197304389
 31
0.0
  0
LINE
  5
55D4
330
5286
100
AcDbEntity
  8
Fixings & brackets
100
AcDbLine
 10
20689.61437749975
 20
-853.5050856402959
 30
0.0
 11
20689.16811616575
 21
-851.7899771496159
 31
0.0
  0
LINE
  5
55D5
330
5286
100
AcDbEntity
  8
Fixings & brackets
100
AcDbLine
 10
20688.65319924191
 20
-851.8093362365835
 30
0.0
 11
20689.06513278098
 21
-853.5050856402959
 31
0.0
  0
LINE
  5
55D6
330
5286
100
AcDbEntity
  8
Fixings & brackets
100
AcDbLine
 10
20689.06513278098
 20
-853.5050856402959
 30
0.0
 11
20689.44273852514
 21
-853.9510134958401
 31
0.0
  0
LINE
  5
55D7
330
5286
100
AcDbEntity
  8
Fixings & brackets
100
AcDbLine
 10
20689.44273852514
 20
-853.9510134958401
 30
0.0
 11
20689.61437749975
 21
-853.5050856402959
 31
0.0
  0
LINE
  5
55D8
330
5286
100
AcDbEntity
  8
Fixings & brackets
100
AcDbLine
 10
20689.17315328849
 20
-851.8093362365835
 30
0.0
 11
20689.97432116864
 21
-851.8093362365835
 31
0.0
  0
LINE
  5
55D9
330
5286
100
AcDbEntity
  8
Fixings & brackets
100
AcDbLine
 10
20688.65319924191
 20
-851.312197304389
 30
0.0
 11
20688.65319924191
 21
-851.8093362365835
 31
0.0
  0
LINE
  5
55DA
330
5286
100
AcDbEntity
  8
Fixings & brackets
100
AcDbLine
 10
20689.16811616575
 20
-851.7899771496159
 30
0.0
 11
20688.65319924191
 21
-851.312197304389
 31
0.0
  0
LINE
  5
55DB
330
5286
100
AcDbEntity
  8
Fixings & brackets
100
AcDbLine
 10
20689.95765544898
 20
-851.2435918583797
 30
0.0
 11
20689.95765544898
 21
-851.7407307905742
 31
0.0
  0
LINE
  5
55DC
330
5286
100
AcDbEntity
  8
Fixings & brackets
100
AcDbLine
 10
20690.36958898806
 20
-853.436480194294
 30
0.0
 11
20690.74719473221
 21
-853.8824080498381
 31
0.0
  0
LINE
  5
55DD
330
5286
100
AcDbEntity
  8
Fixings & brackets
100
AcDbLine
 10
20689.95765544898
 20
-851.7407307905742
 30
0.0
 11
20690.36958898806
 21
-853.436480194294
 31
0.0
  0
LINE
  5
55DE
330
5286
100
AcDbEntity
  8
Fixings & brackets
100
AcDbLine
 10
20689.60837788317
 20
-853.5206729867205
 30
0.0
 11
20690.44088231867
 21
-853.5206729867205
 31
0.0
  0
LINE
  5
55DF
330
5286
100
AcDbEntity
  8
Fixings & brackets
100
AcDbLine
 10
20690.47257237283
 20
-851.7213717036138
 30
0.0
 11
20689.95765544898
 21
-851.2435918583797
 31
0.0
  0
ENDBLK
  5
5337
330
5286
100
AcDbEntity
  8
0
100
AcDbBlockEnd
  0
BLOCK
  5
5784
330
5724
100
AcDbEntity
  8
0
100
AcDbBlockBegin
  2
25 long screw
 70
     0
 10
0.0
 20
0.0
 30
0.0
  3
25 long screw
  1

  0
LINE
  5
5725
330
5724
100
AcDbEntity
  8
0
100
AcDbLine
 10
20695.58337530871
 20
-854.338678296002
 30
0.0
 11
20696.02963664271
 21
-852.623569805322
 31
0.0
  0
LINE
  5
5726
330
5724
100
AcDbEntity
  8
0
100
AcDbLine
 10
20696.13262002748
 20
-854.338678296002
 30
0.0
 11
20695.75501428333
 21
-854.7846061515498
 31
0.0
  0
LINE
  5
5727
330
5724
100
AcDbEntity
  8
0
100
AcDbLine
 10
20696.02459951997
 20
-852.6429288922885
 30
0.0
 11
20695.06845838487
 21
-852.6429288922885
 31
0.0
  0
LINE
  5
5728
330
5724
100
AcDbEntity
  8
0
100
AcDbLine
 10
20684.73490985685
 20
-853.4985972673561
 30
0.0
 11
20687.94591129925
 21
-852.6429288922885
 31
0.0
  0
LINE
  5
5729
330
5724
100
AcDbEntity
  8
0
100
AcDbLine
 10
20684.73490985685
 20
-853.4985972673561
 30
0.0
 11
20687.94591129925
 21
-854.3542656424238
 31
0.0
  0
LINE
  5
572A
330
5724
100
AcDbEntity
  8
0
100
AcDbLine
 10
20691.49836771287
 20
-852.623569805322
 30
0.0
 11
20692.01328463672
 21
-852.1457899600923
 31
0.0
  0
LINE
  5
572B
330
5724
100
AcDbEntity
  8
0
100
AcDbLine
 10
20692.01328463672
 20
-852.6429288922885
 30
0.0
 11
20691.60135109764
 21
-854.338678296002
 31
0.0
  0
LINE
  5
572C
330
5724
100
AcDbEntity
  8
0
100
AcDbLine
 10
20692.60285676699
 20
-854.3542656424238
 30
0.0
 11
20691.58815194116
 21
-854.3542656424238
 31
0.0
  0
LINE
  5
572D
330
5724
100
AcDbEntity
  8
0
100
AcDbLine
 10
20690.05156320337
 20
-852.6429288922885
 30
0.0
 11
20689.09542206826
 21
-852.6429288922885
 31
0.0
  0
LINE
  5
572E
330
5724
100
AcDbEntity
  8
0
100
AcDbLine
 10
20689.61633860869
 20
-854.3542656424238
 30
0.0
 11
20688.6702893727
 21
-854.3542656424238
 31
0.0
  0
LINE
  5
572F
330
5724
100
AcDbEntity
  8
0
100
AcDbLine
 10
20690.57151724995
 20
-852.6429288922885
 30
0.0
 11
20690.15958371087
 21
-854.338678296002
 31
0.0
  0
LINE
  5
5730
330
5724
100
AcDbEntity
  8
0
100
AcDbLine
 10
20689.6103389921
 20
-854.338678296002
 30
0.0
 11
20690.0566003261
 21
-852.623569805322
 31
0.0
  0
LINE
  5
5731
330
5724
100
AcDbEntity
  8
0
100
AcDbLine
 10
20691.05210637887
 20
-854.338678296002
 30
0.0
 11
20691.49836771287
 21
-852.623569805322
 31
0.0
  0
LINE
  5
5732
330
5724
100
AcDbEntity
  8
0
100
AcDbLine
 10
20691.05810599546
 20
-854.3542656424238
 30
0.0
 11
20690.14638455439
 21
-854.3542656424238
 31
0.0
  0
LINE
  5
5733
330
5724
100
AcDbEntity
  8
0
100
AcDbLine
 10
20691.60135109764
 20
-854.338678296002
 30
0.0
 11
20691.22374535349
 21
-854.7846061515498
 31
0.0
  0
LINE
  5
5734
330
5724
100
AcDbEntity
  8
0
100
AcDbLine
 10
20691.22374535349
 20
-854.7846061515498
 30
0.0
 11
20691.05210637887
 21
-854.338678296002
 31
0.0
  0
LINE
  5
5735
330
5724
100
AcDbEntity
  8
0
100
AcDbLine
 10
20690.15958371087
 20
-854.338678296002
 30
0.0
 11
20689.78197796672
 21
-854.7846061515498
 31
0.0
  0
LINE
  5
5736
330
5724
100
AcDbEntity
  8
0
100
AcDbLine
 10
20689.78197796672
 20
-854.7846061515498
 30
0.0
 11
20689.6103389921
 21
-854.338678296002
 31
0.0
  0
LINE
  5
5737
330
5724
100
AcDbEntity
  8
0
100
AcDbLine
 10
20691.49333059014
 20
-852.6429288922885
 30
0.0
 11
20690.57151724995
 21
-852.6429288922885
 31
0.0
  0
LINE
  5
5738
330
5724
100
AcDbEntity
  8
0
100
AcDbLine
 10
20690.0566003261
 20
-852.623569805322
 30
0.0
 11
20690.57151724995
 21
-852.1457899600923
 31
0.0
  0
LINE
  5
5739
330
5724
100
AcDbEntity
  8
0
100
AcDbLine
 10
20690.57151724995
 20
-852.1457899600923
 30
0.0
 11
20690.57151724995
 21
-852.6429288922885
 31
0.0
  0
LINE
  5
573A
330
5724
100
AcDbEntity
  8
0
100
AcDbLine
 10
20689.09542206826
 20
-852.6429288922885
 30
0.0
 11
20688.68348852918
 21
-854.338678296002
 31
0.0
  0
LINE
  5
573B
330
5724
100
AcDbEntity
  8
0
100
AcDbLine
 10
20688.68348852918
 20
-854.338678296002
 30
0.0
 11
20688.30588278503
 21
-854.7846061515498
 31
0.0
  0
LINE
  5
573C
330
5724
100
AcDbEntity
  8
0
100
AcDbLine
 10
20688.58050514442
 20
-852.623569805322
 30
0.0
 11
20689.09542206826
 21
-852.1457899600923
 31
0.0
  0
LINE
  5
573D
330
5724
100
AcDbEntity
  8
0
100
AcDbLine
 10
20689.09542206826
 20
-852.1457899600923
 30
0.0
 11
20689.09542206826
 21
-852.6429288922885
 31
0.0
  0
LINE
  5
573E
330
5724
100
AcDbEntity
  8
0
100
AcDbLine
 10
20688.13424381041
 20
-854.338678296002
 30
0.0
 11
20688.58050514442
 21
-852.623569805322
 31
0.0
  0
LINE
  5
573F
330
5724
100
AcDbEntity
  8
0
100
AcDbLine
 10
20688.30588278503
 20
-854.7846061515498
 30
0.0
 11
20688.13424381041
 21
-854.338678296002
 31
0.0
  0
LINE
  5
5740
330
5724
100
AcDbEntity
  8
0
100
AcDbLine
 10
20688.140243427
 20
-854.3542656424238
 30
0.0
 11
20687.94591129925
 21
-854.3542656424238
 31
0.0
  0
LINE
  5
5741
330
5724
100
AcDbEntity
  8
0
100
AcDbLine
 10
20688.57546802168
 20
-852.6429288922885
 30
0.0
 11
20687.94591129925
 21
-852.6429288922885
 31
0.0
  0
LINE
  5
5742
330
5724
100
AcDbEntity
  8
0
100
AcDbLine
 10
20694.54850433829
 20
-852.6429288922885
 30
0.0
 11
20693.55803540826
 21
-852.6429288922885
 31
0.0
  0
LINE
  5
5743
330
5724
100
AcDbEntity
  8
0
100
AcDbLine
 10
20694.11327974361
 20
-854.3542656424238
 30
0.0
 11
20693.1329027127
 21
-854.3542656424238
 31
0.0
  0
LINE
  5
5744
330
5724
100
AcDbEntity
  8
0
100
AcDbLine
 10
20693.55803540825
 20
-852.6429288922885
 30
0.0
 11
20693.14610186918
 21
-854.338678296002
 31
0.0
  0
LINE
  5
5745
330
5724
100
AcDbEntity
  8
0
100
AcDbLine
 10
20692.59685715041
 20
-854.338678296002
 30
0.0
 11
20693.04311848441
 21
-852.623569805322
 31
0.0
  0
LINE
  5
5746
330
5724
100
AcDbEntity
  8
0
100
AcDbLine
 10
20693.14610186918
 20
-854.338678296002
 30
0.0
 11
20692.76849612502
 21
-854.7846061515498
 31
0.0
  0
LINE
  5
5747
330
5724
100
AcDbEntity
  8
0
100
AcDbLine
 10
20692.76849612502
 20
-854.7846061515498
 30
0.0
 11
20692.59685715041
 21
-854.338678296002
 31
0.0
  0
LINE
  5
5748
330
5724
100
AcDbEntity
  8
0
100
AcDbLine
 10
20693.04311848441
 20
-852.623569805322
 30
0.0
 11
20693.55803540825
 21
-852.1457899600923
 31
0.0
  0
LINE
  5
5749
330
5724
100
AcDbEntity
  8
0
100
AcDbLine
 10
20693.55803540825
 20
-852.1457899600923
 30
0.0
 11
20693.55803540825
 21
-852.6429288922885
 31
0.0
  0
LINE
  5
574A
330
5724
100
AcDbEntity
  8
0
100
AcDbLine
 10
20694.65652484579
 20
-854.338678296002
 30
0.0
 11
20694.27891910164
 21
-854.7846061515498
 31
0.0
  0
LINE
  5
574B
330
5724
100
AcDbEntity
  8
0
100
AcDbLine
 10
20694.10728012702
 20
-854.338678296002
 30
0.0
 11
20694.55354146102
 21
-852.623569805322
 31
0.0
  0
LINE
  5
574C
330
5724
100
AcDbEntity
  8
0
100
AcDbLine
 10
20695.06845838487
 20
-852.6429288922885
 30
0.0
 11
20694.65652484579
 21
-854.338678296002
 31
0.0
  0
LINE
  5
574D
330
5724
100
AcDbEntity
  8
0
100
AcDbLine
 10
20695.75501428333
 20
-854.7846061515498
 30
0.0
 11
20695.58337530871
 21
-854.338678296002
 31
0.0
  0
LINE
  5
574E
330
5724
100
AcDbEntity
  8
0
100
AcDbLine
 10
20695.5893749253
 20
-854.3542656424238
 30
0.0
 11
20694.64332568931
 21
-854.3542656424238
 31
0.0
  0
LINE
  5
574F
330
5724
100
AcDbEntity
  8
0
100
AcDbLine
 10
20694.55354146102
 20
-852.623569805322
 30
0.0
 11
20695.06845838487
 21
-852.1457899600923
 31
0.0
  0
LINE
  5
5750
330
5724
100
AcDbEntity
  8
0
100
AcDbLine
 10
20695.06845838487
 20
-852.1457899600923
 30
0.0
 11
20695.06845838487
 21
-852.6429288922885
 31
0.0
  0
LINE
  5
5751
330
5724
100
AcDbEntity
  8
0
100
AcDbLine
 10
20694.27891910164
 20
-854.7846061515498
 30
0.0
 11
20694.10728012702
 21
-854.338678296002
 31
0.0
  0
LINE
  5
5752
330
5724
100
AcDbEntity
  8
0
100
AcDbLine
 10
20692.01328463672
 20
-852.1457899600923
 30
0.0
 11
20692.01328463672
 21
-852.6429288922885
 31
0.0
  0
LINE
  5
5753
330
5724
100
AcDbEntity
  8
0
100
AcDbLine
 10
20693.03808136167
 20
-852.6429288922885
 30
0.0
 11
20692.01328463672
 21
-852.6429288922885
 31
0.0
  0
LINE
  5
5754
330
5724
100
AcDbEntity
  8
0
100
AcDbLine
 10
20710.62722456204
 20
-851.5953204126684
 30
0.0
 11
20710.62722456204
 21
-855.401874122043
 31
0.0
  0
LINE
  5
5755
330
5724
100
AcDbEntity
  8
0
100
AcDbLine
 10
20713.16682288106
 20
-851.5953204126684
 30
0.0
 11
20713.16682288106
 21
-855.401874122043
 31
0.0
  0
LINE
  5
5756
330
5724
100
AcDbEntity
  8
0
100
AcDbLine
 10
20710.05182293959
 20
-856.5649858695929
 30
0.0
 11
20710.05182293959
 21
-850.4322086651185
 31
0.0
  0
LINE
  5
5757
330
5724
100
AcDbEntity
  8
0
100
AcDbLine
 10
20710.05182293959
 20
-852.6429288922885
 30
0.0
 11
20702.10566062009
 21
-852.6429288922885
 31
0.0
  0
LINE
  5
5758
330
5724
100
AcDbEntity
  8
0
100
AcDbLine
 10
20710.05182293959
 20
-854.3542656424238
 30
0.0
 11
20701.68052792454
 21
-854.3542656424239
 31
0.0
  0
LINE
  5
5759
330
5724
100
AcDbEntity
  8
0
100
AcDbLine
 10
20700.26339962521
 20
-852.6429288922885
 30
0.0
 11
20699.39376482118
 21
-852.6429288922885
 31
0.0
  0
LINE
  5
575A
330
5724
100
AcDbEntity
  8
0
100
AcDbLine
 10
20699.84002615518
 20
-854.270072849998
 30
0.0
 11
20700.28628748917
 21
-852.554964359318
 31
0.0
  0
LINE
  5
575B
330
5724
100
AcDbEntity
  8
0
100
AcDbLine
 10
20700.01166512979
 20
-854.7160007055458
 30
0.0
 11
20699.84002615518
 21
-854.270072849998
 31
0.0
  0
LINE
  5
575C
330
5724
100
AcDbEntity
  8
0
100
AcDbLine
 10
20697.46636690674
 20
-852.6429288922885
 30
0.0
 11
20696.54455356656
 21
-852.6429288922885
 31
0.0
  0
LINE
  5
575D
330
5724
100
AcDbEntity
  8
0
100
AcDbLine
 10
20699.87243221455
 20
-854.3542656424238
 30
0.0
 11
20698.96863212562
 21
-854.3542656424238
 31
0.0
  0
LINE
  5
575E
330
5724
100
AcDbEntity
  8
0
100
AcDbLine
 10
20697.98632095332
 20
-852.6429288922885
 30
0.0
 11
20697.57438741425
 21
-854.338678296002
 31
0.0
  0
LINE
  5
575F
330
5724
100
AcDbEntity
  8
0
100
AcDbLine
 10
20698.43258656333
 20
-854.338678296002
 30
0.0
 11
20698.87884789733
 21
-852.623569805322
 31
0.0
  0
LINE
  5
5760
330
5724
100
AcDbEntity
  8
0
100
AcDbLine
 10
20697.02514269548
 20
-854.338678296002
 30
0.0
 11
20697.47140402948
 21
-852.623569805322
 31
0.0
  0
LINE
  5
5761
330
5724
100
AcDbEntity
  8
0
100
AcDbLine
 10
20699.39376482118
 20
-852.6429288922885
 30
0.0
 11
20698.9818312821
 21
-854.338678296002
 31
0.0
  0
LINE
  5
5762
330
5724
100
AcDbEntity
  8
0
100
AcDbLine
 10
20698.43858617991
 20
-854.3542656424238
 30
0.0
 11
20697.56118825777
 21
-854.3542656424238
 31
0.0
  0
LINE
  5
5763
330
5724
100
AcDbEntity
  8
0
100
AcDbLine
 10
20698.9818312821
 20
-854.338678296002
 30
0.0
 11
20698.60422553795
 21
-854.7846061515498
 31
0.0
  0
LINE
  5
5764
330
5724
100
AcDbEntity
  8
0
100
AcDbLine
 10
20698.60422553795
 20
-854.7846061515498
 30
0.0
 11
20698.43258656333
 21
-854.338678296002
 31
0.0
  0
LINE
  5
5765
330
5724
100
AcDbEntity
  8
0
100
AcDbLine
 10
20697.57438741425
 20
-854.338678296002
 30
0.0
 11
20697.19678167009
 21
-854.7846061515498
 31
0.0
  0
LINE
  5
5766
330
5724
100
AcDbEntity
  8
0
100
AcDbLine
 10
20697.19678167009
 20
-854.7846061515498
 30
0.0
 11
20697.02514269548
 21
-854.338678296002
 31
0.0
  0
LINE
  5
5767
330
5724
100
AcDbEntity
  8
0
100
AcDbLine
 10
20698.8738107746
 20
-852.6429288922885
 30
0.0
 11
20697.98632095332
 21
-852.6429288922885
 31
0.0
  0
LINE
  5
5768
330
5724
100
AcDbEntity
  8
0
100
AcDbLine
 10
20698.87884789733
 20
-852.623569805322
 30
0.0
 11
20699.39376482118
 21
-852.1457899600923
 31
0.0
  0
LINE
  5
5769
330
5724
100
AcDbEntity
  8
0
100
AcDbLine
 10
20699.39376482118
 20
-852.1457899600923
 30
0.0
 11
20699.39376482118
 21
-852.6429288922885
 31
0.0
  0
LINE
  5
576A
330
5724
100
AcDbEntity
  8
0
100
AcDbLine
 10
20697.47140402948
 20
-852.623569805322
 30
0.0
 11
20697.98632095332
 21
-852.1457899600923
 31
0.0
  0
LINE
  5
576B
330
5724
100
AcDbEntity
  8
0
100
AcDbLine
 10
20697.98632095332
 20
-852.1457899600923
 30
0.0
 11
20697.98632095332
 21
-852.6429288922885
 31
0.0
  0
LINE
  5
576C
330
5724
100
AcDbEntity
  8
0
100
AcDbLine
 10
20696.54455356656
 20
-852.1457899600923
 30
0.0
 11
20696.54455356656
 21
-852.6429288922885
 31
0.0
  0
LINE
  5
576D
330
5724
100
AcDbEntity
  8
0
100
AcDbLine
 10
20697.03114231206
 20
-854.3542656424238
 30
0.0
 11
20696.119420871
 21
-854.3542656424238
 31
0.0
  0
LINE
  5
576E
330
5724
100
AcDbEntity
  8
0
100
AcDbLine
 10
20696.54455356656
 20
-852.6429288922885
 30
0.0
 11
20696.13262002748
 21
-854.338678296002
 31
0.0
  0
LINE
  5
576F
330
5724
100
AcDbEntity
  8
0
100
AcDbLine
 10
20696.02963664271
 20
-852.623569805322
 30
0.0
 11
20696.54455356656
 21
-852.1457899600923
 31
0.0
  0
LINE
  5
5770
330
5724
100
AcDbEntity
  8
0
100
AcDbLine
 10
20701.14448236225
 20
-854.338678296002
 30
0.0
 11
20701.59074369625
 21
-852.623569805322
 31
0.0
  0
LINE
  5
5771
330
5724
100
AcDbEntity
  8
0
100
AcDbLine
 10
20702.1056606201
 20
-852.6429288922885
 30
0.0
 11
20701.69372708102
 21
-854.338678296002
 31
0.0
  0
LINE
  5
5772
330
5724
100
AcDbEntity
  8
0
100
AcDbLine
 10
20701.69372708102
 20
-854.338678296002
 30
0.0
 11
20701.31612133687
 21
-854.7846061515498
 31
0.0
  0
LINE
  5
5773
330
5724
100
AcDbEntity
  8
0
100
AcDbLine
 10
20701.31612133687
 20
-854.7846061515498
 30
0.0
 11
20701.14448236225
 21
-854.338678296002
 31
0.0
  0
LINE
  5
5774
330
5724
100
AcDbEntity
  8
0
100
AcDbLine
 10
20701.58570657352
 20
-852.6429288922885
 30
0.0
 11
20700.78453869336
 21
-852.6429288922885
 31
0.0
  0
LINE
  5
5775
330
5724
100
AcDbEntity
  8
0
100
AcDbLine
 10
20702.1056606201
 20
-852.1457899600923
 30
0.0
 11
20702.1056606201
 21
-852.6429288922885
 31
0.0
  0
LINE
  5
5776
330
5724
100
AcDbEntity
  8
0
100
AcDbLine
 10
20701.59074369625
 20
-852.623569805322
 30
0.0
 11
20702.1056606201
 21
-852.1457899600923
 31
0.0
  0
LINE
  5
5777
330
5724
100
AcDbEntity
  8
0
100
AcDbLine
 10
20700.80120441302
 20
-852.0771845140879
 30
0.0
 11
20700.80120441302
 21
-852.5743234462838
 31
0.0
  0
LINE
  5
5778
330
5724
100
AcDbEntity
  8
0
100
AcDbLine
 10
20700.38927087395
 20
-854.270072849998
 30
0.0
 11
20700.01166512979
 21
-854.7160007055458
 31
0.0
  0
LINE
  5
5779
330
5724
100
AcDbEntity
  8
0
100
AcDbLine
 10
20700.80120441302
 20
-852.5743234462838
 30
0.0
 11
20700.38927087395
 21
-854.270072849998
 31
0.0
  0
LINE
  5
577A
330
5724
100
AcDbEntity
  8
0
100
AcDbLine
 10
20701.15048197883
 20
-854.3542656424238
 30
0.0
 11
20700.31797754333
 21
-854.3542656424238
 31
0.0
  0
LINE
  5
577B
330
5724
100
AcDbEntity
  8
0
100
AcDbLine
 10
20700.28628748917
 20
-852.554964359318
 30
0.0
 11
20700.80120441302
 21
-852.0771845140879
 31
0.0
  0
LINE
  5
577C
330
5724
100
AcDbEntity
  8
0
100
AcDbLine
 10
20710.05182293959
 20
-850.4322086651185
 30
0.0
 11
20710.62722456204
 21
-851.5953204126684
 31
0.0
  0
LINE
  5
577D
330
5724
100
AcDbEntity
  8
0
100
AcDbLine
 10
20710.62722456204
 20
-852.4015701858802
 30
0.0
 11
20713.16682288106
 21
-852.4015701858802
 31
0.0
  0
LINE
  5
577E
330
5724
100
AcDbEntity
  8
0
100
AcDbLine
 10
20710.62722456204
 20
-854.5956243488312
 30
0.0
 11
20713.16682288106
 21
-854.5956243488312
 31
0.0
  0
LINE
  5
577F
330
5724
100
AcDbEntity
  8
0
100
AcDbLine
 10
20710.62722456204
 20
-851.5953204126684
 30
0.0
 11
20713.16682288106
 21
-851.5953204126684
 31
0.0
  0
LINE
  5
5780
330
5724
100
AcDbEntity
  8
0
100
AcDbLine
 10
20710.05182293959
 20
-856.5649858695929
 30
0.0
 11
20710.62722456204
 21
-855.401874122043
 31
0.0
  0
LINE
  5
5781
330
5724
100
AcDbEntity
  8
0
100
AcDbLine
 10
20713.16682288106
 20
-855.401874122043
 30
0.0
 11
20710.62722456204
 21
-855.401874122043
 31
0.0
  0
ENDBLK
  5
5785
330
5724
100
AcDbEntity
  8
0
100
AcDbBlockEnd
  0
ENDSEC
  0
SECTION
  2
ENTITIES
  0
LINE
  5
2909
330
2
100
AcDbEntity
  8
HB_XDET_TEXT
370
     9
100
AcDbLine
 10
3515.212494730724
 20
43031.60793254089
 30
0.0
 11
3508.30140623296
 21
43026.06262136587
 31
0.0
  0
LINE
  5
290B
330
2
100
AcDbEntity
  8
HB_XDET_TEXT
370
     9
100
AcDbLine
 10
3518.266230256119
 20
43020.51731019086
 30
0.0
 11
3515.212494730724
 21
43031.60793254089
 31
0.0
  0
LINE
  5
290C
330
2
100
AcDbEntity
  8
HB_XDET_TEXT
370
     9
100
AcDbLine
 10
3525.177318753883
 20
43026.06262136587
 30
0.0
 11
3518.266230256119
 21
43020.51731019086
 31
0.0
  0
LINE
  5
290D
330
2
100
AcDbEntity
  8
HB_XDET_TEXT
370
     9
100
AcDbLine
 10
3565.582932919844
 20
43026.06262136587
 30
0.0
 11
3525.177318753884
 21
43026.06262136587
 31
0.0
  0
LINE
  5
291F
330
2
100
AcDbEntity
  8
HB_XDET_PANELS
370
    50
100
AcDbLine
 10
3554.522809528823
 20
42467.13707901228
 30
0.0
 11
3479.522809528827
 21
42467.13707901228
 31
0.0
  0
LINE
  5
2923
330
2
100
AcDbEntity
  8
Supercrete
370
    50
100
AcDbLine
 10
3554.522809528823
 20
42467.13707901228
 30
0.0
 11
3554.522809528822
 21
43026.06262136587
 31
0.0
  0
LINE
  5
2924
330
2
100
AcDbEntity
  8
Supercrete
370
    50
100
AcDbLine
 10
3479.522809528827
 20
42467.1370790123
 30
0.0
 11
3479.522809528817
 21
43026.06262136587
 31
0.0
  0
LINE
  5
371F
330
2
100
AcDbEntity
  8
HB_XDET_TEXT
370
     9
100
AcDbLine
 10
3467.895792066998
 20
43026.06262136587
 30
0.0
 11
3508.301406232968
 21
43026.06262136587
 31
0.0
  0
LINE
  5
3751
330
2
100
AcDbEntity
  8
Concrete
370
    50
100
AcDbLine
 10
3881.710511580504
 20
42457.13707901225
 30
0.0
 11
3147.3790302028
 21
42457.13707901229
 31
0.0
  0
SPLINE
  5
375F
330
2
100
AcDbEntity
  8
DEFPOINTS
100
AcDbSpline
210
0.0
220
0.0
230
1.0
 70
  1064
 71
     3
 72
    16
 73
    12
 74
    10
 42
0.000000001
 43
0.0000000001
 44
0.00001
 40
0.0
 40
0.0
 40
0.0
 40
0.0
 40
69.75505307891213
 40
159.4466847433892
 40
234.2894456553885
 40
346.3181861873799
 40
453.4774352471466
 40
561.8846236246662
 40
666.8701540815434
 40
730.1784188020631
 40
810.0666979919878
 40
810.0666979919878
 40
810.0666979919878
 40
810.0666979919878
 10
3881.710511580504
 20
42457.13707901225
 30
0.0
 10
3862.335529178849
 20
42443.75720929559
 30
0.0
 10
3818.048037029342
 20
42413.17338230694
 30
0.0
 10
3733.145996811383
 20
42412.63180544271
 30
0.0
 10
3668.869679635328
 20
42343.63474313957
 30
0.0
 10
3565.784132630567
 20
42300.34813003254
 30
0.0
 10
3467.861413252734
 20
42383.39204481108
 30
0.0
 10
3363.327523843274
 20
42328.38328221364
 30
0.0
 10
3261.240057605665
 20
42355.3618732674
 30
0.0
 10
3221.737587025354
 20
42433.99931980373
 30
0.0
 10
3174.007361969903
 20
42448.85127668013
 30
0.0
 10
3147.3790302028
 20
42457.13707901229
 30
0.0
 11
3881.710511580504
 21
42457.13707901225
 31
0.0
 11
3821.003136160025
 21
42422.7803783207
 31
0.0
 11
3734.119669500318
 21
42400.51265215701
 31
0.0
 11
3673.969579836079
 21
42355.97719982965
 31
0.0
 11
3567.036083288281
 21
42322.57561435207
 31
0.0
 11
3466.785922413798
 21
42360.4307495839
 31
0.0
 11
3359.852425866012
 21
42342.61656563862
 31
0.0
 11
3259.602276425614
 21
42373.79138377495
 31
0.0
 11
3219.502216649443
 21
42422.7803783207
 31
0.0
 11
3147.3790302028
 21
42457.13707901229
 31
0.0
  0
HATCH
  5
37DF
330
2
100
AcDbEntity
  8
Concrete
100
AcDbHatch
 10
0.0
 20
0.0
 30
0.0
210
0.0
220
0.0
230
1.0
  2
AR-CONC
 70
     0
 71
     0
 91
        1
 92
        5
 93
        7
 72
     4
 94
        3
 73
     0
 74
     0
 95
       16
 96
       12
 40
0.0
 40
0.0
 40
0.0
 40
0.0
 40
26.6294258828008
 40
47.73218078630515
 40
82.72735783282504
 40
118.8630862798463
 40
154.5828380812421
 40
191.9257514299973
 40
216.8733404932455
 40
246.770550335767
 40
270.0222368047156
 40
270.0222368047156
 40
270.0222368047156
 40
270.0222368047156
 10
3147.3790302028
 20
42457.13707901229
 10
3174.007361456084
 20
42448.85127683999
 10
3221.737580162761
 20
42433.99930785701
 10
3261.240052703622
 20
42355.36186643647
 10
3363.32751735133
 20
42328.38327166364
 10
3467.861407924508
 20
42383.39204216104
 10
3565.784125092695
 20
42300.34812062375
 10
3668.86968215913
 20
42343.63472912414
 10
3733.145983121175
 20
42412.63181535201
 10
3818.048029157671
 20
42413.17338898152
 10
3862.335527421218
 20
42443.7572080818
 10
3881.710511580504
 20
42457.13707901225
 72
     1
 10
3881.710511580527
 20
42457.13707901229
 11
3526.478886803178
 21
42457.13707901229
 72
     1
 10
3526.478886803179
 20
42457.13707901229
 11
3526.478886803179
 21
42384.38707901225
 72
     1
 10
3526.478886803179
 20
42384.38707901225
 11
3521.978886803181
 21
42369.38707901226
 72
     1
 10
3521.97888680318
 20
42369.38707901225
 11
3517.478886803178
 21
42384.38707901226
 72
     1
 10
3517.478886803178
 20
42384.38707901226
 11
3517.478886803178
 21
42457.13707901228
 72
     1
 10
3517.478886803178
 20
42457.13707901229
 11
3147.379030202831
 21
42457.13707901229
 97
        0
 75
     0
 76
     1
 52
180.0
 41
5.0
 77
     0
 78
    13
 53
230.0
 43
3404.120469275017
 44
42608.8726224484
 45
-35.86300913003768
 46
3.137606749129759
 79
     2
 49
3.75
 49
-41.25
 53
175.0
 43
3404.120469275017
 44
42608.8726224484
 45
6.937566680649996
 46
-37.6096066850006
 79
     2
 49
3.0
 49
-33.0
 53
280.4514
 43
3401.131885275017
 44
42609.13408944839
 45
-28.92546908570108
 46
-34.47197710304768
 79
     2
 49
3.1870095
 49
-35.0571056
 53
226.1842
 43
3404.120469275017
 44
42598.8726224484
 45
-53.36205243128222
 46
8.27595071645091
 79
     2
 49
5.625
 49
-61.875
 53
276.6356
 43
3399.673632025017
 44
42599.5622877984
 45
-46.73313527743517
 46
-48.70589354502207
 79
     2
 49
4.780514399999998
 49
-52.58564999999999
 53
171.1841999999999
 43
3404.120469275017
 44
42598.8726224484
 45
-46.73309725668136
 46
-48.70593004626623
 79
     2
 49
4.5
 49
-49.5
 53
201.0
 43
3399.120469275017
 44
42601.3726224484
 45
-29.84535260592308
 46
20.13094453326695
 79
     2
 49
3.75
 49
-41.25
 53
146.0
 43
3399.120469275017
 44
42601.3726224484
 45
-12.16576659607909
 46
-36.25750225234265
 79
     2
 49
3.0
 49
-33.0
 53
251.4514000000001
 43
3396.633357625017
 44
42603.0502027484
 45
-42.01113142907449
 46
-16.12652483549761
 79
     2
 49
3.187009499999999
 49
-35.05710559999999
 53
217.5
 43
3404.120469275017
 44
42608.8726224484
 45
-0.6079927658645355
 46
-16.64469269156557
 79
     6
 49
0.0
 49
-32.6
 49
0.0
 49
-33.5
 49
0.0
 49
-33.125
 53
187.5
 43
3404.120469275017
 44
42608.8726224484
 45
-13.15347687210743
 46
-19.72058559411801
 79
     6
 49
0.0
 49
-19.1
 49
0.0
 49
-31.85
 49
0.0
 49
-12.625
 53
147.4999999999999
 43
3415.270469275017
 44
42608.8726224484
 45
-26.69112180862045
 46
1.127743586718993
 79
     6
 49
0.0
 49
-12.5
 49
0.0
 49
-39.0
 49
0.0
 49
-51.75
 53
137.5
 43
3420.270469275017
 44
42608.8726224484
 45
-29.15930846711931
 46
-5.005249116615878
 79
     6
 49
0.0
 49
-16.25
 49
0.0
 49
-25.9
 49
0.0
 49
-36.75
 47
0.4540763080453822
 98
        1
 10
3414.580587859339
 20
42412.39564499069
1001
ACAD
1010
3404.120469275017
1020
42608.8726224484
1030
0.0
  0
LINE
  5
44B6
330
2
100
AcDbEntity
  8
Concrete
370
    50
100
AcDbLine
 10
3479.522809528827
 20
42467.13707901228
 30
0.0
 11
3479.522809528827
 21
42457.13707901229
 31
0.0
  0
HATCH
  5
44C8
330
2
100
AcDbEntity
  8
Concrete
100
AcDbHatch
 10
0.0
 20
0.0
 30
0.0
210
0.0
220
0.0
230
1.0
  2
AR-SAND
 70
     0
 71
     0
 91
        1
 92
        7
 72
     1
 73
     1
 93
       11
 10
3554.522809528827
 20
42467.13707901229
 42
0.0
 10
3479.522809528827
 20
42467.13707901228
 42
0.0
 10
3479.522809528827
 20
42457.13707901228
 42
0.0
 10
3505.272809528828
 20
42457.13707901228
 42
0.0
 10
3505.272809528828
 20
42458.33707901228
 42
0.0
 10
3526.022809528827
 20
42458.33707901228
 42
0.0
 10
3526.022809528827
 20
42460.33707901228
 42
0.0
 10
3533.022809528827
 20
42460.33707901228
 42
0.0
 10
3533.022809528827
 20
42458.33707901228
 42
0.0
 10
3553.772809528827
 20
42458.33707901228
 42
0.4142135623730951
 10
3554.522809528827
 20
42459.08707901229
 42
0.0
 97
        0
 75
     0
 76
     1
 52
0.0
 41
2.0
 77
     0
 78
     4
 53
37.5
 43
3479.522809528827
 44
42457.13707901228
 45
-0.1259867162192163
 46
3.853647538026317
 79
     6
 49
0.0
 49
-3.04
 49
0.0
 49
-3.399999999999999
 49
0.0
 49
-3.25
 53
7.499999999999999
 43
3479.522809528827
 44
42457.13707901228
 45
3.539553410535454
 46
5.64429213045948
 79
     6
 49
0.0
 49
-1.639999999999999
 49
0.0
 49
-2.74
 49
0.0
 49
-1.05
 53
327.5
 43
3477.062809528826
 44
42457.13707901228
 45
6.22828372350299
 46
0.011318107073929
 79
     6
 49
0.0
 49
-1.0
 49
0.0
 49
-3.6
 49
0.0
 49
-4.7
 53
317.5
 43
3477.062809528826
 44
42457.13707901228
 45
6.012253209144586
 46
1.755351129868498
 79
     6
 49
0.0
 49
-0.5
 49
0.0
 49
-2.359999999999999
 49
0.0
 49
-2.7
 47
0.2214093393233601
 98
        1
 10
3517.618712252479
 20
42462.07400587764
1001
ACAD
1010
3479.522809528827
1020
42457.13707901228
1030
0.0
  0
LINE
  5
463D
330
2
100
AcDbEntity
  8
Concrete
370
    50
100
AcDbLine
 10
3554.522809528823
 20
42467.13707901228
 30
0.0
 11
3554.522809528823
 21
42457.13707901229
 31
0.0
  0
LINE
  5
463F
330
2
100
AcDbEntity
  8
Timber Elevation
100
AcDbLine
 10
3459.522809528858
 20
43026.06262136587
 30
0.0
 11
3459.522809528826
 21
42503.73707901227
 31
0.0
  0
LINE
  5
4640
330
2
100
AcDbEntity
  8
HB_XDET_TEXT
370
     9
100
AcDbLine
 10
3417.525353877878
 20
43031.60793254089
 30
0.0
 11
3410.614265380115
 21
43026.06262136587
 31
0.0
  0
LINE
  5
4641
330
2
100
AcDbEntity
  8
HB_XDET_TEXT
370
     9
100
AcDbLine
 10
3420.579089403272
 20
43020.51731019086
 30
0.0
 11
3417.525353877878
 21
43031.60793254089
 31
0.0
  0
LINE
  5
4642
330
2
100
AcDbEntity
  8
HB_XDET_TEXT
370
     9
100
AcDbLine
 10
3427.490177901037
 20
43026.06262136587
 30
0.0
 11
3420.579089403272
 21
43020.51731019086
 31
0.0
  0
LINE
  5
4643
330
2
100
AcDbEntity
  8
HB_XDET_TEXT
370
     9
100
AcDbLine
 10
3467.895792066998
 20
43026.06262136587
 30
0.0
 11
3427.490177901038
 21
43026.06262136587
 31
0.0
  0
LINE
  5
4644
330
2
100
AcDbEntity
  8
HB_XDET_TEXT
370
     9
100
AcDbLine
 10
3350.489020304285
 20
43026.06262136588
 30
0.0
 11
3410.614265380122
 21
43026.06262136587
 31
0.0
  0
LINE
  5
4645
330
2
100
AcDbEntity
  8
Timber Elevation
100
AcDbLine
 10
3369.522809528852
 20
43026.06262136588
 30
0.0
 11
3369.522809528829
 21
42502.13707901228
 31
0.0
  0
LINE
  5
4646
330
2
100
AcDbEntity
  8
Lining
370
    50
100
AcDbLine
 10
3359.522809528852
 20
43026.06262136588
 30
0.0
 11
3359.522809528826
 21
42457.1370790123
 31
0.0
  0
LINE
  5
4647
330
2
100
AcDbEntity
  8
HB_XDET_TEXT
370
     9
100
AcDbLine
 10
3612.89963558357
 20
43031.60793254089
 30
0.0
 11
3605.988547085806
 21
43026.06262136587
 31
0.0
  0
LINE
  5
4648
330
2
100
AcDbEntity
  8
HB_XDET_TEXT
370
     9
100
AcDbLine
 10
3615.953371108965
 20
43020.51731019086
 30
0.0
 11
3612.89963558357
 21
43031.60793254089
 31
0.0
  0
LINE
  5
4649
330
2
100
AcDbEntity
  8
HB_XDET_TEXT
370
     9
100
AcDbLine
 10
3622.864459606728
 20
43026.06262136587
 30
0.0
 11
3615.953371108965
 21
43020.51731019086
 31
0.0
  0
LINE
  5
464A
330
2
100
AcDbEntity
  8
HB_XDET_TEXT
370
     9
100
AcDbLine
 10
3681.921797914039
 20
43026.06262136587
 30
0.0
 11
3622.86445960673
 21
43026.06262136587
 31
0.0
  0
LINE
  5
464B
330
2
100
AcDbEntity
  8
HB_XDET_TEXT
370
     9
100
AcDbLine
 10
3565.582932919844
 20
43026.06262136587
 30
0.0
 11
3605.988547085813
 21
43026.06262136587
 31
0.0
  0
LINE
  5
4669
330
2
100
AcDbEntity
  8
Timber Section
100
AcDbLine
 10
3459.522809528829
 20
42502.13707901227
 30
0.0
 11
3369.522809528829
 21
42502.13707901228
 31
0.0
  0
LINE
  5
466B
330
2
100
AcDbEntity
  8
Timber Section
100
AcDbLine
 10
3459.522809528829
 20
42502.13707901227
 30
0.0
 11
3459.522809528826
 21
42457.13707901229
 31
0.0
  0
LINE
  5
466C
330
2
100
AcDbEntity
  8
Timber Section
100
AcDbLine
 10
3369.522809528829
 20
42502.13707901227
 30
0.0
 11
3369.522809528826
 21
42457.13707901229
 31
0.0
  0
LINE
  5
466E
330
2
100
AcDbEntity
  8
Hatch
100
AcDbLine
 10
3369.522809528829
 20
42502.13707901228
 30
0.0
 11
3459.522809528826
 21
42457.13707901227
 31
0.0
  0
LINE
  5
466F
330
2
100
AcDbEntity
  8
Hatch
100
AcDbLine
 10
3459.522809528826
 20
42502.13707901227
 30
0.0
 11
3369.522809528826
 21
42457.13707901228
 31
0.0
  0
LWPOLYLINE
  5
4670
330
2
100
AcDbEntity
  8
Steel
100
AcDbPolyline
 90
        9
 70
     0
 43
0.0
 10
3404.522809528825
 20
42502.13707901227
 10
3476.322809528826
 20
42502.13707901227
 42
0.4142135623730951
 10
3479.522809528825
 20
42505.33707901227
 10
3479.522809528825
 20
42542.13707901227
 10
3477.922809528826
 20
42542.13707901227
 10
3477.922809528826
 20
42505.33707901227
 42
-0.4142135623730951
 10
3476.322809528826
 20
42503.73707901227
 10
3404.522809528825
 20
42503.73707901227
 10
3404.522809528825
 20
42502.13707901227
  0
INSERT
  5
5341
330
2
100
AcDbEntity
  8
Fixings & brackets
100
AcDbBlockReference
  2
50 long screw
 10
-17191.94397671443
 20
43384.71115022443
 30
0.0
  0
INSERT
  5
55E1
330
2
100
AcDbEntity
  8
Fixings & brackets
100
AcDbBlockReference
  2
50 long screw
 10
-17191.94397671443
 20
41660.53007664963
 30
0.0
 41
-1.0
 50
180.0
  0
INSERT
  5
5786
330
2
100
AcDbEntity
  8
Fixings & brackets
100
AcDbBlockReference
  2
25 long screw
 10
2564.304627666388
 20
21793.68525607268
 30
0.0
 50
90.0
  0
INSERT
  5
5787
330
2
100
AcDbEntity
  8
Fixings & brackets
100
AcDbBlockReference
  2
25 long screw
 10
2592.108342740809
 20
21793.68525607268
 30
0.0
 50
90.0
  0
LINE
  5
5795
330
2
100
AcDbEntity
  8
Timber Section
100
AcDbLine
 10
3574.522809528821
 20
42502.13707901227
 30
0.0
 11
3664.522809528821
 21
42502.13707901228
 31
0.0
  0
LINE
  5
5796
330
2
100
AcDbEntity
  8
Timber Elevation
100
AcDbLine
 10
3574.522809528794
 20
43026.06262136587
 30
0.0
 11
3574.522809528823
 21
42503.73707901227
 31
0.0
  0
LINE
  5
5797
330
2
100
AcDbEntity
  8
Timber Elevation
100
AcDbLine
 10
3664.522809528798
 20
43026.06262136588
 30
0.0
 11
3664.522809528821
 21
42502.13707901228
 31
0.0
  0
LINE
  5
5798
330
2
100
AcDbEntity
  8
Lining
370
    50
100
AcDbLine
 10
3674.522809528797
 20
43026.06262136588
 30
0.0
 11
3674.522809528824
 21
42457.1370790123
 31
0.0
  0
LINE
  5
579A
330
2
100
AcDbEntity
  8
Timber Section
100
AcDbLine
 10
3574.522809528821
 20
42502.13707901227
 30
0.0
 11
3574.522809528824
 21
42457.13707901229
 31
0.0
  0
LINE
  5
579B
330
2
100
AcDbEntity
  8
Timber Section
100
AcDbLine
 10
3664.522809528821
 20
42502.13707901227
 30
0.0
 11
3664.522809528824
 21
42457.13707901229
 31
0.0
  0
LINE
  5
579C
330
2
100
AcDbEntity
  8
Hatch
100
AcDbLine
 10
3664.522809528821
 20
42502.13707901228
 30
0.0
 11
3574.522809528824
 21
42457.13707901227
 31
0.0
  0
LINE
  5
579D
330
2
100
AcDbEntity
  8
Hatch
100
AcDbLine
 10
3574.522809528823
 20
42502.13707901227
 30
0.0
 11
3664.522809528824
 21
42457.13707901228
 31
0.0
  0
LWPOLYLINE
  5
579E
330
2
100
AcDbEntity
  8
Steel
100
AcDbPolyline
 90
        9
 70
     0
 43
0.0
 10
3629.522809528825
 20
42502.13707901227
 10
3557.722809528824
 20
42502.13707901227
 42
-0.4142135623730951
 10
3554.522809528825
 20
42505.33707901227
 10
3554.522809528825
 20
42542.13707901227
 10
3556.122809528825
 20
42542.13707901227
 10
3556.122809528825
 20
42505.33707901227
 42
0.4142135623730951
 10
3557.722809528824
 20
42503.73707901227
 10
3629.522809528825
 20
42503.73707901227
 10
3629.522809528825
 20
42502.13707901227
  0
INSERT
  5
579F
330
2
100
AcDbEntity
  8
Fixings & brackets
100
AcDbBlockReference
  2
50 long screw
 10
24225.98959577208
 20
43388.1721870132
 30
0.0
 41
-1.0
  0
INSERT
  5
57A0
330
2
100
AcDbEntity
  8
Fixings & brackets
100
AcDbBlockReference
  2
50 long screw
 10
24225.98959577208
 20
41663.9911134384
 30
0.0
 50
180.0
  0
INSERT
  5
57A1
330
2
100
AcDbEntity
  8
Fixings & brackets
100
AcDbBlockReference
  2
25 long screw
 10
4469.740991391261
 20
21793.68525607268
 30
0.0
 41
-1.0
 50
270.0
  0
INSERT
  5
57A2
330
2
100
AcDbEntity
  8
Fixings & brackets
100
AcDbBlockReference
  2
25 long screw
 10
4441.937276316841
 20
21793.68525607268
 30
0.0
 41
-1.0
 50
270.0
  0
LINE
  5
5DD2
330
2
100
AcDbEntity
  8
insulation
 48
2.5
100
AcDbLine
 10
3639.522809528799
 20
43026.06262136588
 30
0.0
 11
3639.522809528821
 21
42502.13707901228
 31
0.0
  0
LINE
  5
5DD3
330
2
100
AcDbEntity
  8
insulation
 48
2.5
100
AcDbLine
 10
3394.522809528851
 20
43026.06262136587
 30
0.0
 11
3394.522809528829
 21
42502.13707901228
 31
0.0
  0
HATCH
  5
6AD9
330
2
100
AcDbEntity
  8
Hatch
370
    20
100
AcDbHatch
 10
0.0
 20
0.0
 30
0.0
210
0.0
220
0.0
230
1.0
  2
AR-SAND
 70
     0
 71
     0
 91
        1
 92
        7
 72
     0
 73
     1
 93
      504
 10
3554.522809528822
 20
43026.06262136587
 10
3525.177318753876
 20
43026.06262136587
 10
3518.26623025612
 20
43020.51731019085
 10
3515.212494730722
 20
43031.60793254089
 10
3508.301406232959
 20
43026.06262136587
 10
3479.522809528817
 20
43026.06262136587
 10
3479.522809528826
 20
42532.90181398784
 10
3496.709222527479
 20
42532.90181398783
 10
3496.709222527479
 20
42533.39895292005
 10
3497.245003289786
 20
42532.90181398784
 10
3498.013678734555
 20
42532.90181398785
 10
3498.013678734555
 20
42533.46755836605
 10
3498.623397536678
 20
42532.90181398784
 10
3499.421118326398
 20
42532.90181398783
 10
3499.421118326398
 20
42533.39895292004
 10
3499.956899088705
 20
42532.90181398784
 10
3500.828562194249
 20
42532.90181398783
 10
3500.828562194249
 20
42533.39895292004
 10
3501.364342956554
 20
42532.90181398784
 10
3502.270329581017
 20
42532.90181398783
 10
3502.270329581017
 20
42533.39895292004
 10
3502.806110343321
 20
42532.90181398783
 10
3503.746424762707
 20
42532.90181398784
 10
3503.746424762707
 20
42533.39895292004
 10
3504.282205525014
 20
42532.90181398784
 10
3505.256847739322
 20
42532.90181398785
 10
3505.256847739322
 20
42533.39895292004
 10
3505.792628501626
 20
42532.90181398785
 10
3506.801598510858
 20
42532.90181398784
 10
3506.801598510858
 20
42533.39895292005
 10
3507.33737927316
 20
42532.90181398784
 10
3508.243365897623
 20
42532.90181398784
 10
3508.243365897622
 20
42533.39895292004
 10
3508.779146659924
 20
42532.90181398783
 10
3509.719461079312
 20
42532.90181398785
 10
3509.719461079311
 20
42533.39895292003
 10
3510.255241841619
 20
42532.90181398784
 10
3510.868971848318
 20
42532.90181398784
 10
3510.868971848318
 20
42533.39895292003
 10
3511.404752610626
 20
42532.90181398783
 10
3512.190093775051
 20
42532.90181398784
 10
3512.19009377505
 20
42533.39895292004
 10
3512.725874537346
 20
42532.90181398784
 10
3513.580867647237
 20
42532.90181398784
 10
3513.580867647237
 20
42533.39895292004
 10
3514.116648409547
 20
42532.90181398784
 10
3514.988311515089
 20
42532.90181398783
 10
3514.988311515089
 20
42533.39895292004
 10
3515.5240922774
 20
42532.90181398784
 10
3516.430078901856
 20
42532.90181398784
 10
3516.430078901856
 20
42533.39895292004
 10
3516.965859664161
 20
42532.90181398783
 10
3517.906174083546
 20
42532.90181398784
 10
3517.906174083546
 20
42533.39895292004
 10
3518.441954845849
 20
42532.90181398784
 10
3519.416597060161
 20
42532.90181398785
 10
3519.416597060161
 20
42533.39895292004
 10
3519.952377822465
 20
42532.90181398785
 10
3520.961347831697
 20
42532.90181398784
 10
3520.961347831697
 20
42533.39895292004
 10
3521.497128593998
 20
42532.90181398784
 10
3522.403115218462
 20
42532.90181398784
 10
3522.403115218462
 20
42533.39895292004
 10
3522.938895980764
 20
42532.90181398783
 10
3523.879210400151
 20
42532.90181398785
 10
3523.879210400151
 20
42533.39895292004
 10
3524.414991162454
 20
42532.90181398783
 10
3525.028721169164
 20
42532.90181398784
 10
3528.239722611563
 20
42532.04614561278
 10
3524.812178464092
 20
42531.13277288973
 10
3524.668749683384
 20
42530.76013672858
 10
3524.304343095719
 20
42531.19047723771
 10
3523.358293859724
 20
42531.19047723771
 10
3523.192654501693
 20
42530.76013672859
 10
3522.828247914026
 20
42531.19047723771
 10
3521.916526472955
 20
42531.1904772377
 10
3521.750887114925
 20
42530.76013672859
 10
3521.386480527257
 20
42531.1904772377
 10
3520.37177570142
 20
42531.19047723771
 10
3520.206136343386
 20
42530.76013672858
 10
3519.841729755721
 20
42531.19047723771
 10
3518.861352724807
 20
42531.1904772377
 10
3518.695713366776
 20
42530.76013672859
 10
3518.331306779109
 20
42531.19047723771
 10
3517.385257543119
 20
42531.19047723771
 10
3517.219618185084
 20
42530.76013672858
 10
3516.855211597422
 20
42531.19047723771
 10
3515.943490156349
 20
42531.1904772377
 10
3515.777850798319
 20
42530.7601367286
 10
3515.413444210655
 20
42531.1904772377
 10
3514.536046288497
 20
42531.1904772377
 10
3514.370406930465
 20
42530.76013672859
 10
3514.006000342793
 20
42531.19047723771
 10
3513.145272416316
 20
42531.19047723771
 10
3512.979633058279
 20
42530.76013672858
 10
3512.6152264706
 20
42531.19047723771
 10
3511.824150489577
 20
42531.19047723771
 10
3511.658511131547
 20
42530.76013672859
 10
3511.294104543877
 20
42531.19047723771
 10
3510.674639720575
 20
42531.19047723771
 10
3510.509000362546
 20
42530.76013672859
 10
3510.144593774882
 20
42531.19047723771
 10
3509.198544538886
 20
42531.19047723771
 10
3509.032905180853
 20
42530.76013672859
 10
3508.668498593183
 20
42531.19047723771
 10
3507.756777152116
 20
42531.19047723771
 10
3507.591137794086
 20
42530.76013672859
 10
3507.226731206419
 20
42531.1904772377
 10
3506.212026380579
 20
42531.1904772377
 10
3506.04638702255
 20
42530.7601367286
 10
3505.681980434887
 20
42531.19047723771
 10
3504.701603403971
 20
42531.19047723771
 10
3504.535964045935
 20
42530.76013672858
 10
3504.171557458272
 20
42531.19047723771
 10
3503.225508222281
 20
42531.19047723771
 10
3503.059868864247
 20
42530.7601367286
 10
3502.69546227658
 20
42531.19047723771
 10
3501.783740835513
 20
42531.19047723771
 10
3501.61810147748
 20
42530.76013672859
 10
3501.253694889813
 20
42531.19047723771
 10
3500.376296967655
 20
42531.19047723771
 10
3500.210657609628
 20
42530.76013672859
 10
3499.846251021961
 20
42531.1904772377
 10
3498.942450933027
 20
42531.19047723771
 10
3498.803218017782
 20
42530.82874217458
 10
3498.496905604245
 20
42531.19047723771
 10
3497.664401168737
 20
42531.19047723771
 10
3497.498761810709
 20
42530.76013672859
 10
3497.134355223027
 20
42531.19047723771
 10
3479.522809528826
 20
42531.19047723771
 10
3479.522809528825
 20
42514.05074963634
 10
3497.134355223041
 20
42514.05074963635
 10
3497.498761810709
 20
42514.48109014547
 10
3497.664401168741
 20
42514.05074963635
 10
3498.496905604254
 20
42514.05074963636
 10
3498.803218017784
 20
42514.41248469946
 10
3498.942450933028
 20
42514.05074963635
 10
3499.846251021958
 20
42514.05074963634
 10
3500.210657609628
 20
42514.48109014547
 10
3500.376296967657
 20
42514.05074963635
 10
3501.253694889808
 20
42514.05074963634
 10
3501.618101477482
 20
42514.48109014547
 10
3501.783740835512
 20
42514.05074963635
 10
3502.695462276585
 20
42514.05074963635
 10
3503.059868864246
 20
42514.48109014547
 10
3503.225508222281
 20
42514.05074963635
 10
3504.171557458273
 20
42514.05074963635
 10
3504.535964045933
 20
42514.48109014547
 10
3504.701603403969
 20
42514.05074963636
 10
3505.681980434886
 20
42514.05074963635
 10
3506.046387022552
 20
42514.48109014547
 10
3506.21202638058
 20
42514.05074963636
 10
3507.226731206421
 20
42514.05074963635
 10
3507.591137794087
 20
42514.48109014547
 10
3507.756777152116
 20
42514.05074963635
 10
3508.668498593186
 20
42514.05074963635
 10
3509.032905180852
 20
42514.48109014547
 10
3509.198544538885
 20
42514.05074963635
 10
3510.144593774877
 20
42514.05074963636
 10
3510.509000362545
 20
42514.48109014547
 10
3510.674639720575
 20
42514.05074963635
 10
3511.294104543877
 20
42514.05074963635
 10
3511.658511131548
 20
42514.48109014547
 10
3511.824150489577
 20
42514.05074963635
 10
3512.615226470606
 20
42514.05074963635
 10
3512.979633058276
 20
42514.48109014547
 10
3513.145272416318
 20
42514.05074963635
 10
3514.006000342798
 20
42514.05074963635
 10
3514.370406930465
 20
42514.48109014547
 10
3514.536046288498
 20
42514.05074963635
 10
3515.413444210658
 20
42514.05074963634
 10
3515.777850798319
 20
42514.48109014547
 10
3515.943490156351
 20
42514.05074963635
 10
3516.855211597424
 20
42514.05074963635
 10
3517.219618185082
 20
42514.48109014547
 10
3517.385257543123
 20
42514.05074963635
 10
3518.331306779107
 20
42514.05074963634
 10
3518.695713366775
 20
42514.48109014547
 10
3518.861352724807
 20
42514.05074963636
 10
3519.841729755718
 20
42514.05074963634
 10
3520.206136343389
 20
42514.48109014547
 10
3520.371775701415
 20
42514.05074963636
 10
3521.386480527257
 20
42514.05074963634
 10
3521.750887114926
 20
42514.48109014547
 10
3521.916526472959
 20
42514.05074963635
 10
3522.828247914024
 20
42514.05074963635
 10
3523.192654501695
 20
42514.48109014547
 10
3523.358293859724
 20
42514.05074963635
 10
3524.304343095718
 20
42514.05074963636
 10
3524.668749683384
 20
42514.48109014547
 10
3524.812178464089
 20
42514.10845398431
 10
3528.239722611566
 20
42513.19508126127
 10
3525.028721169146
 20
42512.33941288621
 10
3524.414991162462
 20
42512.33941288622
 10
3523.879210400151
 20
42511.84227395402
 10
3523.879210400151
 20
42512.33941288621
 10
3522.938895980772
 20
42512.33941288621
 10
3522.403115218462
 20
42511.84227395402
 10
3522.403115218462
 20
42512.33941288621
 10
3521.497128594012
 20
42512.33941288621
 10
3520.961347831697
 20
42511.84227395402
 10
3520.961347831697
 20
42512.3394128862
 10
3519.952377822459
 20
42512.33941288621
 10
3519.416597060161
 20
42511.84227395402
 10
3519.416597060161
 20
42512.33941288621
 10
3518.441954845855
 20
42512.33941288621
 10
3517.906174083546
 20
42511.84227395401
 10
3517.906174083546
 20
42512.33941288621
 10
3516.96585966417
 20
42512.33941288621
 10
3516.430078901856
 20
42511.84227395402
 10
3516.430078901856
 20
42512.33941288621
 10
3515.5240922774
 20
42512.33941288621
 10
3514.988311515089
 20
42511.84227395402
 10
3514.988311515088
 20
42512.33941288621
 10
3514.116648409547
 20
42512.33941288621
 10
3513.580867647237
 20
42511.84227395402
 10
3513.580867647237
 20
42512.33941288621
 10
3512.725874537348
 20
42512.33941288621
 10
3512.190093775051
 20
42511.84227395402
 10
3512.190093775051
 20
42512.3394128862
 10
3511.404752610621
 20
42512.33941288621
 10
3510.868971848318
 20
42511.84227395402
 10
3510.868971848319
 20
42512.33941288621
 10
3510.255241841622
 20
42512.33941288621
 10
3509.719461079312
 20
42511.84227395401
 10
3509.719461079312
 20
42512.33941288621
 10
3508.779146659936
 20
42512.33941288621
 10
3508.243365897623
 20
42511.84227395402
 10
3508.243365897623
 20
42512.33941288621
 10
3507.337379273161
 20
42512.33941288621
 10
3506.801598510858
 20
42511.84227395401
 10
3506.801598510858
 20
42512.33941288621
 10
3505.792628501621
 20
42512.33941288621
 10
3505.256847739322
 20
42511.84227395402
 10
3505.256847739322
 20
42512.33941288621
 10
3504.282205525009
 20
42512.33941288621
 10
3503.746424762707
 20
42511.84227395402
 10
3503.746424762707
 20
42512.33941288622
 10
3502.806110343332
 20
42512.33941288621
 10
3502.270329581017
 20
42511.84227395401
 10
3502.270329581017
 20
42512.33941288621
 10
3501.364342956563
 20
42512.33941288621
 10
3500.828562194249
 20
42511.84227395401
 10
3500.828562194249
 20
42512.3394128862
 10
3499.956899088702
 20
42512.33941288621
 10
3499.421118326398
 20
42511.84227395402
 10
3499.421118326398
 20
42512.33941288621
 10
3498.623397536668
 20
42512.33941288621
 10
3498.013678734555
 20
42511.77366850801
 10
3498.013678734555
 20
42512.3394128862
 10
3497.245003289788
 20
42512.33941288621
 10
3496.709222527479
 20
42511.84227395401
 10
3496.70922252748
 20
42512.33941288621
 10
3479.522809528827
 20
42512.3394128862
 10
3479.522809528827
 20
42467.13707901229
 10
3554.522809528823
 20
42467.13707901228
 10
3554.522809528823
 20
42515.80044967498
 10
3537.336396530172
 20
42515.80044967498
 10
3537.336396530172
 20
42515.30331074278
 10
3536.80061576786
 20
42515.80044967498
 10
3536.031940323097
 20
42515.80044967498
 10
3536.031940323097
 20
42515.23470529678
 10
3535.422221520988
 20
42515.80044967499
 10
3534.624500731253
 20
42515.80044967498
 10
3534.624500731254
 20
42515.30331074278
 10
3534.088719968948
 20
42515.80044967498
 10
3533.217056863403
 20
42515.80044967498
 10
3533.217056863403
 20
42515.30331074278
 10
3532.681276101101
 20
42515.80044967498
 10
3531.775289476634
 20
42515.80044967499
 10
3531.775289476634
 20
42515.30331074278
 10
3531.239508714331
 20
42515.80044967498
 10
3530.299194294945
 20
42515.80044967498
 10
3530.299194294945
 20
42515.30331074278
 10
3529.763413532637
 20
42515.80044967498
 10
3528.788771318331
 20
42515.80044967499
 10
3528.788771318331
 20
42515.30331074278
 10
3528.252990556032
 20
42515.80044967498
 10
3527.244020546794
 20
42515.80044967498
 10
3527.244020546794
 20
42515.30331074279
 10
3526.708239784494
 20
42515.80044967498
 10
3525.802253160029
 20
42515.80044967499
 10
3525.802253160029
 20
42515.30331074278
 10
3525.266472397729
 20
42515.80044967498
 10
3524.32615797834
 20
42515.80044967498
 10
3524.326157978339
 20
42515.30331074278
 10
3523.790377216032
 20
42515.80044967498
 10
3523.176647209333
 20
42515.80044967498
 10
3523.176647209333
 20
42515.30331074278
 10
3522.640866447028
 20
42515.80044967498
 10
3521.855525282601
 20
42515.80044967497
 10
3521.855525282601
 20
42515.30331074278
 10
3521.319744520297
 20
42515.80044967498
 10
3520.464751410415
 20
42515.80044967497
 10
3520.464751410414
 20
42515.30331074278
 10
3519.928970648106
 20
42515.80044967498
 10
3519.057307542564
 20
42515.80044967498
 10
3519.057307542563
 20
42515.30331074278
 10
3518.521526780256
 20
42515.80044967498
 10
3517.615540155796
 20
42515.80044967498
 10
3517.615540155795
 20
42515.30331074278
 10
3517.079759393491
 20
42515.80044967498
 10
3516.139444974106
 20
42515.80044967498
 10
3516.139444974105
 20
42515.30331074278
 10
3515.603664211801
 20
42515.80044967498
 10
3514.629021997491
 20
42515.80044967498
 10
3514.629021997492
 20
42515.30331074279
 10
3514.093241235188
 20
42515.80044967498
 10
3513.084271225955
 20
42515.80044967497
 10
3513.084271225955
 20
42515.30331074278
 10
3512.548490463649
 20
42515.80044967498
 10
3511.64250383919
 20
42515.80044967498
 10
3511.64250383919
 20
42515.30331074278
 10
3511.106723076889
 20
42515.80044967498
 10
3510.166408657501
 20
42515.80044967498
 10
3510.1664086575
 20
42515.30331074279
 10
3509.630627895198
 20
42515.80044967498
 10
3509.016897888478
 20
42515.80044967498
 10
3505.805896446075
 20
42516.65611805004
 10
3509.233440593558
 20
42517.56949077308
 10
3509.376869374266
 20
42517.94212693424
 10
3509.741275961936
 20
42517.51178642512
 10
3510.687325197928
 20
42517.51178642512
 10
3510.852964555957
 20
42517.94212693424
 10
3511.217371143627
 20
42517.51178642512
 10
3512.129092584695
 20
42517.51178642512
 10
3512.294731942726
 20
42517.94212693424
 10
3512.659138530392
 20
42517.51178642512
 10
3513.673843356232
 20
42517.51178642512
 10
3513.839482714262
 20
42517.94212693424
 10
3514.203889301934
 20
42517.51178642512
 10
3515.184266332842
 20
42517.51178642512
 10
3515.349905690876
 20
42517.94212693424
 10
3515.714312278545
 20
42517.51178642512
 10
3516.660361514531
 20
42517.51178642512
 10
3516.826000872567
 20
42517.94212693424
 10
3517.190407460234
 20
42517.51178642512
 10
3518.102128901298
 20
42517.51178642511
 10
3518.267768259329
 20
42517.94212693424
 10
3518.632174847006
 20
42517.51178642512
 10
3519.509572769154
 20
42517.51178642511
 10
3519.675212127184
 20
42517.94212693424
 10
3520.039618714859
 20
42517.51178642512
 10
3520.900346641333
 20
42517.51178642512
 10
3521.065985999371
 20
42517.94212693424
 10
3521.430392587041
 20
42517.51178642512
 10
3522.221468568074
 20
42517.51178642512
 10
3522.387107926105
 20
42517.94212693424
 10
3522.751514513783
 20
42517.51178642511
 10
3523.370979337075
 20
42517.51178642512
 10
3523.536618695108
 20
42517.94212693424
 10
3523.90102528278
 20
42517.51178642512
 10
3524.847074518766
 20
42517.51178642512
 10
3525.012713876796
 20
42517.94212693423
 10
3525.377120464467
 20
42517.51178642512
 10
3526.288841905536
 20
42517.51178642512
 10
3526.454481263564
 20
42517.94212693424
 10
3526.818887851239
 20
42517.51178642512
 10
3527.833592677072
 20
42517.51178642512
 10
3527.999232035101
 20
42517.94212693424
 10
3528.363638622765
 20
42517.51178642512
 10
3529.34401565368
 20
42517.51178642512
 10
3529.509655011715
 20
42517.94212693424
 10
3529.874061599374
 20
42517.51178642512
 10
3530.820110835371
 20
42517.51178642511
 10
3530.985750193405
 20
42517.94212693424
 10
3531.350156781071
 20
42517.51178642512
 10
3532.26187822214
 20
42517.51178642511
 10
3532.427517580172
 20
42517.94212693424
 10
3532.79192416784
 20
42517.51178642512
 10
3533.669322089995
 20
42517.51178642512
 10
3533.834961448026
 20
42517.94212693425
 10
3534.199368035695
 20
42517.51178642512
 10
3535.103168124622
 20
42517.51178642512
 10
3535.242401039868
 20
42517.87352148824
 10
3535.548713453407
 20
42517.51178642512
 10
3536.381217888912
 20
42517.51178642512
 10
3536.546857246946
 20
42517.94212693424
 10
3536.911263834624
 20
42517.51178642511
 10
3554.522809528823
 20
42517.51178642512
 10
3554.522809528823
 20
42534.65151402648
 10
3536.911263834613
 20
42534.65151402648
 10
3536.546857246944
 20
42534.22117351736
 10
3536.381217888911
 20
42534.65151402648
 10
3535.54871345341
 20
42534.65151402648
 10
3535.242401039869
 20
42534.28977896335
 10
3535.103168124629
 20
42534.65151402648
 10
3534.199368035694
 20
42534.65151402648
 10
3533.834961448024
 20
42534.22117351736
 10
3533.669322089996
 20
42534.65151402648
 10
3532.79192416784
 20
42534.65151402648
 10
3532.42751758017
 20
42534.22117351736
 10
3532.261878222142
 20
42534.65151402648
 10
3531.350156781074
 20
42534.65151402648
 10
3530.985750193406
 20
42534.22117351736
 10
3530.820110835374
 20
42534.65151402648
 10
3529.874061599388
 20
42534.65151402648
 10
3529.509655011717
 20
42534.22117351735
 10
3529.344015653684
 20
42534.65151402648
 10
3528.363638622768
 20
42534.65151402648
 10
3527.9992320351
 20
42534.22117351736
 10
3527.833592677069
 20
42534.65151402648
 10
3526.818887851231
 20
42534.65151402648
 10
3526.454481263566
 20
42534.22117351736
 10
3526.288841905533
 20
42534.65151402648
 10
3525.377120464466
 20
42534.65151402648
 10
3525.012713876798
 20
42534.22117351736
 10
3524.847074518768
 20
42534.65151402648
 10
3523.901025282779
 20
42534.65151402648
 10
3523.536618695108
 20
42534.22117351736
 10
3523.370979337076
 20
42534.65151402648
 10
3522.751514513773
 20
42534.65151402648
 10
3522.387107926105
 20
42534.22117351736
 10
3522.221468568075
 20
42534.65151402648
 10
3521.430392587041
 20
42534.65151402648
 10
3521.065985999372
 20
42534.22117351735
 10
3520.900346641333
 20
42534.65151402648
 10
3520.039618714853
 20
42534.65151402648
 10
3519.675212127188
 20
42534.22117351736
 10
3519.509572769153
 20
42534.65151402648
 10
3518.632174847006
 20
42534.65151402648
 10
3518.267768259333
 20
42534.22117351736
 10
3518.102128901299
 20
42534.65151402648
 10
3517.190407460234
 20
42534.65151402648
 10
3516.826000872566
 20
42534.22117351736
 10
3516.660361514534
 20
42534.65151402648
 10
3515.714312278542
 20
42534.65151402648
 10
3515.349905690877
 20
42534.22117351736
 10
3515.184266332845
 20
42534.65151402648
 10
3514.203889301933
 20
42534.65151402648
 10
3513.839482714262
 20
42534.22117351736
 10
3513.673843356231
 20
42534.65151402648
 10
3512.659138530394
 20
42534.65151402648
 10
3512.294731942724
 20
42534.22117351736
 10
3512.129092584696
 20
42534.65151402648
 10
3511.217371143624
 20
42534.65151402648
 10
3510.852964555957
 20
42534.22117351735
 10
3510.687325197928
 20
42534.65151402648
 10
3509.74127596194
 20
42534.65151402648
 10
3509.37686937427
 20
42534.22117351736
 10
3509.233440593563
 20
42534.5938096785
 10
3505.805896446078
 20
42535.50718240155
 10
3509.016897888536
 20
42536.36285077662
 10
3509.630627895198
 20
42536.36285077662
 10
3510.166408657501
 20
42536.85998970881
 10
3510.1664086575
 20
42536.36285077662
 10
3511.106723076889
 20
42536.36285077663
 10
3511.64250383919
 20
42536.85998970881
 10
3511.64250383919
 20
42536.36285077662
 10
3512.548490463649
 20
42536.36285077662
 10
3513.084271225955
 20
42536.85998970881
 10
3513.084271225955
 20
42536.36285077662
 10
3514.093241235193
 20
42536.36285077662
 10
3514.629021997491
 20
42536.85998970881
 10
3514.629021997491
 20
42536.36285077662
 10
3515.603664211795
 20
42536.36285077661
 10
3516.139444974106
 20
42536.85998970881
 10
3516.139444974106
 20
42536.36285077662
 10
3517.079759393499
 20
42536.36285077663
 10
3517.615540155795
 20
42536.85998970881
 10
3517.615540155796
 20
42536.36285077662
 10
3518.521526780256
 20
42536.36285077662
 10
3519.057307542564
 20
42536.85998970881
 10
3519.057307542563
 20
42536.36285077661
 10
3519.928970648112
 20
42536.36285077662
 10
3520.464751410415
 20
42536.85998970881
 10
3520.464751410414
 20
42536.36285077661
 10
3521.319744520311
 20
42536.36285077663
 10
3521.855525282601
 20
42536.85998970881
 10
3521.855525282601
 20
42536.36285077662
 10
3522.640866447032
 20
42536.36285077662
 10
3523.176647209333
 20
42536.85998970881
 10
3523.176647209333
 20
42536.36285077663
 10
3523.790377216025
 20
42536.36285077661
 10
3524.32615797834
 20
42536.85998970881
 10
3524.32615797834
 20
42536.36285077662
 10
3525.266472397729
 20
42536.36285077663
 10
3525.802253160029
 20
42536.85998970881
 10
3525.80225316003
 20
42536.36285077662
 10
3526.708239784491
 20
42536.36285077662
 10
3527.244020546794
 20
42536.85998970881
 10
3527.244020546794
 20
42536.36285077662
 10
3528.252990556028
 20
42536.36285077663
 10
3528.788771318331
 20
42536.85998970881
 10
3528.788771318331
 20
42536.36285077662
 10
3529.763413532633
 20
42536.36285077661
 10
3530.299194294945
 20
42536.85998970881
 10
3530.299194294945
 20
42536.36285077662
 10
3531.239508714339
 20
42536.36285077663
 10
3531.775289476634
 20
42536.85998970881
 10
3531.775289476634
 20
42536.36285077662
 10
3532.681276101101
 20
42536.36285077662
 10
3533.217056863403
 20
42536.85998970881
 10
3533.217056863403
 20
42536.36285077661
 10
3534.088719968953
 20
42536.36285077662
 10
3534.624500731253
 20
42536.85998970881
 10
3534.624500731254
 20
42536.36285077662
 10
3535.422221520988
 20
42536.36285077662
 10
3536.031940323097
 20
42536.92859515482
 10
3536.031940323097
 20
42536.36285077662
 10
3536.800615767865
 20
42536.36285077662
 10
3537.336396530173
 20
42536.85998970881
 10
3537.336396530173
 20
42536.36285077662
 10
3554.522809528823
 20
42536.36285077662
 97
        0
 75
     0
 76
     1
 52
0.0
 41
5.0
 77
     0
 78
     4
 53
37.5
 43
3479.522809528817
 44
42467.13707901228
 45
-0.3149667905480408
 46
9.634118845065792
 79
     6
 49
0.0
 49
-7.599999999999999
 49
0.0
 49
-8.5
 49
0.0
 49
-8.125
 53
7.499999999999999
 43
3479.522809528817
 44
42467.13707901228
 45
8.848883526338635
 46
14.1107303261487
 79
     6
 49
0.0
 49
-4.099999999999999
 49
0.0
 49
-6.85
 49
0.0
 49
-2.625
 53
327.5
 43
3473.372809528817
 44
42467.13707901228
 45
15.57070930875747
 46
0.0282952676848225
 79
     6
 49
0.0
 49
-2.5
 49
0.0
 49
-9.0
 49
0.0
 49
-11.75
 53
317.5
 43
3473.372809528817
 44
42467.13707901228
 45
15.03063302286146
 46
4.388377824671245
 79
     6
 49
0.0
 49
-1.25
 49
0.0
 49
-5.899999999999999
 49
0.0
 49
-6.75
 47
0.9684653131023186
 98
        1
 10
3528.08138329073
 20
42746.98325519271
1001
ACAD
1010
3479.522809528817
1020
42467.13707901228
1030
0.0
  0
LINE
  5
6AF5
330
2
100
AcDbEntity
  8
DPC
100
AcDbLine
 10
3369.522809528826
 20
42457.1370790123
 30
0.0
 11
3664.52280952885
 21
42457.13707901226
 31
0.0
  0
HATCH
  5
6FB1
330
2
100
AcDbEntity
  8
Hatch
 62
    21
100
AcDbHatch
 10
0.0
 20
0.0
 30
0.0
210
0.0
220
0.0
230
1.0
  2
SOLID
 70
     1
 71
     0
 91
        1
 92
        7
 72
     0
 73
     1
 93
        5
 10
3674.522809528797
 20
43026.06262136588
 10
3664.522809528798
 20
43026.06262136589
 10
3664.522809528821
 20
42502.13707901228
 10
3664.522809528824
 20
42457.13707901227
 10
3674.522809528824
 20
42457.13707901227
 97
        0
 75
     0
 76
     1
 47
1.356613053874579
 98
        1
 10
3670.729598306706
 20
42795.84131164526
450
        0
451
        0
460
0.0
461
0.0
452
        1
462
1.0
453
        2
463
0.0
 63
     5
421
      255
463
1.0
 63
     7
421
 16777215
470
LINEAR
1001
ACAD
1010
3664.522809528798
1020
42457.13707901227
1030
0.0
  0
HATCH
  5
73E0
330
2
100
AcDbEntity
  8
Hatch
 62
    21
100
AcDbHatch
 10
0.0
 20
0.0
 30
0.0
210
0.0
220
0.0
230
1.0
  2
SOLID
 70
     1
 71
     0
 91
        1
 92
        7
 72
     0
 73
     1
 93
        5
 10
3369.522809528851
 20
43026.06262136587
 10
3359.522809528852
 20
43026.06262136588
 10
3359.522809528826
 20
42457.13707901227
 10
3369.522809528826
 20
42457.13707901227
 10
3369.522809528829
 20
42502.13707901227
 97
        0
 75
     0
 76
     1
 47
1.356613053874579
 98
        1
 10
3363.996170282117
 20
42835.18308856261
450
        0
451
        0
460
0.0
461
0.0
452
        1
462
1.0
453
        2
463
0.0
 63
     5
421
      255
463
1.0
 63
     7
421
 16777215
470
LINEAR
1001
ACAD
1010
3359.522809528826
1020
42457.13707901227
1030
0.0
  0
LEADER
  5
78AF
330
2
100
AcDbEntity
  8
Text
100
AcDbLeader
  3
STANDARD
 72
     1
 76
     4
 10
3510.139839276224
 20
42462.97335451417
 30
0.0
 10
3439.351849900351
 20
42547.33621022513
 30
0.0
 10
3344.740977349572
 20
42588.83729075599
 30
0.0
 10
3293.057814855056
 20
42594.02930330519
 30
0.0
213
77.99010589819772
223
23.77277564990607
233
0.0
1001
ACAD
1000
DSTYLE
1002
{
1070
    41
1040
15.0
1070
    77
1070
     0
1002
}
  0
MTEXT
  5
78B0
330
2
100
AcDbEntity
  8
Text
100
AcDbMText
 10
3753.401731586173
 20
42446.06433393169
 30
0.0
 40
2.5
 41
0.0
 71
     6
 72
     1
  1
\A1;
  7
1
 73
     1
 44
1.0
  0
MTEXT
  5
78B1
330
2
100
AcDbEntity
  8
Text
100
AcDbMText
 10
3461.254225594032
 20
42407.5933709318
 30
0.0
 40
12.5
 41
108.6364743370723
 71
     1
 72
     5
  1
{\fSwis721 BT|b0|i1|c0|p34;Concrete slab}
  7
1
 73
     1
 44
1.0
 90
        3
 63
   256
 45
1.5
441
  7800386
  0
MTEXT
  5
78B2
330
2
100
AcDbEntity
  8
Text
100
AcDbMText
 10
3195.683631360357
 20
42603.11534129481
 30
0.0
 40
12.5
 41
142.2127919302227
 71
     1
 72
     5
  1
{\fSwis721 BT|b0|i1|c0|p34;Continuous Mortar \P\PDamp Proof Course under panel (and timber if required)}
  7
1
 73
     1
 44
1.0
  0
LEADER
  5
78B3
330
2
100
AcDbEntity
  8
Text
100
AcDbLeader
  3
STANDARD
 72
     1
 76
     4
 10
3479.393415342747
 20
42459.02385978706
 30
0.0
 10
3416.865493195623
 20
42511.90954863841
 30
0.0
 10
3336.701494427587
 20
42531.94200944236
 30
0.0
 10
3294.879056071168
 20
42532.90132071677
 30
0.0
213
119.2216664776924
223
23.20208665708094
233
0.0
1001
ACAD
1000
DSTYLE
1002
{
1070
    41
1040
15.0
1070
    77
1070
     0
1002
}
  0
MTEXT
  5
78B4
102
{ACAD_XDICTIONARY
360
78B5
102
}
330
2
100
AcDbEntity
  8
Text
100
AcDbMText
 10
3717.560447920765
 20
42943.73524023476
 30
0.0
 40
12.5
 41
195.1373767540008
 71
     1
 72
     5
  3
{\fSwis721 BT|b0|i1|c0|p34;Plasterboard to system specification\P\PTimber or steel framing as per project specifications\P\P10 - 20mm gap\P\PInsulation to system specification \P\P75mm Supercrete}\U+2122{\fSwis721 BT|b0|i1|c0|p34; Panel\P\PAluminium 
  1
bracket fixed to frame with 2 x 2mm x 25mm galv nails or 2 x 12-11 x 50mm hex head screws for timber framing, or 2 x 10-16 x 16mm wafer head crews for steel framing }
  7
1
 73
     1
 44
1.0
1001
ACAD
1000
ACAD_MTEXT_DEFINED_HEIGHT_BEGIN
1070
    46
1040
34.70512557411325
1000
ACAD_MTEXT_DEFINED_HEIGHT_END
  0
LEADER
  5
78B6
330
2
100
AcDbEntity
  8
Text
100
AcDbLeader
  3
STANDARD
 72
     1
 76
     4
 10
3668.941796307419
 20
42897.61123704701
 30
0.0
 10
3683.305457853425
 20
42926.3255522235
 30
0.0
 10
3697.267346309454
 20
42933.73451613929
 30
0.0
 10
3711.403618696976
 20
42934.74579331427
 30
0.0
1001
ACAD
1000
DSTYLE
1002
{
1070
    41
1040
15.0
1070
    77
1070
     0
1002
}
  0
LEADER
  5
78B7
330
2
100
AcDbEntity
  8
Text
100
AcDbLeader
  3
STANDARD
 72
     1
 76
     4
 10
3596.835535072238
 20
42835.57031903189
 30
0.0
 10
3637.671617870325
 20
42857.65196772001
 30
0.0
 10
3674.687623583672
 20
42866.83426555816
 30
0.0
 10
3711.403618696976
 20
42869.95647983689
 30
0.0
1001
ACAD
1000
DSTYLE
1002
{
1070
    41
1040
15.0
1070
    77
1070
     0
1002
}
  0
LEADER
  5
78B8
330
2
100
AcDbEntity
  8
Text
100
AcDbLeader
  3
STANDARD
 72
     1
 76
     4
 10
3568.130172340436
 20
42512.01791063242
 30
0.0
 10
3596.038829697798
 20
42570.49226940947
 30
0.0
 10
3674.934463530477
 20
42619.31030962878
 30
0.0
 10
3711.403618696976
 20
42622.22511893741
 30
0.0
1001
ACAD
1000
DSTYLE
1002
{
1070
    41
1040
15.0
1070
   147
1040
1.0
1070
    77
1070
     0
1002
}
  0
LEADER
  5
78B9
330
2
100
AcDbEntity
  8
Text
100
AcDbLeader
  3
STANDARD
 72
     1
 76
     4
 10
3563.521837800287
 20
42778.3639851913
 30
0.0
 10
3626.268698186898
 20
42784.94415498601
 30
0.0
 10
3677.533826889594
 20
42788.06549055595
 30
0.0
 10
3711.403618696976
 20
42789.01171043591
 30
0.0
1001
ACAD
1000
DSTYLE
1002
{
1070
    41
1040
15.0
1070
    77
1070
     0
1002
}
  0
LEADER
  5
78BA
330
2
100
AcDbEntity
  8
Text
100
AcDbLeader
  3
STANDARD
 72
     1
 76
     4
 10
3644.913260755853
 20
42709.16766713396
 30
0.0
 10
3659.128084559587
 20
42737.58444762165
 30
0.0
 10
3689.588425813199
 20
42747.0567089456
 30
0.0
 10
3711.403618696976
 20
42749.50295730231
 30
0.0
1001
ACAD
1000
DSTYLE
1002
{
1070
    41
1040
15.0
1070
    77
1070
     0
1002
}
  0
LEADER
  5
78BB
330
2
100
AcDbEntity
  8
Text
100
AcDbLeader
  3
STANDARD
 72
     1
 76
     4
 10
3516.969865501557
 20
42652.23927971566
 30
0.0
 10
3566.450342234708
 20
42674.1357631892
 30
0.0
 10
3675.833173033534
 20
42684.1628895138
 30
0.0
 10
3711.403618696976
 20
42684.93986704966
 30
0.0
1001
ACAD
1000
DSTYLE
1002
{
1070
    41
1040
15.0
1070
    77
1070
     0
1002
}
  0
LEADER
  5
78BC
330
2
100
AcDbEntity
  8
Text
100
AcDbLeader
  3
STANDARD
 72
     1
 76
     4
 10
3388.369493876373
 20
42697.66563701955
 30
0.0
 10
3450.643968623336
 20
42732.17172736284
 30
0.0
 10
3674.714474009653
 20
42750.57564939348
 30
0.0
 10
3711.403618696976
 20
42749.50295730231
 30
0.0
1001
ACAD
1000
DSTYLE
1002
{
1070
    41
1040
15.0
1070
    77
1070
     0
1002
}
  0
LEADER
  5
78BD
330
2
100
AcDbEntity
  8
Text
100
AcDbLeader
  3
STANDARD
 72
     1
 76
     4
 10
3469.498555552065
 20
42772.89972988265
 30
0.0
 10
3513.109039630945
 20
42784.31635487627
 30
0.0
 10
3674.714474009653
 20
42790.08440252704
 30
0.0
 10
3711.403618696976
 20
42789.01171043591
 30
0.0
1001
ACAD
1000
DSTYLE
1002
{
1070
    41
1040
15.0
1070
    77
1070
     0
1002
}
  0
LEADER
  5
78BE
330
2
100
AcDbEntity
  8
Text
100
AcDbLeader
  3
STANDARD
 72
     1
 76
     4
 10
3438.059577331249
 20
42833.35978907675
 30
0.0
 10
3474.696166806654
 20
42862.16203543122
 30
0.0
 10
3565.258519546293
 20
42873.68293606355
 30
0.0
 10
3711.403618696976
 20
42869.95647983689
 30
0.0
1001
ACAD
1000
DSTYLE
1002
{
1070
    41
1040
15.0
1070
    77
1070
     0
1002
}
  0
LEADER
  5
78BF
330
2
100
AcDbEntity
  8
Text
100
AcDbLeader
  3
STANDARD
 72
     1
 76
     4
 10
3363.491815585676
 20
42882.90847303148
 30
0.0
 10
3450.643968623336
 20
42917.41456337482
 30
0.0
 10
3674.714474009653
 20
42935.81848540541
 30
0.0
 10
3711.403618696976
 20
42934.74579331427
 30
0.0
1001
ACAD
1000
DSTYLE
1002
{
1070
    41
1040
15.0
1070
    77
1070
     0
1002
}
  0
TEXT
  5
78C0
330
2
100
AcDbEntity
  8
3
 62
     7
100
AcDbText
 10
-952.6330840057644
 20
42214.99906116017
 30
0.0
 40
40.0
  1

 41
0.85
  7
ROMANS
100
AcDbText
  0
LINE
  5
78C1
330
2
100
AcDbEntity
  8
Title block
100
AcDbLine
 10
3047.569703186311
 20
42090.23096498824
 30
0.0
 11
3047.569703186311
 21
41923.71400951615
 31
0.0
  0
LINE
  5
78C2
330
2
100
AcDbEntity
  8
Title block
100
AcDbLine
 10
3047.569703186311
 20
41923.71400951615
 30
0.0
 11
3997.569703186311
 21
41923.71400951615
 31
0.0
  0
LINE
  5
78C3
330
2
100
AcDbEntity
  8
Title block
100
AcDbLine
 10
3997.569703186311
 20
41923.71400951615
 30
0.0
 11
3997.569703186311
 21
42090.23096498824
 31
0.0
  0
LINE
  5
78C5
330
2
100
AcDbEntity
  8
Title block
100
AcDbLine
 10
3341.152383069344
 20
42020.45950991818
 30
0.0
 11
3998.462596278579
 21
42020.45950991818
 31
0.0
  0
LINE
  5
78C6
330
2
100
AcDbEntity
  8
Title block
100
AcDbLine
 10
3341.152383069344
 20
41975.28531197046
 30
0.0
 11
3998.462596278581
 21
41975.28531197046
 31
0.0
  0
TEXT
  5
78C7
330
2
100
AcDbEntity
  8
0
100
AcDbText
 10
3362.92037306235
 20
41992.34550289656
 30
0.0
 40
12.5
  1
Date:
  7
Title block
100
AcDbText
  0
TEXT
  5
78C8
330
2
100
AcDbEntity
  8
0
100
AcDbText
 10
3771.490607754702
 20
41992.64967074511
 30
0.0
 40
12.5
  1
Detail No.
  7
Title block
100
AcDbText
  0
TEXT
  5
78C9
330
2
100
AcDbEntity
  8
0
100
AcDbText
 10
3362.052158526158
 20
42067.94977778598
 30
0.0
 40
12.5
  1
Title:
  7
Title block
100
AcDbText
  0
LWPOLYLINE
  5
78CA
330
2
100
AcDbEntity
  8
Title block
100
AcDbPolyline
 90
        2
 70
     0
 43
0.0
 10
3047.569703186311
 20
42090.23096498824
 10
3997.569703186311
 20
42090.23096498824
  0
MTEXT
  5
78CB
330
2
100
AcDbEntity
  8
Title block
100
AcDbMText
 10
3347.586614590908
 20
41964.9379697372
 30
0.0
 40
12.5
 41
649.2291057981083
 71
     1
 72
     1
  1
This drawing is to be read in conjunction with all the current, relevant Supercrete \PTechnical Literature, Project Specific Design Documentation and Specifications
  7
Title block
 73
     1
 44
1.0
  0
LWPOLYLINE
  5
78CC
330
2
100
AcDbEntity
  8
Title block
100
AcDbPolyline
 90
        2
 70
     0
 43
0.0
 10
3548.101397235501
 20
42020.45950991818
 10
3548.101397235501
 20
41975.28531197046
  0
LWPOLYLINE
  5
78CD
330
2
100
AcDbEntity
  8
Title block
100
AcDbPolyline
 90
        2
 70
     0
 43
0.0
 10
3763.287188084888
 20
42020.45950991818
 10
3763.287188084888
 20
41975.28531197046
  0
TEXT
  5
78CE
330
2
100
AcDbEntity
  8
0
100
AcDbText
 10
3569.869387228507
 20
41992.34550289656
 30
0.0
 40
12.5
  1
Scale:
  7
Title block
100
AcDbText
  0
LINE
  5
78D4
330
2
100
AcDbEntity
  8
Title block
100
AcDbLine
 10
3340.343903852978
 20
42090.27704951615
 30
0.0
 11
3340.343903852978
 21
41923.76009404406
 31
0.0
  0
IMAGE
  5
78D5
330
2
100
AcDbEntity
  8
Title block
 92
      140
310
8C0000000100000084000000060000000500000044D322B023CFA740029AFE800885E440000000000000000044D322B023CFA740E0AF1064478DE440000000000000000004732A14B018AA40E0AF1064478DE440000000000000000004732A14B018AA40029AFE800885E440000000000000000044D322B023CFA740029AFE
310
800885E4400000000000000000
100
AcDbRasterImage
 90
        0
 10
3047.569703186311
 20
42024.2657464035
 30
0.0
 11
0.2141727876127774
 21
0.0
 31
0.0
 12
0.0
 22
0.2141727876127774
 32
0.0
 13
1367.0
 23
308.0
340
7880
 70
     7
280
     0
281
    50
282
    50
283
     0
360
78D6
 71
     1
 91
        2
 14
-0.5
 24
-0.5
 14
1366.5
 24
307.5
  0
MTEXT
  5
78D9
102
{ACAD_XDICTIONARY
360
79B0
102
}
330
2
100
AcDbEntity
  8
Title block
100
AcDbMText
 10
3522.135547801882
 20
42087.19831202067
 30
0.0
 40
20.0
 41
336.0953836019471
 71
     1
 72
     5
  1
\pi44.565;A.W.S. - Wall Type 1\P\pi7.9323;Base Connection Option 1
  7
5
 73
     1
 44
1.0
1001
ACAD
1000
ACAD_MTEXT_COLUMN_INFO_BEGIN
1070
    75
1070
     2
1070
    79
1070
     0
1070
    76
1070
     1
1070
    78
1070
     0
1070
    48
1040
336.0953836019471
1070
    49
1040
62.5
1070
    50
1070
     1
1040
0.0
1000
ACAD_MTEXT_COLUMN_INFO_END
  0
MTEXT
  5
78E8
102
{ACAD_XDICTIONARY
360
79B2
102
}
330
2
100
AcDbEntity
  8
Title block
100
AcDbMText
 10
3870.745120888129
 20
42008.5713350698
 30
0.0
 40
20.0
 41
91.17480962230548
 71
     1
 72
     5
  1
\pi11.562;10.1.1
  7
5
 73
     1
 44
1.0
1001
ACAD
1000
ACAD_MTEXT_COLUMN_INFO_BEGIN
1070
    75
1070
     2
1070
    79
1070
     0
1070
    76
1070
     1
1070
    78
1070
     0
1070
    48
1040
91.17480962230548
1070
    49
1040
62.5
1070
    50
1070
     1
1040
0.0
1000
ACAD_MTEXT_COLUMN_INFO_END
  0
VIEWPORT
  5
5F
330
5E
100
AcDbEntity
 67
     1
  8
0
100
AcDbViewport
 10
87.70812920605621
 20
546.6625540199975
 30
0.0
 40
449.2527573529804
 41
299.3737365081025
 68
     1
 69
     1
 12
87.70812920605621
 22
546.6625540199975
 13
0.0
 23
0.0
 14
1.0
 24
1.0
 15
1900.0
 25
1900.0
 16
0.0
 26
0.0
 36
1.0
 17
0.0
 27
0.0
 37
0.0
 42
50.0
 43
0.0
 44
0.0
 45
299.3737365081025
 50
0.0
 51
0.0
 72
 20000
 90
    32768
  1

281
     0
 71
     1
 74
     0
110
0.0
120
0.0
130
0.0
111
1.0
121
0.0
131
0.0
112
0.0
122
1.0
132
0.0
 79
     0
146
0.0
170
     0
  0
VIEWPORT
  5
24CE
330
5E
100
AcDbEntity
 67
     1
  8
DEFPOINTS
100
AcDbViewport
 10
86.89079805870164
 20
554.0033584277813
 30
0.0
 40
185.7014191676817
 41
202.0418586604274
 68
     2
 69
     2
 12
-19664.47788711193
 22
8581.822872760787
 13
0.0
 23
0.0
 14
1.0
 24
1.0
 15
1900.0
 25
1900.0
 16
0.0
 26
0.0
 36
1.0
 17
23187.54216236222
 27
34067.94128341666
 37
1200.0
 42
50.0
 43
0.0
 44
0.0
 45
1010.209292831737
 50
0.0
 51
0.0
 72
 20000
 90
    32768
  1

281
     0
 71
     1
 74
     0
110
0.0
120
0.0
130
0.0
111
1.0
121
0.0
131
0.0
112
0.0
122
1.0
132
0.0
 79
     0
146
0.0
170
     0
  0
MTEXT
  5
35D8
330
5E
100
AcDbEntity
 67
     1
  8
Text
100
AcDbMText
 10
126.1201104132499
 20
576.556779540027
 30
0.0
 40
2.5
 41
0.0
 71
     4
 72
     1
  1
\A1;
  7
1
 73
     1
 44
1.0
  0
MTEXT
  5
35DC
330
5E
100
AcDbEntity
 67
     1
  8
Text
100
AcDbMText
 10
30.31126536381476
 20
504.4051978962383
 30
0.0
 40
2.5
 41
0.0
 71
     6
 72
     1
  1
\A1;
  7
1
 73
     1
 44
1.0
  0
INSERT
  5
3700
330
5E
100
AcDbEntity
 67
     1
  8
Border
100
AcDbBlockReference
 66
     1
  2
A4 Title Block
 10
45.18612388154679
 20
429.9922391268363
 30
0.0
  0
ATTRIB
  5
3701
330
3700
100
AcDbEntity
 67
     1
  8
Title block
100
AcDbText
 10
72.54104867575188
 20
436.7002776951125
 30
0.0
 40
4.0
  1
A.W.S. - Wall Type 1  Base Connection
100
AcDbAttribute
  2
TITLE
 70
     0
1001
AcDbAttr
1070
     0
1070
     1
  0
ATTRIB
  5
3702
330
3700
100
AcDbEntity
 67
     1
  8
Title block
100
AcDbText
 10
65.24549129656702
 20
422.115403092899
 30
0.0
 40
2.5
  1
December 2013
100
AcDbAttribute
  2
DATE
 70
     0
1001
AcDbAttr
1070
     0
1070
     1
  0
ATTRIB
  5
3703
330
3700
100
AcDbEntity
 67
     1
  8
Title block
100
AcDbText
 10
112.8586045952438
 20
422.115403092899
 30
0.0
 40
2.5
  1
1:5
100
AcDbAttribute
  2
SCALE
 70
     0
1001
AcDbAttr
1070
     0
1070
     1
  0
ATTRIB
  5
3704
330
3700
100
AcDbEntity
 67
     1
  8
Title block
100
AcDbText
 10
155.0960429345232
 20
421.7315904933092
 30
0.0
 40
3.5
  1
10.1.1
100
AcDbAttribute
  2
DRGNO
 70
     0
1001
AcDbAttr
1070
     0
1070
     1
  0
ATTRIB
  5
3705
330
3700
100
AcDbEntity
 67
     1
  8
Title block
100
AcDbText
 10
87.51614096407729
 20
430.1754655931856
 30
0.0
 40
4.0
  1
           Option 1
100
AcDbAttribute
  2
TITLE2
 70
     0
1001
AcDbAttr
1070
     0
1070
     1
  0
SEQEND
  5
3706
330
3700
100
AcDbEntity
 67
     1
  8
Border
  0
LEADER
  5
38F7
330
5E
100
AcDbEntity
 67
     1
  8
Text
100
AcDbLeader
  3
STANDARD
 72
     1
 73
     0
 40
2.5
 76
     4
 10
84.30591089729
 20
516.6451980771811
 30
0.0
 10
70.14831302211565
 20
533.5177692193748
 30
0.0
 10
51.22613851195888
 20
541.8179853255553
 30
0.0
 10
40.889506013056
 20
542.8563878353901
 30
0.0
340
35DC
213
15.59802117963954
223
4.754555129981213
233
0.0
1001
ACAD
1000
DSTYLE
1002
{
1070
   147
1040
1.0
1070
    77
1070
     0
1002
}
  0
MTEXT
  5
38F8
330
5E
100
AcDbEntity
 67
     1
  8
Text
100
AcDbMText
 10
74.52878816085171
 20
505.5692013607174
 30
0.0
 40
2.5
 41
21.72729486741446
 71
     1
 72
     5
  1
{\fSwis721 BT|b0|i1|c0|p34;Concrete slab}
  7
1
 73
     1
 44
1.0
 90
        3
 63
   256
 45
1.5
441
  7800386
  0
MTEXT
  5
4480
330
5E
100
AcDbEntity
 67
     1
  8
Text
100
AcDbMText
 10
21.41466931411628
 20
544.6735954333144
 30
0.0
 40
2.5
 41
28.44255838604454
 71
     1
 72
     5
  1
{\fSwis721 BT|b0|i1|c0|p34;Continuous Mortar \P\PDamp Proof Course under panel (and timber if required)}
  7
1
 73
     1
 44
1.0
  0
LEADER
  5
4481
330
5E
100
AcDbEntity
 67
     1
  8
Text
100
AcDbLeader
  3
STANDARD
 72
     1
 73
     0
 40
2.5
 76
     4
 10
78.15662611059497
 20
515.8552991317671
 30
0.0
 10
65.65104168116977
 20
526.4324369020347
 30
0.0
 10
49.61824192756285
 20
530.4389290628257
 30
0.0
 10
41.25375425627908
 20
530.6307913177071
 30
0.0
340
35DC
213
23.84433329553849
223
4.640417331416188
233
0.0
1001
ACAD
1000
DSTYLE
1002
{
1070
   147
1040
1.0
1070
    77
1070
     0
1002
}
  0
MTEXT
  5
4482
102
{ACAD_XDICTIONARY
360
760E
102
}
330
5E
100
AcDbEntity
 67
     1
  8
Text
100
AcDbMText
 10
125.7900326261983
 20
612.7975752213069
 30
0.0
 40
2.5
 41
39.02747535080016
 71
     1
 72
     5
  3
{\fSwis721 BT|b0|i1|c0|p34;Plasterboard to system specification\P\PTimber or steel framing as per project specifications\P\P10 - 20mm gap\P\PInsulation to system specification \P\P75mm Supercrete}\U+2122{\fSwis721 BT|b0|i1|c0|p34; Panel\P\PAluminium 
  1
bracket fixed to frame with 2 x 2mm x 25mm galv nails or 2 x 12-11 x 50mm hex head screws for timber framing, or 2 x 10-16 x 16mm wafer head crews for steel framing }
  7
1
 73
     1
 44
1.0
1001
ACAD
1000
ACAD_MTEXT_DEFINED_HEIGHT_BEGIN
1070
    46
1040
6.94102511482265
1000
ACAD_MTEXT_DEFINED_HEIGHT_END
  0
LEADER
  5
4483
330
5E
100
AcDbEntity
 67
     1
  8
Text
100
AcDbLeader
  3
STANDARD
 72
     1
 76
     4
 10
116.0663023035288
 20
603.5727745837512
 30
0.0
 10
118.93903461273
 20
609.3156376190567
 30
0.0
 10
121.7314123039359
 20
610.7974304022111
 30
0.0
 10
124.5586667814401
 20
610.9996858372092
 30
0.0
1001
ACAD
1000
DSTYLE
1002
{
1070
   147
1040
1.0
1070
    77
1070
     0
1002
}
  0
LEADER
  5
44C9
330
5E
100
AcDbEntity
 67
     1
  8
Text
100
AcDbLeader
  3
STANDARD
 72
     1
 76
     4
 10
101.6450500564924
 20
591.1645909807315
 30
0.0
 10
109.8122666161098
 20
595.5809207183587
 30
0.0
 10
117.2154677587794
 20
597.4173802859823
 30
0.0
 10
124.5586667814401
 20
598.0418231417274
 30
0.0
1001
ACAD
1000
DSTYLE
1002
{
1070
   147
1040
1.0
1070
    77
1070
     0
1002
}
  0
LEADER
  5
44CA
330
5E
100
AcDbEntity
 67
     1
  8
Text
100
AcDbLeader
  3
STANDARD
 72
     1
 76
     4
 10
95.90397751013233
 20
526.4541093008381
 30
0.0
 10
101.485708981605
 20
538.148981056241
 30
0.0
 10
117.2648357481403
 20
547.9125891001086
 30
0.0
 10
124.5586667814401
 20
548.4955509618322
 30
0.0
1001
ACAD
1000
DSTYLE
1002
{
1070
   147
1040
1.0
1070
    77
1070
     0
1002
}
  0
LEADER
  5
6B2F
330
5E
100
AcDbEntity
 67
     1
  8
Text
100
AcDbLeader
  3
STANDARD
 72
     1
 76
     4
 10
94.98231060210196
 20
579.7233242126146
 30
0.0
 10
107.5316826794246
 20
581.0393581715572
 30
0.0
 10
117.7847084199641
 20
581.6636252855398
 30
0.0
 10
124.5586667814401
 20
581.85286926153
 30
0.0
1001
ACAD
1000
DSTYLE
1002
{
1070
   147
1040
1.0
1070
    77
1070
     0
1002
}
  0
LEADER
  5
6B30
330
5E
100
AcDbEntity
 67
     1
  8
Text
100
AcDbLeader
  3
STANDARD
 72
     1
 76
     4
 10
111.260595193216
 20
565.8840606011461
 30
0.0
 10
114.1035599539621
 20
571.5674166986846
 30
0.0
 10
120.1956282046851
 20
573.4618689634785
 30
0.0
 10
124.5586667814401
 20
573.9511186348182
 30
0.0
1001
ACAD
1000
DSTYLE
1002
{
1070
   147
1040
1.0
1070
    77
1070
     0
1002
}
  0
LEADER
  5
6B31
330
5E
100
AcDbEntity
 67
     1
  8
Text
100
AcDbLeader
  3
STANDARD
 72
     1
 76
     4
 10
85.67191614235595
 20
554.4983831174895
 30
0.0
 10
95.56801148898626
 20
558.8776798121904
 30
0.0
 10
117.4445776487516
 20
560.8831050771169
 30
0.0
 10
124.5586667814401
 20
561.0385005842846
 30
0.0
1001
ACAD
1000
DSTYLE
1002
{
1070
   147
1040
1.0
1070
    77
1070
     0
1002
}
  0
LEADER
  5
6B32
330
5E
100
AcDbEntity
 67
     1
  8
Text
100
AcDbLeader
  3
STANDARD
 72
     1
 76
     4
 10
59.95184181731952
 20
563.5836545782577
 30
0.0
 10
72.4067367667119
 20
570.4848726469228
 30
0.0
 10
117.2208378439752
 20
574.1656570530478
 30
0.0
 10
124.5586667814401
 20
573.9511186348182
 30
0.0
1001
ACAD
1000
DSTYLE
1002
{
1070
   147
1040
1.0
1070
    77
1070
     0
1002
}
  0
LEADER
  5
6B33
330
5E
100
AcDbEntity
 67
     1
  8
Text
100
AcDbLeader
  3
STANDARD
 72
     1
 76
     4
 10
76.17765415245822
 20
578.6304731508813
 30
0.0
 10
84.89975096823377
 20
580.9137981496049
 30
0.0
 10
117.2208378439752
 20
582.0674076797596
 30
0.0
 10
124.5586667814401
 20
581.85286926153
 30
0.0
1001
ACAD
1000
DSTYLE
1002
{
1070
   147
1040
1.0
1070
    77
1070
     0
1002
}
  0
LEADER
  5
6B34
330
5E
100
AcDbEntity
 67
     1
  8
Text
100
AcDbLeader
  3
STANDARD
 72
     1
 76
     4
 10
69.88985850829521
 20
590.7224849897037
 30
0.0
 10
77.21717640337579
 20
596.4829342606016
 30
0.0
 10
95.32964695130386
 20
598.7871143870668
 30
0.0
 10
124.5586667814401
 20
598.0418231417275
 30
0.0
1001
ACAD
1000
DSTYLE
1002
{
1070
   147
1040
1.0
1070
    77
1070
     0
1002
}
  0
LEADER
  5
6B35
330
5E
100
AcDbEntity
 67
     1
  8
Text
100
AcDbLeader
  3
STANDARD
 72
     1
 76
     4
 10
54.97630615918047
 20
600.6322217806485
 30
0.0
 10
72.4067367667119
 20
607.5334398493136
 30
0.0
 10
117.2208378439752
 20
611.2142242554386
 30
0.0
 10
124.5586667814401
 20
610.9996858372091
 30
0.0
1001
ACAD
1000
DSTYLE
1002
{
1070
   147
1040
1.0
1070
    77
1070
     0
1002
}
  0
ENDSEC
  0
SECTION
  2
OBJECTS
  0
DICTIONARY
  5
562
330
0
100
AcDbDictionary
281
     1
  3
ACAD_2007HEADERVARS_RT
350
79B5
  3
ACAD_CIP_PREVIOUS_PRODUCT_INFO
350
7555
  3
ACAD_COLOR
350
2F60
  3
ACAD_DETAILVIEWSTYLE
350
7549
  3
ACAD_GROUP
350
560
  3
ACAD_IMAGE_DICT
350
3025
  3
ACAD_IMAGE_VARS
350
302E
  3
ACAD_LAYOUT
350
58C
  3
ACAD_MATERIAL
350
2F36
  3
ACAD_MLEADERSTYLE
350
2F85
  3
ACAD_MLINESTYLE
350
561
  3
ACAD_PLOTSETTINGS
350
58D
  3
ACAD_PLOTSTYLENAME
350
58A
  3
ACAD_SCALELIST
350
2F63
  3
ACAD_SECTIONVIEWSTYLE
350
7546
  3
ACAD_TABLESTYLE
350
2F61
  3
ACAD_VISUALSTYLE
350
2F4F
  3
AcadDim
350
35D6
  3
ACDB_RECOMPOSE_DATA
350
79B4
  3
AcDbVariableDictionary
350
599
  3
AcDsDecomposeData
350
79BD
  3
AEC_PROPERTY_SET_DEFS
350
36FF
  3
ASE_INDEX_DICTIONARY
350
596
  0
DICTIONARY
  5
2FC5
330
55B
100
AcDbDictionary
280
     1
281
     1
  0
DICTIONARY
  5
2C65
330
553
100
AcDbDictionary
280
     1
281
     1
  3
ACAD_LAYERFILTERS
360
2C66
  3
ACAD_LAYERSTATES
360
2FE7
  0
DICTIONARY
  5
2F90
330
24
100
AcDbDictionary
280
     1
281
     1
  3
ADSK_XREC_LAYER_RECONCILED
360
2F91
  0
DICTIONARY
  5
2F92
330
12
100
AcDbDictionary
280
     1
281
     1
  3
ADSK_XREC_LAYER_RECONCILED
360
2F93
  0
DICTIONARY
  5
2F94
330
4
100
AcDbDictionary
280
     1
281
     1
  3
ADSK_XREC_LAYER_RECONCILED
360
2F95
  0
DICTIONARY
  5
2FF7
330
2FF6
100
AcDbDictionary
280
     1
281
     1
  0
DICTIONARY
  5
2FF9
330
2FF8
100
AcDbDictionary
280
     1
281
     1
  0
DICTIONARY
  5
5235
330
5234
100
AcDbDictionary
280
     1
281
     1
  0
DICTIONARY
  5
30CC
330
2
100
AcDbDictionary
280
     1
281
     1
  3
ACAD_SORTENTS
360
30CD
  0
DICTIONARY
  5
3021
330
300A
100
AcDbDictionary
280
     1
281
     1
  3
ACAD_SORTENTS
360
787F
  0
DICTIONARY
  5
5334
330
5286
100
AcDbDictionary
280
     1
281
     1
  3
ACAD_SORTENTS
360
55E0
  0
DICTIONARY
  5
5782
330
5724
100
AcDbDictionary
280
     1
281
     1
  3
ACAD_SORTENTS
360
5783
  0
IMAGEDEF_REACTOR
  5
787E
330
787D
100
AcDbRasterImageDefReactor
 90
        2
330
787D
  0
DICTIONARY
  5
78B5
330
78B4
100
AcDbDictionary
280
     1
281
     1
  3
ACAD_MTEXT_2008_RT
360
79FA
  0
IMAGEDEF_REACTOR
  5
78D6
330
78D5
100
AcDbRasterImageDefReactor
 90
        2
330
78D5
  0
DICTIONARY
  5
79B0
330
78D9
100
AcDbDictionary
280
     1
281
     1
  3
ACAD_MTEXT_2008_RT
360
79B1
  0
DICTIONARY
  5
79B2
330
78E8
100
AcDbDictionary
280
     1
281
     1
  3
ACAD_MTEXT_2008_RT
360
79B3
  0
DICTIONARY
  5
760E
330
4482
100
AcDbDictionary
280
     1
281
     1
  3
ACAD_MTEXT_2008_RT
360
79E4
  0
DICTIONARY
  5
79B5
102
{ACAD_REACTORS
330
562
102
}
330
562
100
AcDbDictionary
281
     1
  3
DIMFXL
350
79B6
  3
DIMJOGANG
350
79B7
  0
XRECORD
  5
7555
102
{ACAD_REACTORS
330
562
102
}
330
562
100
AcDbXrecord
280
     1
300
ACD
300
2013
300
ACD_F_S
  0
DICTIONARY
  5
2F60
102
{ACAD_REACTORS
330
562
102
}
330
562
100
AcDbDictionary
281
     1
  0
DICTIONARY
  5
7549
102
{ACAD_REACTORS
330
562
102
}
330
562
100
AcDbDictionary
281
     1
  3
Imperial24
350
754A
  0
DICTIONARY
  5
560
102
{ACAD_REACTORS
330
562
102
}
330
562
100
AcDbDictionary
281
     1
  0
DICTIONARY
  5
3025
102
{ACAD_REACTORS
330
562
102
}
330
562
100
AcDbDictionary
281
     1
  3
Supercrete Hi Res
350
7880
  0
RASTERVARIABLES
  5
302E
102
{ACAD_REACTORS
330
562
102
}
330
562
100
AcDbRasterVariables
 90
        0
 70
     1
 71
     1
 72
     0
  0
DICTIONARY
  5
58C
102
{ACAD_REACTORS
330
562
102
}
330
562
100
AcDbDictionary
281
     1
  3
10.1.1
350
58F
  3
Model
350
58E
  0
DICTIONARY
  5
2F36
102
{ACAD_REACTORS
330
562
102
}
330
562
100
AcDbDictionary
281
     1
  3
ByBlock
350
2F3F
  3
ByLayer
350
2F37
  3
Global
350
2F47
  0
DICTIONARY
  5
2F85
102
{ACAD_REACTORS
330
562
102
}
330
562
100
AcDbDictionary
281
     1
  3
Standard
350
2F86
  0
DICTIONARY
  5
561
102
{ACAD_REACTORS
330
562
102
}
330
562
100
AcDbDictionary
281
     1
  3
STANDARD
350
563
  0
DICTIONARY
  5
58D
102
{ACAD_REACTORS
330
562
102
}
330
562
100
AcDbDictionary
281
     1
  0
ACDBDICTIONARYWDFLT
  5
58A
102
{ACAD_REACTORS
330
562
102
}
330
562
100
AcDbDictionary
281
     1
  3
Normal
350
58B
100
AcDbDictionaryWithDefault
340
58B
  0
DICTIONARY
  5
2F63
102
{ACAD_REACTORS
330
562
102
}
330
562
100
AcDbDictionary
281
     1
  3
A0
350
2F64
  3
A1
350
2F65
  3
A2
350
2F66
  3
A3
350
2F67
  3
A4
350
2F68
  3
A5
350
2F69
  3
A6
350
2F6A
  3
A7
350
2F6B
  3
A8
350
2F6C
  3
A9
350
2F6D
  3
B0
350
2F6E
  3
B1
350
2F6F
  3
B2
350
2F70
  3
B3
350
2F71
  3
B4
350
2F72
  3
B5
350
2F73
  3
B6
350
2F74
  3
B7
350
2F75
  3
B8
350
2F76
  3
B9
350
2F77
  3
C0
350
2F78
  3
C1
350
2F79
  3
C2
350
2F7A
  3
C3
350
2F7B
  3
C4
350
2F7C
  3
C5
350
2F7D
  3
C6
350
2F7E
  3
C7
350
2F7F
  3
C8
350
2F80
  3
C9
350
2F81
  3
D0
350
2F82
  3
D1
350
2F83
  3
D2
350
2F84
  0
DICTIONARY
  5
7546
102
{ACAD_REACTORS
330
562
102
}
330
562
100
AcDbDictionary
281
     1
  3
Imperial24
350
7548
  0
DICTIONARY
  5
2F61
102
{ACAD_REACTORS
330
562
102
}
330
562
100
AcDbDictionary
281
     1
  3
Standard
350
2F62
  0
DICTIONARY
  5
2F4F
102
{ACAD_REACTORS
330
562
102
}
330
562
100
AcDbDictionary
281
     1
  3
2dWireframe
350
2F55
  3
3D Hidden
350
2F57
  3
3dWireframe
350
2F56
  3
Basic
350
2F54
  3
Brighten
350
2F5B
  3
ColorChange
350
2F5F
  3
Conceptual
350
2F58
  3
Dim
350
2F5A
  3
EdgeColorOff
350
7545
  3
Facepattern
350
2F5E
  3
Flat
350
2F50
  3
FlatWithEdges
350
2F51
  3
Gouraud
350
2F52
  3
GouraudWithEdges
350
2F53
  3
Hidden
350
753D
  3
JitterOff
350
7543
  3
Linepattern
350
2F5D
  3
OverhangOff
350
7544
  3
Realistic
350
2F59
  3
Shaded
350
7542
  3
Shaded with edges
350
7541
  3
Shades of Gray
350
753E
  3
Sketchy
350
753F
  3
Thicken
350
2F5C
  3
Wireframe
350
753C
  3
X-Ray
350
7540
  0
XRECORD
  5
35D6
102
{ACAD_REACTORS
330
562
102
}
330
562
100
AcDbXrecord
280
     1
 90
   990106
  3

 60
     0
 61
     0
 62
     2
 63
     2
 64
     0
 65
     1
 66
     0
 67
     4
 68
     1
 69
     0
 70
     0
 71
     0
 72
     0
 40
0.0
170
     1
340
35DC
  0
XRECORD
  5
79B4
102
{ACAD_REACTORS
330
562
102
}
330
562
100
AcDbXrecord
280
     1
 90
        1
330
2F62
330
78D9
330
78E8
  0
DICTIONARY
  5
599
102
{ACAD_REACTORS
330
562
102
}
330
562
100
AcDbDictionary
281
     1
  3
CANNOSCALE
350
2FD3
  3
CMLEADERSTYLE
350
2FD2
  3
CTABLESTYLE
350
2FD1
  3
CVIEWDETAILSTYLE
350
7624
  3
CVIEWSECTIONSTYLE
350
7625
  3
DIMASSOC
350
59A
  0
DICTIONARY
  5
79BD
102
{ACAD_REACTORS
330
562
102
}
330
562
100
AcDbDictionary
281
     1
  3
AcDsRecords
350
79BF
  3
AcDsSchemas
350
79BE
1001
ACAD
1070
     2
  0
DICTIONARY
  5
36FF
102
{ACAD_REACTORS
330
562
102
}
330
562
100
AcDbDictionary
281
     1
  0
DICTIONARY
  5
596
102
{ACAD_REACTORS
330
562
102
}
330
562
100
AcDbDictionary
281
     1
  3
ASEBlockHierarchyIndexRecord
350
598
1001
DCO15
1040
1440471924.124
  0
DICTIONARY
  5
2C66
102
{ACAD_REACTORS
330
2C65
102
}
330
2C65
100
AcDbDictionary
280
     1
281
     1
  3
DIMENSION
360
2C67
  3
HB_X
360
2C68
  0
DICTIONARY
  5
2FE7
102
{ACAD_REACTORS
330
2C65
102
}
330
2C65
100
AcDbDictionary
281
     1
  3
ACET-LAYISO
350
35F7
  0
XRECORD
  5
2F91
102
{ACAD_REACTORS
330
2F90
102
}
330
2F90
100
AcDbXrecord
280
     1
290
     1
  0
XRECORD
  5
2F93
102
{ACAD_REACTORS
330
2F92
102
}
330
2F92
100
AcDbXrecord
280
     1
290
     1
  0
XRECORD
  5
2F95
102
{ACAD_REACTORS
330
2F94
102
}
330
2F94
100
AcDbXrecord
280
     1
290
     1
  0
SORTENTSTABLE
  5
30CD
102
{ACAD_REACTORS
330
30CC
102
}
330
30CC
100
AcDbSortentsTable
330
2
331
78BD
  5
78D3
331
78CC
  5
78BC
331
464B
  5
5786
331
5DD2
  5
57A2
331
4643
  5
466B
331
579B
  5
5DD0
331
78B9
  5
78CF
331
78C8
  5
78B8
331
2924
  5
4640
331
5797
  5
57A0
331
375F
  5
4644
331
290D
  5
3A38
331
463F
  5
4646
331
78C0
  5
78AF
331
44C8
  5
41F9
331
78B1
  5
78C8
331
579E
  5
5E08
331
78C7
  5
78B7
331
5787
  5
579D
331
4646
  5
4649
331
5341
  5
5799
331
6AD9
  5
3760
331
2909
  5
37D4
331
57A2
  5
6B83
331
4669
  5
463E
331
78BC
  5
78D2
331
78CB
  5
78BB
331
579A
  5
57AE
331
78B4
  5
78CB
331
78C3
  5
78B2
331
291F
  5
41FA
331
4642
  5
466A
331
4670
  5
5798
331
464A
  5
55E1
331
78B8
  5
78CE
331
290C
  5
3A2A
331
2923
  5
463F
331
78CE
  5
78BE
331
78BF
  5
78D5
331
78B0
  5
78C7
331
371F
  5
4643
331
5796
  5
579F
331
579D
  5
5DD3
331
6FB1
  5
4287
331
78D5
  5
78C5
331
78B7
  5
78CD
331
78C6
  5
78B6
331
5786
  5
579C
331
4645
  5
4647
331
466C
  5
5795
331
57A1
  5
6AF5
331
78BB
  5
78D1
331
78CA
  5
78BA
331
37DF
  5
4260
331
78B3
  5
78CA
331
78C2
  5
78B1
331
4641
  5
4669
331
466F
  5
5797
331
4649
  5
4670
331
290B
  5
3902
331
73E0
  5
4342
331
466B
  5
5787
331
78CD
  5
78BD
331
463D
  5
464A
331
78BE
  5
78D4
331
78AF
  5
78C6
331
44B6
  5
4645
331
55E1
  5
579B
331
78D4
  5
78C4
331
78B6
  5
78CC
331
78C5
  5
78B4
331
4644
  5
466C
331
579C
  5
5DD2
331
5DD3
  5
4648
331
5795
  5
579E
331
78BA
  5
78D0
331
78C9
  5
78B9
331
4648
  5
466F
331
466E
  5
5796
331
6AF5
  5
6FB2
331
4640
  5
464B
331
5798
  5
57AD
331
78B2
  5
78C9
331
78C1
  5
78B0
331
4647
  5
466E
331
579F
  5
64B7
331
3751
  5
463D
331
57A0
  5
64B8
  0
SORTENTSTABLE
  5
787F
102
{ACAD_REACTORS
330
3021
102
}
330
3021
100
AcDbSortentsTable
330
300A
  0
SORTENTSTABLE
  5
55E0
102
{ACAD_REACTORS
330
5334
102
}
330
5334
100
AcDbSortentsTable
330
5286
  0
SORTENTSTABLE
  5
5783
102
{ACAD_REACTORS
330
5782
102
}
330
5782
100
AcDbSortentsTable
330
5724
  0
XRECORD
  5
79FA
102
{ACAD_REACTORS
330
78B5
102
}
330
78B5
100
AcDbXrecord
280
     1
 40
7502010.0
  1
{\fSwis721 BT|b0|i1|c0|p34;Plasterboard to system specification\P\PTimber or steel framing as per project specifications\P\P10 - 20mm gap\P\PInsulation to system specification \P\P75mm Supercrete}™{\fSwis721 BT|b0|i1|c0|p34; Panel\P\PAluminium bracke
  1
t fixed to frame with 2 x 2mm x 25mm galv nails or 2 x 12-11 x 50mm hex head screws for timber framing, or 2 x 10-16 x 16mm wafer head crews for steel framing }
  0
XRECORD
  5
79B1
102
{ACAD_REACTORS
330
79B0
102
}
330
79B0
100
AcDbXrecord
280
     1
 40
182858.0
  1
\pxqc;A.W.S. - Wall Type 1\PBase Connection Option 1
  0
XRECORD
  5
79B3
102
{ACAD_REACTORS
330
79B2
102
}
330
79B2
100
AcDbXrecord
280
     1
 40
7064.0
  1
\pxqc;10.1.1
  0
XRECORD
  5
79E4
102
{ACAD_REACTORS
330
760E
102
}
330
760E
100
AcDbXrecord
280
     1
 40
7502010.0
  1
{\fSwis721 BT|b0|i1|c0|p34;Plasterboard to system specification\P\PTimber or steel framing as per project specifications\P\P10 - 20mm gap\P\PInsulation to system specification \P\P75mm Supercrete}™{\fSwis721 BT|b0|i1|c0|p34; Panel\P\PAluminium bracke
  1
t fixed to frame with 2 x 2mm x 25mm galv nails or 2 x 12-11 x 50mm hex head screws for timber framing, or 2 x 10-16 x 16mm wafer head crews for steel framing }
  0
XRECORD
  5
79B6
102
{ACAD_REACTORS
330
79B5
102
}
330
79B5
100
AcDbXrecord
280
     1
 40
10.0
  0
XRECORD
  5
79B7
102
{ACAD_REACTORS
330
79B5
102
}
330
79B5
100
AcDbXrecord
280
     1
 40
1.570796326794896
  0
ACDBDETAILVIEWSTYLE
  5
754A
102
{ACAD_REACTORS
330
7549
102
}
330
7549
100
AcDbModelDocViewStyle
 70
     0
  3
Imperial24
290
     0
100
AcDbDetailViewStyle
 70
     0
 71
     0
 90
        3
 71
     1
340
555
 62
   256
 40
0.24
340
0
 62
   256
 40
0.24
300

 40
0.36
280
     3
 71
     2
340
5
 90
       25
 62
   256
 71
     3
340
555
 62
   256
 40
0.24
 90
        1
 40
0.75
 90
        1
300
%<\AcVar ViewType \f "%tc1">% %<\AcVar ViewDetailId>%\PSCALE %<\AcVar ViewScale \f "%sn">%
 71
     4
340
5
 90
       25
 62
   256
340
5
 90
       25
 62
   256
280
     0
  0
IMAGEDEF
  5
7880
102
{ACAD_REACTORS
330
787E
330
3025
330
78D6
102
}
330
3025
100
AcDbRasterImageDef
 90
        0
  1
\\SAMBA24\dennis\hebel\Technical Support\Documents\Logos\Supercrete Hi Res.jpg
 10
1367.0
 20
308.0
 11
0.0846666666666667
 21
0.0846666666666667
280
     1
281
     5
  0
LAYOUT
  5
58F
102
{ACAD_XDICTIONARY
360
2FEB
102
}
102
{ACAD_REACTORS
330
58C
102
}
330
58C
100
AcDbPlotSettings
  1

  2
Adobe PDF.pc3
  4
A4
  6

 40
3.174999952316284
 41
3.174999952316284
 42
3.175003051757812
 43
3.17498779296875
 44
209.9733276367187
 45
297.0318298339844
 46
0.0
 47
0.0
 48
-18.13873906734903
 49
401.3216390553216
140
171.861260932651
141
684.3216390553216
142
1.0
143
1.0
 70
   672
 72
     1
 73
     0
 74
     5
  7
Hebel monochrome.ctb
 75
    16
147
0.9999999999999998
 76
     0
 77
     2
 78
   300
148
18.13873906734903
149
-401.3216390553216
100
AcDbLayout
  1
10.1.1
 70
     0
 71
     1
 10
-21.31373901966532
 20
398.1466391030053
 11
188.6595886170535
 21
695.1784689369897
 12
0.0
 22
0.0
 32
0.0
 14
-8.208116320692397
 24
408.7933290775812
 34
0.0
 15
181.9704622977615
 25
685.3963845516719
 35
0.0
146
0.0
 13
0.0
 23
0.0
 33
0.0
 16
1.0
 26
0.0
 36
0.0
 17
0.0
 27
1.0
 37
0.0
 76
     0
330
5E
331
5F
1001
ACAD_PSEXT
1000
Adobe PDF.pc3
1000
Adobe PDF Converter
1000
Documents\*.pdf
1000

1070
     0
  0
LAYOUT
  5
58E
102
{ACAD_REACTORS
330
58C
102
}
330
58C
100
AcDbPlotSettings
  1

  2
Adobe PDF.pc3
  4
A4
  6

 40
3.174999952316284
 41
3.174999952316284
 42
3.175003051757812
 43
3.17498779296875
 44
209.9733276367187
 45
297.0318298339844
 46
-107.3540820973496
 47
2.199265329261834
 48
0.0
 49
0.0
140
0.0
141
0.0
142
1.0
143
5.0
 70
 11940
 72
     1
 73
     0
 74
     0
  7
Hebel monochrome.ctb
 75
     0
147
0.0973502258715625
 76
     0
 77
     2
 78
   300
148
20710.34146568219
149
-7831.600383970682
100
AcDbLayout
  1
Model
 70
     1
 71
     0
 10
0.0
 20
0.0
 11
12.0
 21
9.0
 12
0.0
 22
0.0
 32
0.0
 14
0.0
 24
0.0
 34
0.0
 15
0.0
 25
0.0
 35
0.0
146
0.0
 13
0.0
 23
0.0
 33
0.0
 16
1.0
 26
0.0
 36
0.0
 17
0.0
 27
1.0
 37
0.0
 76
     0
330
2
331
2F34
1001
ACAD_PSEXT
1000
Adobe PDF.pc3
1000
Adobe PDF Converter
1000
Documents\*.pdf
1000

1070
     0
  0
MATERIAL
  5
2F3F
102
{ACAD_XDICTIONARY
360
2F40
102
}
102
{ACAD_REACTORS
330
2F36
102
}
330
2F36
100
AcDbMaterial
  1
ByBlock
 72
     0
 43
0.0208333333333333
 43
0.0
 43
0.0
 43
0.0
 43
0.0
 43
0.0208333333333333
 43
0.0
 43
0.0
 43
0.0
 43
0.0
 43
1.0
 43
0.0
 43
0.0
 43
0.0
 43
0.0
 43
1.0
 77
     0
 47
0.0208333333333333
 47
0.0
 47
0.0
 47
0.0
 47
0.0
 47
0.0208333333333333
 47
0.0
 47
0.0
 47
0.0
 47
0.0
 47
1.0
 47
0.0
 47
0.0
 47
0.0
 47
0.0
 47
1.0
171
     0
 49
0.0208333333333333
 49
0.0
 49
0.0
 49
0.0
 49
0.0
 49
0.0208333333333333
 49
0.0
 49
0.0
 49
0.0
 49
0.0
 49
1.0
 49
0.0
 49
0.0
 49
0.0
 49
0.0
 49
1.0
175
     0
142
0.0208333333333333
142
0.0
142
0.0
142
0.0
142
0.0
142
0.0208333333333333
142
0.0
142
0.0
142
0.0
142
0.0
142
1.0
142
0.0
142
0.0
142
0.0
142
0.0
142
1.0
179
     0
144
0.0208333333333333
144
0.0
144
0.0
144
0.0
144
0.0
144
0.0208333333333333
144
0.0
144
0.0
144
0.0
144
0.0
144
1.0
144
0.0
144
0.0
144
0.0
144
0.0
144
1.0
147
0.0208333333333333
147
0.0
147
0.0
147
0.0
147
0.0
147
0.0208333333333333
147
0.0
147
0.0
147
0.0
147
0.0
147
1.0
147
0.0
147
0.0
147
0.0
147
0.0
147
1.0
  0
MATERIAL
  5
2F37
102
{ACAD_XDICTIONARY
360
2F38
102
}
102
{ACAD_REACTORS
330
2F36
102
}
330
2F36
100
AcDbMaterial
  1
ByLayer
 72
     0
 43
0.0208333333333333
 43
0.0
 43
0.0
 43
0.0
 43
0.0
 43
0.0208333333333333
 43
0.0
 43
0.0
 43
0.0
 43
0.0
 43
1.0
 43
0.0
 43
0.0
 43
0.0
 43
0.0
 43
1.0
 77
     0
 47
0.0208333333333333
 47
0.0
 47
0.0
 47
0.0
 47
0.0
 47
0.0208333333333333
 47
0.0
 47
0.0
 47
0.0
 47
0.0
 47
1.0
 47
0.0
 47
0.0
 47
0.0
 47
0.0
 47
1.0
171
     0
 49
0.0208333333333333
 49
0.0
 49
0.0
 49
0.0
 49
0.0
 49
0.0208333333333333
 49
0.0
 49
0.0
 49
0.0
 49
0.0
 49
1.0
 49
0.0
 49
0.0
 49
0.0
 49
0.0
 49
1.0
175
     0
142
0.0208333333333333
142
0.0
142
0.0
142
0.0
142
0.0
142
0.0208333333333333
142
0.0
142
0.0
142
0.0
142
0.0
142
1.0
142
0.0
142
0.0
142
0.0
142
0.0
142
1.0
179
     0
144
0.0208333333333333
144
0.0
144
0.0
144
0.0
144
0.0
144
0.0208333333333333
144
0.0
144
0.0
144
0.0
144
0.0
144
1.0
144
0.0
144
0.0
144
0.0
144
0.0
144
1.0
147
0.0208333333333333
147
0.0
147
0.0
147
0.0
147
0.0
147
0.0208333333333333
147
0.0
147
0.0
147
0.0
147
0.0
147
1.0
147
0.0
147
0.0
147
0.0
147
0.0
147
1.0
  0
MATERIAL
  5
2F47
102
{ACAD_XDICTIONARY
360
2F48
102
}
102
{ACAD_REACTORS
330
2F36
102
}
330
2F36
100
AcDbMaterial
  1
Global
 72
     0
 43
0.0208333333333333
 43
0.0
 43
0.0
 43
0.0
 43
0.0
 43
0.0208333333333333
 43
0.0
 43
0.0
 43
0.0
 43
0.0
 43
1.0
 43
0.0
 43
0.0
 43
0.0
 43
0.0
 43
1.0
 77
     0
 47
0.0208333333333333
 47
0.0
 47
0.0
 47
0.0
 47
0.0
 47
0.0208333333333333
 47
0.0
 47
0.0
 47
0.0
 47
0.0
 47
1.0
 47
0.0
 47
0.0
 47
0.0
 47
0.0
 47
1.0
171
     0
 49
0.0208333333333333
 49
0.0
 49
0.0
 49
0.0
 49
0.0
 49
0.0208333333333333
 49
0.0
 49
0.0
 49
0.0
 49
0.0
 49
1.0
 49
0.0
 49
0.0
 49
0.0
 49
0.0
 49
1.0
175
     0
142
0.0208333333333333
142
0.0
142
0.0
142
0.0
142
0.0
142
0.0208333333333333
142
0.0
142
0.0
142
0.0
142
0.0
142
1.0
142
0.0
142
0.0
142
0.0
142
0.0
142
1.0
179
     0
144
0.0208333333333333
144
0.0
144
0.0
144
0.0
144
0.0
144
0.0208333333333333
144
0.0
144
0.0
144
0.0
144
0.0
144
1.0
144
0.0
144
0.0
144
0.0
144
0.0
144
1.0
147
0.0208333333333333
147
0.0
147
0.0
147
0.0
147
0.0
147
0.0208333333333333
147
0.0
147
0.0
147
0.0
147
0.0
147
1.0
147
0.0
147
0.0
147
0.0
147
0.0
147
1.0
  0
MLEADERSTYLE
  5
2F86
102
{ACAD_REACTORS
330
2F85
102
}
330
2F85
100
AcDbMLeaderStyle
170
     2
171
     1
172
     0
 90
        2
 40
0.0
 41
0.0
173
     1
 91
-1056964608
340
557
 92
       -2
290
     1
 42
0.09
291
     1
 43
0.36
  3
Standard
 44
0.18
300

342
555
174
     1
178
     6
175
     1
176
     0
 93
-1056964608
 45
0.18
292
     0
297
     0
 46
0.18
 94
-1056964608
 47
1.0
 49
1.0
140
1.0
293
     1
141
0.0
294
     1
177
     0
142
1.0
295
     0
296
     0
143
0.125
1001
ACAD_MLEADERVER
1070
     2
  0
MLINESTYLE
  5
563
102
{ACAD_REACTORS
330
561
102
}
330
561
100
AcDbMlineStyle
  2
STANDARD
 70
     0
  3

 62
   256
 51
90.0
 52
90.0
 71
     2
 49
0.5
 62
   256
  6
BYLAYER
 49
-0.5
 62
   256
  6
BYLAYER
  0
ACDBPLACEHOLDER
  5
58B
102
{ACAD_REACTORS
330
58A
102
}
330
58A
  0
SCALE
  5
2F64
102
{ACAD_REACTORS
330
2F63
102
}
330
2F63
100
AcDbScale
 70
     0
300
1:1
140
1.0
141
1.0
290
     1
  0
SCALE
  5
2F65
102
{ACAD_REACTORS
330
2F63
102
}
330
2F63
100
AcDbScale
 70
     0
300
1:2
140
1.0
141
2.0
290
     0
  0
SCALE
  5
2F66
102
{ACAD_REACTORS
330
2F63
102
}
330
2F63
100
AcDbScale
 70
     0
300
1:4
140
1.0
141
4.0
290
     0
  0
SCALE
  5
2F67
102
{ACAD_REACTORS
330
2F63
102
}
330
2F63
100
AcDbScale
 70
     0
300
1:5
140
1.0
141
5.0
290
     0
  0
SCALE
  5
2F68
102
{ACAD_REACTORS
330
2F63
102
}
330
2F63
100
AcDbScale
 70
     0
300
1:8
140
1.0
141
8.0
290
     0
  0
SCALE
  5
2F69
102
{ACAD_REACTORS
330
2F63
102
}
330
2F63
100
AcDbScale
 70
     0
300
1:10
140
1.0
141
10.0
290
     0
  0
SCALE
  5
2F6A
102
{ACAD_REACTORS
330
2F63
102
}
330
2F63
100
AcDbScale
 70
     0
300
1:16
140
1.0
141
16.0
290
     0
  0
SCALE
  5
2F6B
102
{ACAD_REACTORS
330
2F63
102
}
330
2F63
100
AcDbScale
 70
     0
300
1:20
140
1.0
141
20.0
290
     0
  0
SCALE
  5
2F6C
102
{ACAD_REACTORS
330
2F63
102
}
330
2F63
100
AcDbScale
 70
     0
300
1:30
140
1.0
141
30.0
290
     0
  0
SCALE
  5
2F6D
102
{ACAD_REACTORS
330
2F63
102
}
330
2F63
100
AcDbScale
 70
     0
300
1:40
140
1.0
141
40.0
290
     0
  0
SCALE
  5
2F6E
102
{ACAD_REACTORS
330
2F63
102
}
330
2F63
100
AcDbScale
 70
     0
300
1:50
140
1.0
141
50.0
290
     0
  0
SCALE
  5
2F6F
102
{ACAD_REACTORS
330
2F63
102
}
330
2F63
100
AcDbScale
 70
     0
300
1:100
140
1.0
141
100.0
290
     0
  0
SCALE
  5
2F70
102
{ACAD_REACTORS
330
2F63
102
}
330
2F63
100
AcDbScale
 70
     0
300
2:1
140
2.0
141
1.0
290
     0
  0
SCALE
  5
2F71
102
{ACAD_REACTORS
330
2F63
102
}
330
2F63
100
AcDbScale
 70
     0
300
4:1
140
4.0
141
1.0
290
     0
  0
SCALE
  5
2F72
102
{ACAD_REACTORS
330
2F63
102
}
330
2F63
100
AcDbScale
 70
     0
300
8:1
140
8.0
141
1.0
290
     0
  0
SCALE
  5
2F73
102
{ACAD_REACTORS
330
2F63
102
}
330
2F63
100
AcDbScale
 70
     0
300
10:1
140
10.0
141
1.0
290
     0
  0
SCALE
  5
2F74
102
{ACAD_REACTORS
330
2F63
102
}
330
2F63
100
AcDbScale
 70
     0
300
100:1
140
100.0
141
1.0
290
     0
  0
SCALE
  5
2F75
102
{ACAD_REACTORS
330
2F63
102
}
330
2F63
100
AcDbScale
 70
     0
300
1/128" = 1'-0"
140
0.0078125
141
12.0
290
     0
  0
SCALE
  5
2F76
102
{ACAD_REACTORS
330
2F63
102
}
330
2F63
100
AcDbScale
 70
     0
300
1/64" = 1'-0"
140
0.015625
141
12.0
290
     0
  0
SCALE
  5
2F77
102
{ACAD_REACTORS
330
2F63
102
}
330
2F63
100
AcDbScale
 70
     0
300
1/32" = 1'-0"
140
0.03125
141
12.0
290
     0
  0
SCALE
  5
2F78
102
{ACAD_REACTORS
330
2F63
102
}
330
2F63
100
AcDbScale
 70
     0
300
1/16" = 1'-0"
140
0.0625
141
12.0
290
     0
  0
SCALE
  5
2F79
102
{ACAD_REACTORS
330
2F63
102
}
330
2F63
100
AcDbScale
 70
     0
300
3/32" = 1'-0"
140
0.09375
141
12.0
290
     0
  0
SCALE
  5
2F7A
102
{ACAD_REACTORS
330
2F63
102
}
330
2F63
100
AcDbScale
 70
     0
300
1/8" = 1'-0"
140
0.125
141
12.0
290
     0
  0
SCALE
  5
2F7B
102
{ACAD_REACTORS
330
2F63
102
}
330
2F63
100
AcDbScale
 70
     0
300
3/16" = 1'-0"
140
0.1875
141
12.0
290
     0
  0
SCALE
  5
2F7C
102
{ACAD_REACTORS
330
2F63
102
}
330
2F63
100
AcDbScale
 70
     0
300
1/4" = 1'-0"
140
0.25
141
12.0
290
     0
  0
SCALE
  5
2F7D
102
{ACAD_REACTORS
330
2F63
102
}
330
2F63
100
AcDbScale
 70
     0
300
3/8" = 1'-0"
140
0.375
141
12.0
290
     0
  0
SCALE
  5
2F7E
102
{ACAD_REACTORS
330
2F63
102
}
330
2F63
100
AcDbScale
 70
     0
300
1/2" = 1'-0"
140
0.5
141
12.0
290
     0
  0
SCALE
  5
2F7F
102
{ACAD_REACTORS
330
2F63
102
}
330
2F63
100
AcDbScale
 70
     0
300
3/4" = 1'-0"
140
0.75
141
12.0
290
     0
  0
SCALE
  5
2F80
102
{ACAD_REACTORS
330
2F63
102
}
330
2F63
100
AcDbScale
 70
     0
300
1" = 1'-0"
140
1.0
141
12.0
290
     0
  0
SCALE
  5
2F81
102
{ACAD_REACTORS
330
2F63
102
}
330
2F63
100
AcDbScale
 70
     0
300
1-1/2" = 1'-0"
140
1.5
141
12.0
290
     0
  0
SCALE
  5
2F82
102
{ACAD_REACTORS
330
2F63
102
}
330
2F63
100
AcDbScale
 70
     0
300
3" = 1'-0"
140
3.0
141
12.0
290
     0
  0
SCALE
  5
2F83
102
{ACAD_REACTORS
330
2F63
102
}
330
2F63
100
AcDbScale
 70
     0
300
6" = 1'-0"
140
6.0
141
12.0
290
     0
  0
SCALE
  5
2F84
102
{ACAD_REACTORS
330
2F63
102
}
330
2F63
100
AcDbScale
 70
     0
300
1'-0" = 1'-0"
140
12.0
141
12.0
290
     0
  0
ACDBSECTIONVIEWSTYLE
  5
7548
102
{ACAD_REACTORS
330
7546
102
}
330
7546
100
AcDbModelDocViewStyle
 70
     0
  3
Imperial24
290
     0
100
AcDbSectionViewStyle
 70
     0
 71
     0
 90
       78
 71
     1
340
555
 62
   256
 40
0.24
340
0
340
0
 62
   256
 40
0.24
300
I, O, Q, S, X, Z
 40
0.48
 90
        3
 40
0.18
 90
        1
 71
     2
340
7547
 90
       25
 62
   256
340
5
 90
       50
 62
   256
 40
0.24
 40
0.0
 40
0.24
 71
     3
340
555
 62
   256
 40
0.24
 90
        1
 40
0.75
 90
        1
300
%<\AcVar ViewType \f "%tc1">% %<\AcVar ViewSectionStartId>%-%<\AcVar ViewSectionEndId>%\PSCALE %<\AcVar ViewScale \f "%sn">%
 71
     4
 62
   256
 62
   257
300
ANSI31
 40
1.0
 90
        0
290
     0
290
     0
 90
        6
 40
0.0
 40
1.570796326794896
 40
0.2617993877991494
 40
1.308996938995747
 40
-0.2617993877991494
 40
1.832595714594046
  0
TABLESTYLE
  5
2F62
102
{ACAD_XDICTIONARY
360
2FC0
102
}
102
{ACAD_REACTORS
330
2F61
102
}
330
2F61
100
AcDbTableStyle
  3
Standard
 70
     0
 71
     0
 40
0.06
 41
0.06
280
     0
281
     0
  7
STANDARD
140
0.18
170
     2
 62
     0
 63
     7
283
     0
274
    -2
284
     1
 64
     0
275
    -2
285
     1
 65
     0
276
    -2
286
     1
 66
     0
277
    -2
287
     1
 67
     0
278
    -2
288
     1
 68
     0
279
    -2
289
     1
 69
     0
  7
STANDARD
140
0.25
170
     5
 62
     0
 63
     7
283
     0
274
    -2
284
     1
 64
     0
275
    -2
285
     1
 65
     0
276
    -2
286
     1
 66
     0
277
    -2
287
     1
 67
     0
278
    -2
288
     1
 68
     0
279
    -2
289
     1
 69
     0
  7
STANDARD
140
0.18
170
     5
 62
     0
 63
     7
283
     0
274
    -2
284
     1
 64
     0
275
    -2
285
     1
 65
     0
276
    -2
286
     1
 66
     0
277
    -2
287
     1
 67
     0
278
    -2
288
     1
 68
     0
279
    -2
289
     1
 69
     0
  0
VISUALSTYLE
  5
2F55
102
{ACAD_XDICTIONARY
360
79CD
102
}
102
{ACAD_REACTORS
330
2F4F
102
}
330
2F4F
100
AcDbVisualStyle
  2
2dWireframe
 70
     4
 71
     0
 72
     2
 73
     0
 90
        0
 40
-0.6
 41
-30.0
 62
     5
 63
     7
421
 16777215
 74
     1
 91
        4
 64
     7
 65
   257
 75
     1
175
     1
 42
1.0
 92
        0
 66
   257
 43
1.0
 76
     1
 77
     6
 78
     2
 67
     7
 79
     5
170
     0
171
     0
290
     0
174
     0
 93
        1
 44
0.0
173
     0
291
     0
 45
0.0
1001
ACAD
1000
AcDbSavedByObjectVersion
1070
     0
  0
VISUALSTYLE
  5
2F57
102
{ACAD_XDICTIONARY
360
79D1
102
}
102
{ACAD_REACTORS
330
2F4F
102
}
330
2F4F
100
AcDbVisualStyle
  2
3D Hidden
 70
     6
 71
     1
 72
     2
 73
     2
 90
        0
 40
-0.6
 41
-30.0
 62
     5
 63
     7
421
 16777215
 74
     2
 91
        2
 64
     7
 65
   257
 75
     2
175
     1
 42
40.0
 92
        0
 66
   257
 43
1.0
 76
     1
 77
     6
 78
     2
 67
     7
 79
     3
170
     0
171
     0
290
     0
174
     0
 93
        1
 44
0.0
173
     0
291
     0
 45
0.0
1001
ACAD
1000
AcDbSavedByObjectVersion
1070
     0
  0
VISUALSTYLE
  5
2F56
102
{ACAD_XDICTIONARY
360
79CF
102
}
102
{ACAD_REACTORS
330
2F4F
102
}
330
2F4F
100
AcDbVisualStyle
  2
3dWireframe
 70
     5
 71
     0
 72
     2
 73
     0
 90
        0
 40
-0.6
 41
-30.0
 62
     5
 63
     7
421
 16777215
 74
     1
 91
        4
 64
     7
 65
   257
 75
     1
175
     1
 42
1.0
 92
        0
 66
   257
 43
1.0
 76
     1
 77
     6
 78
     2
 67
     7
 79
     5
170
     0
171
     0
290
     0
174
     0
 93
        1
 44
0.0
173
     0
291
     0
 45
0.0
1001
ACAD
1000
AcDbSavedByObjectVersion
1070
     0
  0
VISUALSTYLE
  5
2F54
102
{ACAD_XDICTIONARY
360
79CB
102
}
102
{ACAD_REACTORS
330
2F4F
102
}
330
2F4F
100
AcDbVisualStyle
  2
Basic
 70
     7
 71
     1
 72
     0
 73
     1
 90
        0
 40
-0.6
 41
-30.0
 62
     5
 63
     7
421
 16777215
 74
     0
 91
        4
 64
     7
 65
   257
 75
     1
175
     1
 42
1.0
 92
        8
 66
     7
 43
1.0
 76
     1
 77
     6
 78
     2
 67
     7
 79
     5
170
     0
171
     0
290
     0
174
     0
 93
        1
 44
0.0
173
     0
291
     1
 45
0.0
1001
ACAD
1000
AcDbSavedByObjectVersion
1070
     0
  0
VISUALSTYLE
  5
2F5B
102
{ACAD_XDICTIONARY
360
79D9
102
}
102
{ACAD_REACTORS
330
2F4F
102
}
330
2F4F
100
AcDbVisualStyle
  2
Brighten
 70
    12
 71
     2
 72
     2
 73
     0
 90
        0
 40
-0.6
 41
-30.0
 62
     5
 63
     7
421
 16777215
 74
     1
 91
        4
 64
     7
 65
   257
 75
     1
175
     1
 42
1.0
 92
        8
 66
     7
 43
1.0
 76
     1
 77
     6
 78
     2
 67
     7
 79
     5
170
     0
171
     0
290
     0
174
     0
 93
        1
 44
50.0
173
     0
291
     1
 45
0.0
1001
ACAD
1000
AcDbSavedByObjectVersion
1070
     0
  0
VISUALSTYLE
  5
2F5F
102
{ACAD_XDICTIONARY
360
79E1
102
}
102
{ACAD_REACTORS
330
2F4F
102
}
330
2F4F
100
AcDbVisualStyle
  2
ColorChange
 70
    16
 71
     2
 72
     2
 73
     3
 90
        0
 40
-0.6
 41
-30.0
 62
     5
 63
     8
421
  8421504
 74
     1
 91
        4
 64
     7
 65
   257
 75
     1
175
     1
 42
1.0
 92
        8
 66
     8
424
  8421504
 43
1.0
 76
     1
 77
     6
 78
     2
 67
     7
 79
     5
170
     0
171
     0
290
     0
174
     0
 93
        1
 44
0.0
173
     0
291
     1
 45
0.0
1001
ACAD
1000
AcDbSavedByObjectVersion
1070
     0
  0
VISUALSTYLE
  5
2F58
102
{ACAD_XDICTIONARY
360
79D3
102
}
102
{ACAD_REACTORS
330
2F4F
102
}
330
2F4F
100
AcDbVisualStyle
  2
Conceptual
 70
     9
 71
     3
 72
     2
 73
     0
 90
        0
 40
-0.6
 41
-30.0
 62
     5
 63
     7
421
 16777215
 74
     2
 91
        2
 64
     7
 65
   257
 75
     1
175
     1
 42
40.0
 92
        8
 66
     7
 43
1.0
 76
     1
 77
     6
 78
     2
 67
     7
 79
     3
170
     0
171
     0
290
     0
174
     0
 93
        1
 44
0.0
173
     0
291
     0
 45
0.0
1001
ACAD
1000
AcDbSavedByObjectVersion
1070
     0
  0
VISUALSTYLE
  5
2F5A
102
{ACAD_XDICTIONARY
360
79D7
102
}
102
{ACAD_REACTORS
330
2F4F
102
}
330
2F4F
100
AcDbVisualStyle
  2
Dim
 70
    11
 71
     2
 72
     2
 73
     0
 90
        0
 40
-0.6
 41
-30.0
 62
     5
 63
     7
421
 16777215
 74
     1
 91
        4
 64
     7
 65
   257
 75
     1
175
     1
 42
1.0
 92
        8
 66
     7
 43
1.0
 76
     1
 77
     6
 78
     2
 67
     7
 79
     5
170
     0
171
     0
290
     0
174
     0
 93
        1
 44
-50.0
173
     0
291
     1
 45
0.0
1001
ACAD
1000
AcDbSavedByObjectVersion
1070
     0
  0
VISUALSTYLE
  5
7545
102
{ACAD_XDICTIONARY
360
79F7
102
}
102
{ACAD_REACTORS
330
2F4F
102
}
330
2F4F
100
AcDbVisualStyle
  2
EdgeColorOff
 70
    22
 71
     2
 72
     2
 73
     0
 90
        0
 40
-0.6
 41
-30.0
 62
     5
 63
     7
421
 16777215
 74
     1
 91
        4
 64
     7
 65
   257
 75
     1
175
     1
 42
1.0
 92
        8
 66
     7
 43
1.0
 76
     1
 77
     6
 78
     2
 67
     7
 79
     5
170
     0
171
     0
290
     0
174
     0
 93
        1
 44
0.0
173
     0
291
     1
 45
0.0
1001
ACAD
1000
AcDbSavedByObjectVersion
1070
     0
  0
VISUALSTYLE
  5
2F5E
102
{ACAD_XDICTIONARY
360
79DF
102
}
102
{ACAD_REACTORS
330
2F4F
102
}
330
2F4F
100
AcDbVisualStyle
  2
Facepattern
 70
    15
 71
     2
 72
     2
 73
     0
 90
        0
 40
-0.6
 41
-30.0
 62
     5
 63
     7
421
 16777215
 74
     1
 91
        4
 64
     7
 65
   257
 75
     1
175
     1
 42
1.0
 92
        8
 66
     7
 43
1.0
 76
     1
 77
     6
 78
     2
 67
     7
 79
     5
170
     0
171
     0
290
     0
174
     0
 93
        1
 44
0.0
173
     0
291
     1
 45
0.0
1001
ACAD
1000
AcDbSavedByObjectVersion
1070
     0
  0
VISUALSTYLE
  5
2F50
102
{ACAD_XDICTIONARY
360
79C3
102
}
102
{ACAD_REACTORS
330
2F4F
102
}
330
2F4F
100
AcDbVisualStyle
  2
Flat
 70
     0
 71
     2
 72
     1
 73
     1
 90
        2
 40
-0.6
 41
30.0
 62
     5
 63
     7
421
 16777215
 74
     0
 91
        4
 64
     7
 65
   257
 75
     1
175
     1
 42
1.0
 92
        8
 66
     7
 43
1.0
 76
     1
 77
     6
 78
     2
 67
     7
 79
     5
170
     0
171
     0
290
     0
174
     0
 93
       13
 44
0.0
173
     0
291
     1
 45
0.0
1001
ACAD
1000
AcDbSavedByObjectVersion
1070
     0
  0
VISUALSTYLE
  5
2F51
102
{ACAD_XDICTIONARY
360
79C5
102
}
102
{ACAD_REACTORS
330
2F4F
102
}
330
2F4F
100
AcDbVisualStyle
  2
FlatWithEdges
 70
     1
 71
     2
 72
     1
 73
     1
 90
        2
 40
-0.6
 41
30.0
 62
     5
 63
     7
421
 16777215
 74
     1
 91
        4
 64
     7
 65
   257
 75
     1
175
     1
 42
1.0
 92
        0
 66
   257
 43
1.0
 76
     1
 77
     6
 78
     2
 67
     7
 79
     5
170
     0
171
     0
290
     0
174
     0
 93
       13
 44
0.0
173
     0
291
     1
 45
0.0
1001
ACAD
1000
AcDbSavedByObjectVersion
1070
     0
  0
VISUALSTYLE
  5
2F52
102
{ACAD_XDICTIONARY
360
79C7
102
}
102
{ACAD_REACTORS
330
2F4F
102
}
330
2F4F
100
AcDbVisualStyle
  2
Gouraud
 70
     2
 71
     2
 72
     2
 73
     1
 90
        2
 40
-0.6
 41
30.0
 62
     5
 63
     7
421
 16777215
 74
     0
 91
        4
 64
     7
 65
   257
 75
     1
175
     1
 42
1.0
 92
        0
 66
     7
 43
1.0
 76
     1
 77
     6
 78
     2
 67
     7
 79
     5
170
     0
171
     0
290
     0
174
     0
 93
       13
 44
0.0
173
     0
291
     1
 45
0.0
1001
ACAD
1000
AcDbSavedByObjectVersion
1070
     0
  0
VISUALSTYLE
  5
2F53
102
{ACAD_XDICTIONARY
360
79C9
102
}
102
{ACAD_REACTORS
330
2F4F
102
}
330
2F4F
100
AcDbVisualStyle
  2
GouraudWithEdges
 70
     3
 71
     2
 72
     2
 73
     1
 90
        2
 40
-0.6
 41
30.0
 62
     5
 63
     7
421
 16777215
 74
     1
 91
        4
 64
     7
 65
   257
 75
     1
175
     1
 42
1.0
 92
        0
 66
   257
 43
1.0
 76
     1
 77
     6
 78
     2
 67
     7
 79
     5
170
     0
171
     0
290
     0
174
     0
 93
       13
 44
0.0
173
     0
291
     1
 45
0.0
1001
ACAD
1000
AcDbSavedByObjectVersion
1070
     0
  0
VISUALSTYLE
  5
753D
102
{ACAD_XDICTIONARY
360
79E7
102
}
102
{ACAD_REACTORS
330
2F4F
102
}
330
2F4F
100
AcDbVisualStyle
  2
Hidden
 70
     6
 71
     1
 72
     2
 73
     2
 90
        0
 40
-0.6
 41
-30.0
 62
     5
 63
     7
421
 16777215
 74
     2
 91
        2
 64
     7
 65
   257
 75
     2
175
     1
 42
40.0
 92
        0
 66
   257
 43
1.0
 76
     1
 77
     6
 78
     2
 67
     7
 79
     3
170
     0
171
     0
290
     0
174
     0
 93
        1
 44
0.0
173
     0
291
     0
 45
0.0
1001
ACAD
1000
AcDbSavedByObjectVersion
1070
     0
  0
VISUALSTYLE
  5
7543
102
{ACAD_XDICTIONARY
360
79F3
102
}
102
{ACAD_REACTORS
330
2F4F
102
}
330
2F4F
100
AcDbVisualStyle
  2
JitterOff
 70
    20
 71
     2
 72
     2
 73
     0
 90
        0
 40
-0.6
 41
-30.0
 62
     5
 63
     7
421
 16777215
 74
     1
 91
        4
 64
     7
 65
   257
 75
     1
175
     1
 42
1.0
 92
       10
 66
     7
 43
1.0
 76
     1
 77
     6
 78
     2
 67
     7
 79
     5
170
     0
171
     0
290
     0
174
     0
 93
        1
 44
0.0
173
     0
291
     1
 45
0.0
1001
ACAD
1000
AcDbSavedByObjectVersion
1070
     0
  0
VISUALSTYLE
  5
2F5D
102
{ACAD_XDICTIONARY
360
79DD
102
}
102
{ACAD_REACTORS
330
2F4F
102
}
330
2F4F
100
AcDbVisualStyle
  2
Linepattern
 70
    14
 71
     2
 72
     2
 73
     0
 90
        0
 40
-0.6
 41
-30.0
 62
     5
 63
     7
421
 16777215
 74
     1
 91
        4
 64
     7
 65
   257
 75
     7
175
     7
 42
1.0
 92
        8
 66
     7
 43
1.0
 76
     1
 77
     6
 78
     2
 67
     7
 79
     5
170
     0
171
     0
290
     0
174
     0
 93
        1
 44
0.0
173
     0
291
     1
 45
0.0
1001
ACAD
1000
AcDbSavedByObjectVersion
1070
     0
  0
VISUALSTYLE
  5
7544
102
{ACAD_XDICTIONARY
360
79F5
102
}
102
{ACAD_REACTORS
330
2F4F
102
}
330
2F4F
100
AcDbVisualStyle
  2
OverhangOff
 70
    21
 71
     2
 72
     2
 73
     0
 90
        0
 40
-0.6
 41
-30.0
 62
     5
 63
     7
421
 16777215
 74
     1
 91
        4
 64
     7
 65
   257
 75
     1
175
     1
 42
1.0
 92
        9
 66
     7
 43
1.0
 76
     1
 77
     6
 78
     2
 67
     7
 79
     5
170
     0
171
     0
290
     0
174
     0
 93
        1
 44
0.0
173
     0
291
     1
 45
0.0
1001
ACAD
1000
AcDbSavedByObjectVersion
1070
     0
  0
VISUALSTYLE
  5
2F59
102
{ACAD_XDICTIONARY
360
79D5
102
}
102
{ACAD_REACTORS
330
2F4F
102
}
330
2F4F
100
AcDbVisualStyle
  2
Realistic
 70
     8
 71
     2
 72
     2
 73
     0
 90
        0
 40
-0.6
 41
-30.0
 62
     5
 63
     7
421
 16777215
 74
     1
 91
        0
 64
     7
 65
   257
 75
     1
175
     1
 42
1.0
 92
        8
 66
     8
424
  7895160
 43
1.0
 76
     1
 77
     6
 78
     2
 67
     7
 79
     5
170
     0
171
     0
290
     0
174
     0
 93
       13
 44
0.0
173
     0
291
     0
 45
0.0
1001
ACAD
1000
AcDbSavedByObjectVersion
1070
     0
  0
VISUALSTYLE
  5
7542
102
{ACAD_XDICTIONARY
360
79F1
102
}
102
{ACAD_REACTORS
330
2F4F
102
}
330
2F4F
100
AcDbVisualStyle
  2
Shaded
 70
    27
 71
     2
 72
     2
 73
     1
 90
        2
 40
-0.6
 41
30.0
 62
     5
 63
     7
421
 16777215
 74
     0
 91
        4
 64
     7
 65
   257
 75
     1
175
     1
 42
1.0
 92
        8
 66
   257
 43
1.0
 76
     1
 77
     6
 78
     2
 67
     8
425
  7895160
 79
     3
170
     0
171
     0
290
     0
174
     0
 93
        5
 44
0.0
173
     0
291
     0
 45
0.0
1001
ACAD
1000
AcDbSavedByObjectVersion
1070
     0
  0
VISUALSTYLE
  5
7541
102
{ACAD_XDICTIONARY
360
79EF
102
}
102
{ACAD_REACTORS
330
2F4F
102
}
330
2F4F
100
AcDbVisualStyle
  2
Shaded with edges
 70
    26
 71
     2
 72
     2
 73
     1
 90
        2
 40
-0.6
 41
30.0
 62
     5
 63
     7
421
 16777215
 74
     1
 91
       10
 64
     7
 65
   257
 75
     2
175
     1
 42
1.0
 92
        8
 66
   257
 43
1.0
 76
     1
 77
     6
 78
     2
 67
     7
 79
     3
170
     0
171
     0
290
     0
174
     0
 93
        5
 44
0.0
173
     0
291
     0
 45
0.0
1001
ACAD
1000
AcDbSavedByObjectVersion
1070
     0
  0
VISUALSTYLE
  5
753E
102
{ACAD_XDICTIONARY
360
79E9
102
}
102
{ACAD_REACTORS
330
2F4F
102
}
330
2F4F
100
AcDbVisualStyle
  2
Shades of Gray
 70
    23
 71
     2
 72
     2
 73
     3
 90
        0
 40
-0.6
 41
-30.0
 62
     5
 63
     7
421
 16777215
 74
     2
 91
        2
 64
     7
 65
     7
 75
     1
175
     1
 42
40.0
 92
        8
 66
     7
 43
1.0
 76
     1
 77
     6
 78
     2
 67
     7
 79
     3
170
     0
171
     0
290
     0
174
     0
 93
        1
 44
0.0
173
     0
291
     0
 45
0.0
1001
ACAD
1000
AcDbSavedByObjectVersion
1070
     0
  0
VISUALSTYLE
  5
753F
102
{ACAD_XDICTIONARY
360
79EB
102
}
102
{ACAD_REACTORS
330
2F4F
102
}
330
2F4F
100
AcDbVisualStyle
  2
Sketchy
 70
    24
 71
     1
 72
     2
 73
     2
 90
        0
 40
-0.6
 41
-30.0
 62
     5
 63
     7
421
 16777215
 74
     2
 91
        2
 64
     7
 65
     7
 75
     1
175
     1
 42
40.0
 92
       11
 66
     7
 43
1.0
 76
     1
 77
     6
 78
     2
 67
     7
 79
     6
170
     0
171
     0
290
     0
174
     0
 93
        1
 44
0.0
173
     0
291
     0
 45
0.0
1001
ACAD
1000
AcDbSavedByObjectVersion
1070
     0
  0
VISUALSTYLE
  5
2F5C
102
{ACAD_XDICTIONARY
360
79DB
102
}
102
{ACAD_REACTORS
330
2F4F
102
}
330
2F4F
100
AcDbVisualStyle
  2
Thicken
 70
    13
 71
     2
 72
     2
 73
     0
 90
        0
 40
-0.6
 41
-30.0
 62
     5
 63
     7
421
 16777215
 74
     1
 91
        4
 64
     7
 65
   257
 75
     1
175
     1
 42
1.0
 92
       12
 66
     7
 43
1.0
 76
     1
 77
     6
 78
     2
 67
     7
 79
     5
170
     0
171
     0
290
     0
174
     0
 93
        1
 44
0.0
173
     0
291
     1
 45
0.0
1001
ACAD
1000
AcDbSavedByObjectVersion
1070
     0
  0
VISUALSTYLE
  5
753C
102
{ACAD_XDICTIONARY
360
79E5
102
}
102
{ACAD_REACTORS
330
2F4F
102
}
330
2F4F
100
AcDbVisualStyle
  2
Wireframe
 70
     5
 71
     0
 72
     2
 73
     0
 90
        0
 40
-0.6
 41
-30.0
 62
     5
 63
     7
421
 16777215
 74
     1
 91
        4
 64
     7
 65
   257
 75
     1
175
     1
 42
1.0
 92
        0
 66
   257
 43
1.0
 76
     1
 77
     6
 78
     2
 67
     7
 79
     3
170
     0
171
     0
290
     0
174
     0
 93
        1
 44
0.0
173
     0
291
     0
 45
0.0
1001
ACAD
1000
AcDbSavedByObjectVersion
1070
     0
  0
VISUALSTYLE
  5
7540
102
{ACAD_XDICTIONARY
360
79ED
102
}
102
{ACAD_REACTORS
330
2F4F
102
}
330
2F4F
100
AcDbVisualStyle
  2
X-Ray
 70
    25
 71
     2
 72
     2
 73
     1
 90
        1
 40
0.5
 41
-30.0
 62
     5
 63
     7
421
 16777215
 74
     1
 91
        0
 64
     7
 65
   257
 75
     1
175
     1
 42
1.0
 92
        8
 66
     7
 43
1.0
 76
     1
 77
     6
 78
     2
 67
     7
 79
     3
170
     0
171
     0
290
     0
174
     0
 93
       13
 44
0.0
173
     0
291
     0
 45
0.0
1001
ACAD
1000
AcDbSavedByObjectVersion
1070
     0
  0
DICTIONARYVAR
  5
2FD3
102
{ACAD_REACTORS
330
599
102
}
330
599
100
DictionaryVariables
280
     0
  1
1:1
  0
DICTIONARYVAR
  5
2FD2
102
{ACAD_REACTORS
330
599
102
}
330
599
100
DictionaryVariables
280
     0
  1
STANDARD
  0
DICTIONARYVAR
  5
2FD1
102
{ACAD_REACTORS
330
599
102
}
330
599
100
DictionaryVariables
280
     0
  1
STANDARD
  0
DICTIONARYVAR
  5
7624
102
{ACAD_REACTORS
330
599
102
}
330
599
100
DictionaryVariables
280
     0
  1
Imperial24
  0
DICTIONARYVAR
  5
7625
102
{ACAD_REACTORS
330
599
102
}
330
599
100
DictionaryVariables
280
     0
  1
Imperial24
  0
DICTIONARYVAR
  5
59A
102
{ACAD_REACTORS
330
599
102
}
330
599
100
DictionaryVariables
280
     0
  1
2
  0
DICTIONARY
  5
79BF
102
{ACAD_REACTORS
330
79BD
102
}
330
79BD
100
AcDbDictionary
281
     1
  0
DICTIONARY
  5
79BE
102
{ACAD_REACTORS
330
79BD
102
}
330
79BD
100
AcDbDictionary
281
     1
  3
140700117167360
350
79B8
  3
140700117167376
350
79B9
  3
140700117167392
350
79BA
  3
140700117167408
350
79BB
  3
140700117167424
350
79BC
  0
XRECORD
  5
598
102
{ACAD_REACTORS
330
596
102
}
330
596
100
AcDbXrecord
280
     1
330
0
330
0
330
0
  0
XRECORD
  5
2C67
102
{ACAD_REACTORS
330
2C66
102
}
330
2C66
100
AcDbXrecord
280
     1
  1
DIMENSION
  1
*DIM*
  1
*
  1
*
 70
     0
  1
*
  1
*
  0
XRECORD
  5
2C68
102
{ACAD_REACTORS
330
2C66
102
}
330
2C66
100
AcDbXrecord
280
     1
  1
HB_X
  1
HB_X*
  1
*
  1
*
 70
     0
  1
*
  1
*
  0
XRECORD
  5
35F7
102
{ACAD_XDICTIONARY
360
35F8
102
}
102
{ACAD_REACTORS
330
2FE7
102
}
330
2FE7
100
AcDbXrecord
280
     1
 91
     1023
301

290
     0
302
3
330
0
 90
        8
 62
     2
370
    -3
331
5
  1
Color_2
330
30A7
 90
        8
 62
     7
370
    -3
331
5
  1
Color_7
330
2FF8
 90
        8
 62
     7
370
    80
331
5
  1
Color_7
330
2FF6
 90
        8
 62
     2
370
    -3
331
5
  1
Color_2
330
2FEE
 90
        8
 62
     7
370
    -3
331
5
  1
Color_7
330
0
 90
        8
 62
     3
370
    -3
331
5
  1
Color_3
330
0
 90
        8
 62
     8
370
    -3
331
5
  1
Color_8
330
0
 90
        8
 62
     7
370
    -3
331
5
  1
Color_7
330
4
 90
        8
 62
     7
370
    -3
331
5
  1
Color_7
330
12
 90
        8
 62
     1
370
    -3
331
5
  1
Color_1
330
2F
 90
        0
 62
   210
370
    -3
331
5
  1
Color_210
330
24
 90
        8
 62
     7
370
    -3
331
5
  1
Color_7
  0
DICTIONARY
  5
2FEB
330
58F
100
AcDbDictionary
280
     1
281
     1
  3
ADSK_XREC_LAYOUTTHUMBNAIL
360
2FEC
  0
DICTIONARY
  5
2F40
330
2F3F
100
AcDbDictionary
280
     1
281
     1
  3
ACAD_XREC_ROUNDTRIP
360
79C1
  3
BUMPTILE
360
2F42
  3
DIFFUSETILE
360
2F41
  3
OPACITYTILE
360
2F45
  3
REFLECTIONTILE
360
2F44
  3
REFRACTIONTILE
360
2F46
  3
SPECULARTILE
360
2F43
  0
DICTIONARY
  5
2F38
330
2F37
100
AcDbDictionary
280
     1
281
     1
  3
ACAD_XREC_ROUNDTRIP
360
79C0
  3
BUMPTILE
360
2F3A
  3
DIFFUSETILE
360
2F39
  3
OPACITYTILE
360
2F3D
  3
REFLECTIONTILE
360
2F3C
  3
REFRACTIONTILE
360
2F3E
  3
SPECULARTILE
360
2F3B
  0
DICTIONARY
  5
2F48
330
2F47
100
AcDbDictionary
280
     1
281
     1
  3
ACAD_XREC_ROUNDTRIP
360
79C2
  3
BUMPTILE
360
2F4A
  3
DIFFUSETILE
360
2F49
  3
OPACITYTILE
360
2F4D
  3
REFLECTIONTILE
360
2F4C
  3
REFRACTIONTILE
360
2F4E
  3
SPECULARTILE
360
2F4B
  0
DICTIONARY
  5
2FC0
330
2F62
100
AcDbDictionary
280
     1
281
     1
  3
ACAD_ROUNDTRIP_2008_TABLESTYLE_CELLSTYLEMAP
360
79AF
  3
ACAD_XREC_ROUNDTRIP
360
79E3
  0
DICTIONARY
  5
79CD
330
2F55
100
AcDbDictionary
280
     1
281
     1
  3
ACAD_XREC_ROUNDTRIP
360
79CE
  0
DICTIONARY
  5
79D1
330
2F57
100
AcDbDictionary
280
     1
281
     1
  3
ACAD_XREC_ROUNDTRIP
360
79D2
  0
DICTIONARY
  5
79CF
330
2F56
100
AcDbDictionary
280
     1
281
     1
  3
ACAD_XREC_ROUNDTRIP
360
79D0
  0
DICTIONARY
  5
79CB
330
2F54
100
AcDbDictionary
280
     1
281
     1
  3
ACAD_XREC_ROUNDTRIP
360
79CC
  0
DICTIONARY
  5
79D9
330
2F5B
100
AcDbDictionary
280
     1
281
     1
  3
ACAD_XREC_ROUNDTRIP
360
79DA
  0
DICTIONARY
  5
79E1
330
2F5F
100
AcDbDictionary
280
     1
281
     1
  3
ACAD_XREC_ROUNDTRIP
360
79E2
  0
DICTIONARY
  5
79D3
330
2F58
100
AcDbDictionary
280
     1
281
     1
  3
ACAD_XREC_ROUNDTRIP
360
79D4
  0
DICTIONARY
  5
79D7
330
2F5A
100
AcDbDictionary
280
     1
281
     1
  3
ACAD_XREC_ROUNDTRIP
360
79D8
  0
DICTIONARY
  5
79F7
330
7545
100
AcDbDictionary
280
     1
281
     1
  3
ACAD_XREC_ROUNDTRIP
360
79F8
  0
DICTIONARY
  5
79DF
330
2F5E
100
AcDbDictionary
280
     1
281
     1
  3
ACAD_XREC_ROUNDTRIP
360
79E0
  0
DICTIONARY
  5
79C3
330
2F50
100
AcDbDictionary
280
     1
281
     1
  3
ACAD_XREC_ROUNDTRIP
360
79C4
  0
DICTIONARY
  5
79C5
330
2F51
100
AcDbDictionary
280
     1
281
     1
  3
ACAD_XREC_ROUNDTRIP
360
79C6
  0
DICTIONARY
  5
79C7
330
2F52
100
AcDbDictionary
280
     1
281
     1
  3
ACAD_XREC_ROUNDTRIP
360
79C8
  0
DICTIONARY
  5
79C9
330
2F53
100
AcDbDictionary
280
     1
281
     1
  3
ACAD_XREC_ROUNDTRIP
360
79CA
  0
DICTIONARY
  5
79E7
330
753D
100
AcDbDictionary
280
     1
281
     1
  3
ACAD_XREC_ROUNDTRIP
360
79E8
  0
DICTIONARY
  5
79F3
330
7543
100
AcDbDictionary
280
     1
281
     1
  3
ACAD_XREC_ROUNDTRIP
360
79F4
  0
DICTIONARY
  5
79DD
330
2F5D
100
AcDbDictionary
280
     1
281
     1
  3
ACAD_XREC_ROUNDTRIP
360
79DE
  0
DICTIONARY
  5
79F5
330
7544
100
AcDbDictionary
280
     1
281
     1
  3
ACAD_XREC_ROUNDTRIP
360
79F6
  0
DICTIONARY
  5
79D5
330
2F59
100
AcDbDictionary
280
     1
281
     1
  3
ACAD_XREC_ROUNDTRIP
360
79D6
  0
DICTIONARY
  5
79F1
330
7542
100
AcDbDictionary
280
     1
281
     1
  3
ACAD_XREC_ROUNDTRIP
360
79F2
  0
DICTIONARY
  5
79EF
330
7541
100
AcDbDictionary
280
     1
281
     1
  3
ACAD_XREC_ROUNDTRIP
360
79F0
  0
DICTIONARY
  5
79E9
330
753E
100
AcDbDictionary
280
     1
281
     1
  3
ACAD_XREC_ROUNDTRIP
360
79EA
  0
DICTIONARY
  5
79EB
330
753F
100
AcDbDictionary
280
     1
281
     1
  3
ACAD_XREC_ROUNDTRIP
360
79EC
  0
DICTIONARY
  5
79DB
330
2F5C
100
AcDbDictionary
280
     1
281
     1
  3
ACAD_XREC_ROUNDTRIP
360
79DC
  0
DICTIONARY
  5
79E5
330
753C
100
AcDbDictionary
280
     1
281
     1
  3
ACAD_XREC_ROUNDTRIP
360
79E6
  0
DICTIONARY
  5
79ED
330
7540
100
AcDbDictionary
280
     1
281
     1
  3
ACAD_XREC_ROUNDTRIP
360
79EE
  0
XRECORD
  5
79B8
102
{ACAD_REACTORS
330
79BE
102
}
330
79BE
100
AcDbXrecord
280
     1
  1
AcDb_Thumbnail_Schema
102
{ATTRRECORD
341
79B9
  2
AcDbDs::TreatedAsObjectData
280
     1
291
     1
102
ATTRRECORD}
102
{ATTRRECORD
341
79BA
  2
AcDbDs::Legacy
280
     1
291
     1
102
ATTRRECORD}
  2
AcDbDs::ID
280
    10
 91
        8
102
{ATTRRECORD
341
79BB
  2
AcDs:Indexable
280
     1
291
     1
102
ATTRRECORD}
102
{ATTRRECORD
341
79BC
  2
AcDbDs::HandleAttribute
280
     7
282
     1
102
ATTRRECORD}
  2
Thumbnail_Data
280
    15
 91
        0
  0
XRECORD
  5
79B9
102
{ACAD_REACTORS
330
79BE
102
}
330
79BE
100
AcDbXrecord
280
     1
  1
AcDbDs::TreatedAsObjectDataSchema
  2
AcDbDs::TreatedAsObjectData
280
     1
 91
        0
  0
XRECORD
  5
79BA
102
{ACAD_REACTORS
330
79BE
102
}
330
79BE
100
AcDbXrecord
280
     1
  1
AcDbDs::LegacySchema
  2
AcDbDs::Legacy
280
     1
 91
        0
  0
XRECORD
  5
79BB
102
{ACAD_REACTORS
330
79BE
102
}
330
79BE
100
AcDbXrecord
280
     1
  1
AcDbDs::IndexedPropertySchema
  2
AcDs:Indexable
280
     1
 91
        0
  0
XRECORD
  5
79BC
102
{ACAD_REACTORS
330
79BE
102
}
330
79BE
100
AcDbXrecord
280
     1
  1
AcDbDs::HandleAttributeSchema
  2
AcDbDs::HandleAttribute
280
     7
 91
        1
284
     1
  0
DICTIONARY
  5
35F8
330
35F7
100
AcDbDictionary
280
     1
281
     1
  3
AcadLayerStateAnnoScale
360
35F9
  0
XRECORD
  5
2FEC
102
{ACAD_REACTORS
330
2FEB
102
}
330
2FEB
100
AcDbXrecord
280
     1
310
28000000680000008C0000000100080000000000E0380000010000000100000000010000000000004C00390000000000C8C8C8FF000000FF000000FF000000FF000000FF000000FF000000FF000000FF000000FF330000FF660000FF990000FFCC0000FFFF0000FF003300FF333300FF663300FF993300FFCC3300FFFF3300
310
FF006600FF336600FF666600FF996600FFCC6600FFFF6600FF009900FF339900FF669900FF999900FFCC9900FFFF9900FF00CC00FF33CC00FF66CC00FF99CC00FFCCCC00FFFFCC00FF00FF00FF33FF00FF66FF00FF99FF00FFCCFF00FFFFFF00FF000033FF330033FF660033FF990033FFCC0033FFFF0033FF003333FF3333
310
33FF663333FF993333FFCC3333FFFF3333FF006633FF336633FF666633FF996633FFCC6633FFFF6633FF009933FF339933FF669933FF999933FFCC9933FFFF9933FF00CC33FF33CC33FF66CC33FF99CC33FFCCCC33FFFFCC33FF00FF33FF33FF33FF66FF33FF99FF33FFCCFF33FFFFFF33FF000066FF330066FF660066FF99
310
0066FFCC0066FFFF0066FF003366FF333366FF663366FF993366FFCC3366FFFF3366FF006666FF336666FF666666FF996666FFCC6666FFFF6666FF009966FF339966FF669966FF999966FFCC9966FFFF9966FF00CC66FF33CC66FF66CC66FF99CC66FFCCCC66FFFFCC66FF00FF66FF33FF66FF66FF66FF99FF66FFCCFF66FF
310
FFFF66FF000099FF330099FF660099FF990099FFCC0099FFFF0099FF003399FF333399FF663399FF993399FFCC3399FFFF3399FF006699FF336699FF666699FF996699FFCC6699FFFF6699FF009999FF339999FF669999FF999999FFCC9999FFFF9999FF00CC99FF33CC99FF66CC99FF99CC99FFCCCC99FFFFCC99FF00FF99
310
FF33FF99FF66FF99FF99FF99FFCCFF99FFFFFF99FF0000CCFF3300CCFF6600CCFF9900CCFFCC00CCFFFF00CCFF0033CCFF3333CCFF6633CCFF9933CCFFCC33CCFFFF33CCFF0066CCFF3366CCFF6666CCFF9966CCFFCC66CCFFFF66CCFF0099CCFF3399CCFF6699CCFF9999CCFFCC99CCFFFF99CCFF00CCCCFF33CCCCFF66CC
310
CCFF99CCCCFFCCCCCCFFFFCCCCFF00FFCCFF33FFCCFF66FFCCFF99FFCCFFCCFFCCFFFFFFCCFF0000FFFF3300FFFF6600FFFF9900FFFFCC00FFFFFF00FFFF0033FFFF3333FFFF6633FFFF9933FFFFCC33FFFFFF33FFFF0066FFFF3366FFFF6666FFFF9966FFFFCC66FFFFFF66FFFF0099FFFF3399FFFF6699FFFF9999FFFFCC
310
99FFFFFF99FFFF00CCFFFF33CCFFFF66CCFFFF99CCFFFFCCCCFFFFFFCCFFFF00FFFFFF33FFFFFF66FFFFFF99FFFFFFCCFFFFFFFFFFFFFF000000FF0D0D0DFF1A1A1AFF282828FF353535FF434343FF505050FF5D5D5DFF6B6B6BFF787878FF868686FF939393FFA1A1A1FFAEAEAEFFBBBBBBFFC9C9C9FFD6D6D6FFE4E4E4FF
310
F1F1F1FFFFFFFFFF000000FF000000FF000000FF000000FF000000FF000000FF000000FF000000FF000000FF000000FF00000000000000000000000000000000000000000000000000000000000000000000000000000000000000000000000000000000000000000000000000000000000000000000000000000000000000
310
00000000000000000000000000000000000000000000000000000000000000000000000000000000000000000000000000000000000000000000000000000000000000000000000000000000000000000000000000000000000000000000000000000000000000000000000000000000000000000000000000000000000000
310
00000000000000000000000000000000000000000000000000000000000000000000000000000000000000000000000000000000000000000000000000000000000000000000000000000000000000000000000000000000000000000000000000000000000000000000000000000000000000000000000000000000000000
310
00000000000000000000000000000000000000000000000000000000000000000000000000000000000000000000000000000000000000000000000000000000000000000000000000000000000000000000000000000000000000000000000000000000000000000000000000000000000000000000000000000000000000
310
000000000000000000000000000000000000000000000000000000000000000000000000000000000000000000000000000000000000000000000000000000000000F5F5F5F5F5F5F5F5F5F5F5F5F5F5F5F5F5F5F5F5F5F5F5F5F5F5F5F5F5F5F5F5F5F5F5F5F5F5F5F5F5F5F5F5F5F5F5F5F5F5F5F5F5F5F5F5F5F5F5F5F5
310
F5F5F5F5F5F5F5F5F5F5F5F5F5F5F5F5F5F5F5F5F5F5F5F5F5F5F5F5F5F500000000000000000000000000F5F5F5F5F5F5F5F5F5F5F5F5F5F5F5F5F5F5F5F5F5F5F5F5F5F5F5F5F5F5F5F5F5F5F5F5F5F5F5F5F5F5F5F5F5F5F5F5F5F5F5F5F5F5F5F5F5F5F5F5F5F5F5F5F5F5F5F5F5F5F5F5F5F5F5F5F5F5F5F5F5F5F5F5
310
F5F5F5F5F5F5F500000000000000000000000000F5F500000000000000000000000000000000000000000000F5F50000F5F5F5F5F5F5F5F5F5F5F5F5F5F5F5F5F5F5F5F5F5F5F5F5F5F5F5F5F5F5F5F5F5F5F5F5F5F5F5F5F5F5F5F5F5F5F5F5F5F5F5F5F5F5F5000000000000F5F500000000000000000000000000F5F500
310
000000000000000000000000000000000000000000F5F5F5F5F5F5F5F5F5F5F5F5F5F5F5F5F5F5F5F5F5F5F5F5F5F5F5F5F5F5F5F5F5F5F5F5F5F5F5F5F5F5F5F5F5F5F5F5F5F5F5F5F5F5F5F5F5F5F5F5F5F5F5F5F5F5F500000000000000000000000000F5F500000000000000000000000000000000000000000000F5F5
310
F5F5F5F5F5F5F5F5F5F5F5F5F5F5F5F5F5F5F5F5F5F5F5F5F5F5F5F5F5F5F5F5F5F5F5F5F5F5F5F5F5F5F5F5F5F5F5F5F5F5F5F5F5F5F5F5F5F5F5F5F5F5F5F5F500000000000000000000000000F5F500000000000000000000000000000000000000000000F5F5F5F5F50000F5F5F5F5F5F5F5F5F5F5F50000000000F5F5
310
F5F5F5F50000F5F500000000000000000000F5F5F5F5F5F5F5F500F5F5F5F5F5F500000000000000F5F500000000000000000000000000F5F500000000000000000000000000000000000000000000F5F5000000000000000000000000000000000000000000F5F5000000000000000000000000000000000000F5F5000000
310
00000000F5F5F5F5F5F500000000000000F5F500000000000000000000000000F5F500000000000000000000000000000000000000000000F5F5F5F5F5F5F5F5F5F5F5F5F5F5F5F5F5F5F5F5F5F5F5F5F5F5F5F5F5F5F5F5F5F5F5F5F5F5F5F5F5F5F5F5F5F5F5F5F5F5F5F5F5F5F5F5F5F5F5F5F5F5F5F5F5F5F500000000
310
000000000000000000F5F500000000000000000000000000000000000000000000F5F5F5F5F5F5F5F5F5F5F5F5F5F5F5F5F5F5F5F5F5F5F5F5F5F5F5F5F5F5F5F5F5F5F5F5F5F5F5F5F5F5F5F5F5F5F5F5F5F5F5F5F5F5F5F5F5F5F5F5F5F5F5F5F5F5F500000000000000000000000000F5F5F5F5F5F5F5F5F5F5F5F5F5F5
310
F5F5F5F5F5F5F5F5F5F5F5F500000000000000000000000000000000000000F5F5F5F5F5F5F5F5F5F5F5F5F5F5F5F5F5000000000000000000000000000000000000000000000000000000F5F500000000000000000000000000F5F5F5F5F5F5F5F5F5F5F5F5F5F5F5F5F5F5F5F5F5F5F5F5F5F50000000000000000000000
310
0000000000000000F5F5F5F5F5F5F5F5F5F5F5F5F5F5F5F5F5000000000000000000000000000000000000000000000000000000F5F500000000000000000000000000F5F5E1E1F4C5E1F4C5E1F4E1E1E1F4C59AE19BC4E1E1A1E1F5F5F5F5F5000000000000000000F5F5F5F5F5F5F5F5F5F5F5F5F5F5F5F5F5F5F5F5F5F5
310
F5F5F5F5F5F5F5F5F5F5F5F5F5F5F5F5F5F5F5F5F5F500000000000000F5F500000000000000000000000000F5F5C5F4E1F4F4E1E19BE1C4F49AC5F4BFF4A0E1BFF4E1BEF5F5F5F5F5000000000000000000F5F5F5F5F5F5F5F5F5F5F5F5F5F5F5F5F5F5F5F5F5F5F5F5F5F5F5F5F5F5F5F5F5F5F5F5F5F5F5F5F5F5F5F500
310
000000000000F5F500000000000000000000000000F5F5E1E1A0C5BFA0C5BEC59BC4C5BFA0C5BEC59BC4C59BC4F5F5000000000000000000000000F5F5F5F5F5F5F5F5F5F5F5F5F5F5F5F5F5F5F5F5F5F5F5F5F5F5F5F5F5F5F5F5F5F5F5F5F5F5F5F5F5F5F5F500000000000000F5F500000000000000000000000000F5F5
310
F5F5F5F5F5F5F5F5F5F5F5F5F5F5F5F5F5F5F5F5F5F5F5F5F5F5F5F5F5F5F5F5F5F5F5F5F5F5F5F5F5F5F5F5F5F5F5F5F5F5F5F5F5F5F5F5F5F5F5F5F5F5F5F5F5F5F5F5F5F5F5F5F5F5F5F5F5F5F5F5F5F5F5F5F5F5F5F5F500000000000000000000000000F5F5F5F5F5F5F5F5F5F5F5F5F5F5F5F5F5F5F5F5F5F5F5F5F5
310
F5F5F5F5F5F5F5F5F5F5F5F5F5F5F5F5F5F5F5F5F5F5F5F5F5F5F5F5F5F5F5F5F5F5F5F5F5F5F5F5F5F5F5F5F5F5F5F5F5F5F5F5F5F5F5F5F5F5F5F5F5F5F5F5F5F500000000000000000000000000F5F500000000000000000000000000000000000000000000000000000000000000000000000000000000000000000000
310
0000000000000000000000000000000000000000000000000000000000000000000000000000000000F5F500000000000000000000000000F5F5000000000000000000000000000000000000000000000000000000000000000000000000000000000000000000000000000000000000000000000000000000000000000000
310
000000000000000000000000000000000000F5F500000000000000000000000000F5F5000000000000000000000000000000000000000000000000000000000000000000000000000000000000000000000000000000000000000000000000000000000000000000000000000000000000000000000000000000F5F5000000
310
00000000000000000000F5F5000000000000000000000000000000000000000000000000000000000000000000000000000000000000000000000000000000000000000000000000000000000000000000000000000000000000000000000000000000F5F500000000000000000000000000F5F50000000000000000000000
310
00000000000000000000000000000000000000000000000000000000000000000000000000000000000000000000000000000000000000000000000000000000000000000000000000000000F5F500000000000000000000000000F5F5C3C3C3C3C3C3C3C3C3C3C3C3C3C3C3C3C3C3C3C3C3C3C3C3C3C3C3C3C3C3C3C3C3C3
310
C3C3C3C3C3C3C3C3C3C3C3C3C3C3C3C3C3C3C3C3C3C3C3C3C3C3C3C3C3C3C3C3C3C3C3C3C3C3C3C3C3C3C3C3C3C3C3C3C3C3C3C3C3F5F500000000000000000000000000F5F5000000000000000000000000000000000000000000000000000000000000000000000000000000000000000000000000000000000000000000
310
0000000000000000000000000000000000000000000000000000000000C3F5F500000000000000000000000000F5F50000000000000000000000000000000000000000000000000000000000000000000000000000000000000000000000000000000000000000000000000000000000000000000000000000000000000000
310
000000000000C3F5F500000000000000000000000000F5F50000000000000000000000000000000000000000000000000000000000000000000000000000000000000000000000000000000000000000000000000000000000000000000000000000000000000000000000000000C3F5F500000000000000000000000000F5
310
F50000000000000000000000000000000000000000000000000000000000000000000000000000000000000000000000000000000000000000000000000000000000000000000000000000000000000000000000000000C3F5F500000000000000000000000000F5F500000000000000000000000000000000000000000000
310
00000000000000000000000000000000000000000000000000000000000000000000000000000000000000000000000000000000000000000000000000000000C3F5F500000000000000000000000000F5F5000000000000000000000000000000000000000000000000000000000000000000000000000000000000000000
310
0000000000000000000000000000000000000000000000000000000000000000000000000000000000C3F5F500000000000000000000000000F5F50000000000000000000000000000000000000000000000000000000000000000000000000000000000000000000000000000000000000000000000000000000000000000
310
000000000000000000000000000000000000C3F5F500000000000000000000000000F5F50000000000000000000000000000000000000000000000000000000000000000000000000000000000000000000000000000000000000000000000000000000000000000000000000000000000000000000000000000C3F5F50000
310
0000000000000000000000F5F50000000000000000000000000000000000000000000000000000000000000000000000000000000000000000000000000000000000000000000000000000000000000000000000000000000000000000000000000000C3F5F500000000000000000000000000F5F500000000000000000000
310
00000000000000000000000000000000000000000000000000000000000000000000000000000000000000000000000000000000000000000000000000000000000000000000000000000000C3F5F500000000000000000000000000F5F5000000000000000000000000000000000000000000000000000000000000000000
310
0000000000000000000000000000000000000000000000000000000000000000000000000000000000000000000000000000000000C3F5F500000000000000000000000000F5F50000000000000000000000000000000000000000000000000000000000000000000000000000000000000000000000000000000000000000
310
000000000000000000000000000000000000000000000000000000000000C3F5F500000000000000000000000000F5F500000000000000000000000000000000000000000000000000000000000000000000000000000000000000000000000000000000000000000000000000000000000000000000000000000000000000
310
00000000000000C3F5F500000000000000000000000000F5F50000000000000000000000000000000000000000000000000000000000000000000000000000000000000000000000000000000000000000000000000000000000000000000000000000000000000000000000000000C3F5F500000000000000000000000000
310
F5F50000000000000000000000000000000000000000000000000000000000000000000000000000000000000000000000000000000000000000000000000000000000000000000000000000000000000000000000000000C3F5F500000000000000000000000000F5F5000000000000000000000000000000000000000000
310
0000000000000000000000000000000000000000000000000000C3C3C3C3C300000000000000000000000000000000000000000000000000000000000000000000C3F5F500000000000000000000000000F5F50000000000000000000000000000000000000000000000000000000000000000000000000000000000000000
310
C3C3C3C3ECECECC3C3C3C300000000000000000000000000000000000000000000000000000000000000C3F5F500000000000000000000000000F5F5000000000000000000000000000000000000000000000000C3C3C3C3C3C3000000000000000000000000C3C3C300EC00ECECECECEC00C3C30000000000000000000000
310
00000000000000000000000000000000000000C3F5F500000000000000000000000000F5F5000000000000000000000000000000000000000000C3C3C3C3ECECECECC3C3C3C3C3000000000000C3C3C3ECECEC00ECECECEC00ECECECECC3C300000000000000000000000000000000000000000000000000000000C3F5F500
310
000000000000000000000000F5F500000000000000000000000000000000000000C3C3C3ECECECEC00ECECECECECECC3C3C3C3C3C3C300EC00ECECEC00EC00ECEC00EC0000ECECC3C3000000000000000000000000000000000000000000000000000000C3F5F500000000000000000000000000F5F5000000000000000000
310
000000000000000000C3C3ECECEC0000ECEC00ECEC00ECEC00ECECECECECECECECEC00ECECECECECECECECECEC00ECEC00C3C30000000000000000000000000000000000000000000000000000C3F5F500000000000000000000000000F5F50000000000000000000000000000000000C3C300ECECECECECECECECECECECEC
310
EC00ECECEC00ECECECECEC0000EC00ECEC00ECEC000000EC00ECECECC3C3000000000000000000000000000000000000000000000000C3F5F500000000000000000000000000F5F50000000000000000000000000000000000C3ECECEC00ECECEC00EC0000ECECEC00ECECEC00F5F5F5F5F5F5F5F5F5F500ECECEC00ECECEC
310
ECECECECECECC3C30000000000000000000000000000000000000000000000C3F5F500000000000000000000000000F5F500000000000000000000000000000000C3ECECEC00ECECECECECEC00ECECECECECEC00EC00F5F5F5F5F5F5F5F5F5F500ECECECECECECECEC0000ECECECECC3C3C3C3000000000000000000000000
310
0000000000000000C3F5F500000000000000000000000000F5F5000000000000000000000000000000C3C3ECEC00ECECEC00ECEC00EC0000ECECECECECEC000000000000000000000000ECEC00EC0000ECECECECECECECEC00ECECC3C3C3C3C3C3000000000000000000000000000000C3F5F5000000000000000000000000
310
00F5F50000000000000000000000000000C3C3ECEC00ECEC00EC0000ECECECECECECECECECECECECECECECECECEC00EC00EC0000ECEC00ECECECECECECEC000000EC00ECEC00ECECECC3C3C300000000000000000000000000C3F5F500000000000000000000000000F5F5000000000000000000000000C3C3C3EC00ECECEC
310
00ECECECECEC00ECECECEC00000000ECECECEC0000ECEC00EC00EC00ECECECECECECECEC00ECECECECECECECECEC00ECECECEC00ECC3C30000000000000000000000C3F5F500000000000000000000000000F5F500000000000000000000C3C3C300ECECECEC00ECEC00ECECEC000000EC0000EC00ECEC00ECEC0000ECECEC
310
00ECECECECEC00ECECECECECECECECECECECEC00ECECECECECECECECEC00ECC3C300000000000000000000C3F5F500000000000000000000000000F5F50000000000000000C3C3C3ECF5F5F5F5F5F5F5F5ECECECECECECECEC1C0F0F0F0F0F0F0F0F0FF50F0F0F0F0F0F0F0F0F0F0F0F0F0F0F0F0F0F0FECECECECECECECEC
310
ECECECECECECECECECECC3000000000000000000C3F5F500000000000000000000000000F5F5000000000000000000000000F5F5F5F5F5F5F5F500000000000000001C0F0F0F0F0F0F0F0FF5F50FF5F50F0F0F0F0F0F0F0F0F0F0F0F0F0F0F1C000000F5F5F5F5F5F5F5F5F5F5F50000000000000000000000000000C3F5F5
310
00000000000000000000000000F5F5000000000000000000000000F5F5F5F5F5F5F5F5F5F5F5F5F50000001C820000DC2DDC00F5F500BEF5F5DCDCDCDCBE00822D00DC2DDC0000821C000000F5F5F5F5F5F5F5F5F5F5F50000000000000000000000000000C3F5F500000000000000000000000000F5F50000000000000000
310
00000000F5F5F5F5F5F5F5F5F5F5F5F5F50000001C8200DCDC2DDCF5F58200F5DCDCDCDCDCDCBE00822DDCDC2DDCDC00821C0000F5F5F5F5F5F5F5F5F5F5F5F5F5F5F5F5F5F50000000000000000C3F5F500000000000000000000000000F5F5000000000000000000000000F5F5F5F5F5F5F5F5F5F50000000000001CDCDC
310
CF282DF5F52D2828F5DCDCDCDCDCDC2828282D282D2D28CFDCDC1C0000F5F5F5F5F5F5F5F5F5F5F5F5F5F5F5F5F5F50000000000000000C3F5F500000000000000000000000000F5F5000000000000000000000000F5F5F5F5F5F5F5F5F5F50000000000001CCF00CFF5F500002DF5F52D2D2D2D2D2D2D2DF5D82D002D2D00
310
CF00D81C000000F5F5F5F5F5F5F5F5F5F5F5F5F5F5F5F5000000000000000000C3F5F500000000000000000000000000F5F5000000000000000000000000F5F5F5F5F5F5F5F5F5000000000000001CF5F5F5F5CF000000F5002DDC2D2D2D2D2D2DF5F50000CFCF00CFCFCF1C000000F5F5F5F5F5F5F5F5F5F5F5F5F5F5F5F5
310
000000000000000000C3F5F500000000000000000000000000F5F5000000000000000000000000F5F5F5F5F5F5F5F5F5F5F5F5F5F5F5F5F5F5CFCF00CF0000F5F5002D2D2D2D2D2D2D2DF5F5000000CFCFCF00CF1C000000F5F5F5F5F5F5F5F5F5F5F5F500000000000000000000000000C3F5F50000000000000000000000
310
0000F5F5000000000000000000000000000000000000000000000000000000001CCF0000CFCF00F5F5D80028DCDCDCDCDCDC2D00F50000CFCF0000CFCF1C000000F5F5F5F5F5F5F5F5F5F5F5F500000000000000000000000000C3F5F500000000000000000000000000F5F500000000000000000000000000000000000000
310
0000000000000000001CCFCFCF00F5F5F500D800BEDCDCDCDCDCDCBE00F5F50000CFCFCF00CF1C0000F5F5F5F5F5F5F5F5F5F5F5F5F5F5F5F5F5F50000000000000000C3F5F500000000000000000000000000F5F5000000000000000000000000F5F5F5F5F500000000000000000000001CCF00F5F5F5000000D800BEDCDC
310
DCDCDCDCBE00D8F500CFCF00CFCFCF1C0000F5F5F5F5F5F5F5F5F5F5F5F5F5F5F5F5F5F50000000000000000C3F5F500000000000000000000000000F5F5000000000000000000000000F5F5F5F5F500000000000000000000001CF5F5F500CF000000D800BEDCDCDCDCDCDCBE00D8F5F5CFCFCFCF00CF1C000000F5F5F5F5
310
F5F5F5F5F5F5F5F5F5F5F5F5000000000000000000C3F5F500000000000000000000000000F5F5000000000000000000000000F5F5F5F5F5F5F5F50000000000F5F5F5F5F5CFCF00CF000000D800BEDCDCDCDCDCDCBE00D800F5F5CF00CF00CF1C000000F5F5F5F5F5F5F5F5F5F5F5F5F5F5F5F5000000000000000000C3F5
310
F500000000000000000000000000F5F5000000000000000000000000F5F5F5F5F5F5F5F500F5F5F5F50000001CCF00CFCFCF000000D800BEDCDCDCDCDCDCBE00D80000F5F500CFCFCF1C000000F5F5F5F5F5F5F5F5F5F5F5F5F5F5F5F5000000000000000000C3F5F500000000000000000000000000F5F500000000000000
310
0000000000000000000000000000000000000000001CCFCFCF00CF000000D800BEDCDCDCDCDCDCBE00D8000000CFF5F500CF1C000000F5F5F5F5F5F5F5F5F5F5F5F5F5F5F5F5000000000000000000C3F5F500000000000000000000000000F5F5000000000000000000000000000000000000000000000000000000001CCF
310
0000CFCF000000D800BEDCDCDCDCDCDCBE00D80000CFCF0000F5F5F5F5F5F5F5F5F5F5F5F5F5F5F5F5F5F5F5F5F5F5F50000000000000000C3F5F500000000000000000000000000F5F5000000000000000000000000000000000000000000000000000000001CCFCFCF00CF000000D800BEDCDCDCDCDCDCBE00D8000000CF
310
CFCF00CF1C0000F5F5F5F5F5F5F5F5F5F5F5F5F5F5F5F5F5F50000000000000000C3F5F500000000000000000000000000F5F5000000000000000000000000000000000000000000000000000000001CCF00CFCFCF000000D800BEDCDCDCDCDCDCBE00D80000CFCF00CFCFCF1C000000000000000000000000000000000000
310
00000000000000000000C3F5F500000000000000000000000000F5F5000000000000000000000000000000000000000000000000000000001CCF00CF00CF000000D800BEDCDCF5F5DCDCBE00D80000CFCF00CF00CF1C000000F5F5F5F5000000000000000000000000000000000000000000C3F5F500000000000000000000
310
000000F5F5000000000000000000000000000000000000000000000000000000001CCFCFCF00CF000000D800BEDCDCDCF5F5F5BE00D8000000CFCFCF00CF1C000000F5F5F5F5000000000000000000000000000000000000000000C3F5F500000000000000000000000000F5F5000000000000000000000000000000000000
310
000000000000000000001CCF00CFCFCF000000D800BEDCDCDCDCDCF5F5F5F50000CFCF00CFCFCF1C000000F5F5F5F5F5F5F5F5F5F5F5F5F5F5F500000000000000000000C3F5F500000000000000000000000000F5F5000000000000000000000000000000000000000000000000000000001CCFCF0000CF000000D800BEDC
310
DCDCDCDCDCBE00F5F5F5F5F5F5F5F5F5F5F5F5F5F5F5F5F5F5F5F5F5F5F5F5F5F5F5F500000000000000000000C3F5F500000000000000000000000000F5F5000000000000000000000000000000000000000000000000000000001CCFF5CFCFCF000000D800BEDCDCDCDCDCDCBE00D80000CFCF00CFCFCF1C000000000000
310
00000000000000000000000000000000000000000000C3F5F500000000000000000000000000F5F5000000000000000000000000000000000000000000000000000000001CCFCFF5F5CF000000D800BEDCDCDCDCDCDCBE00D8000000CFCFF500CF1C00000000000000000000000000000000000000000000000000000000C3
310
F5F500000000000000000000000000F5F5000000000000000000000000000000000000000000000000000000001CCF00CFF5F5F50000D800BEDCDCDCDCDCDCBE00D80000CFCF00F5F5CF1C000000F5F5F5F5F5F5F5F5F500000000000000000000000000000000C3F5F500000000000000000000000000F5F5000000000000
310
000000000000000000000000000000000000000000001CCF00CFCFCFF5F500D800BEDCDCDCDCDCDCBE00D80000CFCF00F5F5CF1C000000F5F5F5F5F5F5F5F5F500000000000000000000000000000000C3F5F500000000000000000000000000F5F5000000000000000000000000000000000000000000000000000000001C
310
CFCFCF00CF0000F5F5F5BEDCDCDCDCDCDCBE00D8000000CFCFCFF5F51C000000F5F5F5F5F5F5F5F5F5F5F5F5F5F50000000000000000000000C3F5F500000000000000000000000000F5F5000000000000000000000000000000000000000000000000000000001CCF00CFCFCF000000D8F5F5F5F5F5F5F5DCBE00D80000CF
310
F5F5F5F5F5F5F5F5F5F5F5F5F5F5F5F5F5F5F5F5F5F5F50000000000000000000000C3F5F500000000000000000000000000F5F5000000000000000000000000000000000000000000000000000000001CCFCF0000CF000000D800BEDCDCDCDCF5F5F5F5F5F5F5F5F5CF0000CF1C0000000000000000000000000000000000
310
0000000000000000000000C3F5F500000000000000000000000000F5F5000000000000000000000000000000000000000000000000000000001CCF00CFCFCF000000D8F5F5DCDCDCDCDCDCBE00D80000CFCF00CFCFCF1C00000000000000000000000000000000000000000000000000000000C3F5F5000000000000000000
310
00000000F5F5000000000000000000000000000000000000000000000000000000001CCFCFCF00CF000000D800F5F5F5F5DCDCDCF5F5F5F5F5F5F5CFCF00CF1C0000F5F5F5F5F5F5F5F5F5F5F5000000000000000000000000000000C3F5F500000000000000000000000000F5F50000000000000000000000000000000000
310
00000000000000000000001CCFCFCF00CF000000D800BEDCDCF5F5F5F5F5F5F5F5F5F5F5F5F5F5F5F5F5F5F5F5F5F5F5F5F5F5F5F5F5000000000000000000000000000000C3F5F500000000000000000000000000F5F5000000000000000000000000000000000000000000000000000000001CCF00CFCFCF000000D800BE
310
DCDCDCDCDCDCBE00D80000CFCF00CFCFCF1C00000000000000000000000000000000000000000000000000000000C3F5F500000000000000000000000000F5F5000000000000000000000000000000000000000000000000000000001CCFCFCF00CF000000D800BEDCDCDCDCDCDCBE00D8000000CFCFCF00CF1C0000000000
310
0000000000000000000000000000000000000000000000C3F5F500000000000000000000000000F5F5000000000000000000000000000000000000000000000000000000001CCF0000CFCF000000D800BEDCDCDCDCDCDCBE00D80000CFCF0000CFCF1C000000F5F5F5F5F5F5F5F5F5F5000000000000000000000000000000
310
C3F5F500000000000000000000000000F5F5000000000000000000000000000000000000000000000000000000001CCFCFCF00CF00F500D800BEDCDCDCDCDCDCBE00D8F50000CFCFCF00CF1C000000F5F5F5F5F5F5F5F5F5F5000000000000000000000000000000C3F5F500000000000000000000000000F5F50000000000
310
00000000000000000000000000000000000000000000001CCF00CFCFCF0000F5D800BEDCDCDCDCDCDCBE00D800F5F5F500CFCFCF1C000000F5F5F5F5F5F5F5F5F5F5000000000000000000000000000000C3F5F500000000000000000000000000F5F500000000000000000000000000000000000000000000000000000000
310
1CCF00CF00CF000000F5F5BEDCDCDCDCDCDCBE00D80000CFF5F5F500CF1C000000F5F5F5F5F5F5F5F5F5F5000000000000000000000000000000C3F5F500000000000000000000000000F5F5000000000000000000000000000000000000000000000000000000001CCFCFCF00CF000000D8F5F5F5DCDCDCDCDCBE00D80000
310
00CFCFF5F5F5F5F5F5F5F5F5F5F5F5F5F5F5F5F5F5F5F5F5F5F5000000000000000000C3F5F500000000000000000000000000F5F5000000000000000000000000000000000000000000000000000000001CCF00CFCFCF000000D800BEF5F5F5F5F5F5F5F5F5F5F5F5F5F5F5CFCF1C000000F5F5F5F5F5F5F5F5F5F5F5F5F5
310
F5F5F5000000000000000000C3F5F500000000000000000000000000F5F500000000000000000000000000000000000000000000000000000000F5F5F50000CF000000D800BEDCDCDCDCDCDCBE00D8000000CFCF0000CF1C00000000000000000000000000000000000000000000000000000000C3F5F50000000000000000
310
0000000000F5F5000000000000000000000000000000000000000000000000000000001CCFF5F5F5CF000000D800BEDCDCDCDCDCDCBE00D80000CFCF00CFCFF51C00000000000000000000000000000000000000000000000000000000C3F5F500000000000000000000000000F5F500000000000000000000000000000000
310
0000000000000000000000001CCFCFCF00F5F5F500D800BEDCDCDCDCDCDCBE00D8000000CFCFCF00F5F5000000F5F5F5F5F5F5F5F5F500000000000000000000000000000000C3F5F500000000000000000000000000F5F5000000000000000000000000000000000000000000000000000000001CCF00CFCFCF00F5F5F5F5
310
BEDCDCDCDCDCDCBE00D80000CFCF00CFCFCFF5000000F5F5F5F5F5F5F5F5F500000000000000000000000000000000C3F5F500000000000000000000000000F5F5000000000000000000000000000000000000000000000000000000001CCF00CFCFCF000000D8F5F5F5F5F5F5F5F5BE00D80000CFCF00CFCFCFF5F5F5F5F5
310
F5F5F5F5F5F5F5F5F5F5F5F5F5F5F5000000000000000000C3F5F500000000000000000000000000F5F5000000000000000000000000000000000000000000000000000000001CCFCFCF00CF000000D800BEDCDCDCDCDCDCF5F5F5F5F5F5F5F5F5F5F51C000000F5F5F5F5F5F5F5F5F5F5F5F5F5F5F5F50000000000000000
310
00C3F5F500000000000000000000000000F5F5000000000000000000000000000000000000000000000000000000001CCF00CFCFCF000000D800BEDCDCDCDCDCDCBE00D80000CFCF00CFCFCF1C00000000000000000000000000000000000000000000000000000000C3F5F500000000000000000000000000F5F500000000
310
0000000000000000000000000000000000000000000000001CCFCF0000CF000000D800BEDCDCDCDCDCDCBE00D8000000CFCF0000CF1C00000000000000000000000000000000000000000000000000000000C3F5F500000000000000000000000000F5F5000000000000000000000000000000000000000000000000000000
310
001CCF00CFCFCF000000D800BEDCDCDCDCDCDCBE00D80000CFCF00CFCFCF1C00000000000000000000000000000000000000000000000000000000C3F5F500000000000000000000000000F5F5000000000000000000000000000000000000000000000000000000001CCFCFCF00CF000000D800BEDCDCDCDCDCDCBE00D800
310
00CFCFCFCF00CF1C00000000000000000000000000000000000000000000000000000000C3F5F500000000000000000000000000F5F5000000000000000000000000000000000000000000000000000000001CCF00CF00CF000000D800BEDCDCDCDCDCDCBE00D80000CFCF00CF00CF1C000000000000000000000000000000
310
00000000000000000000000000C3F5F500000000000000000000000000F5F5000000000000000000000000000000000000000000000000000000001CCF00CFCFCF000000D800BEDCDCDCDCDCDCBE00D80000CFCF00CFCFCF1C00000000000000000000000000000000000000000000000000000000C3F5F500000000000000
310
000000000000F5F5000000000000000000000000000000000000000000000000000000001CCFCFCF00CF000000D800BEDCDCDCDCDCDCBE00D8000000CFCFCF00CF1C00000000000000000000000000000000000000000000000000000000C3F5F500000000000000000000000000F5F5000000000000000000000000000000
310
000000000000000000000000F5F5F5F5F5F5F5F5F5F5F5F5F5F5F5F5F5F5F5BEF5D8F5F5F5F5F5CFCFCF1CF5000000000000000000000000000000000000000000000000000000C3F5F500000000000000000000000000F5F5000000000000000000000000000000000000000000000000000000000000000000F500000000
310
00000000F50000000000000000F500000000000000000000000000000000000000000000000000000000000000000000C3F5F500000000000000000000000000F5F500000000000000000000000000000000000000000000000000000000000000000000000000000000000000000000000000000000000000000000000000
310
00000000000000000000000000000000000000000000000000C3F5F500000000000000000000000000F5F5000000000000000000000000000000000000000000000000000000000000000000000000000000000000000000000000000000000000000000000000000000000000000000000000000000000000000000000000
310
0000C3F5F500000000000000000000000000F5F50000000000000000000000000000000000000000000000000000000000000000000000000000000000000000000000000000000000000000000000000000000000000000000000000000000000000000000000000000C3F5F500000000000000000000000000F5F5000000
310
0000000000000000000000000000000000000000000000000000000000000000000000000000000000000000000000000000000000000000000000000000000000000000000000000000000000000000000000C3F5F500000000000000000000000000F5F50000000000000000000000000000000000000000000000000000
310
000000000000000000000000000000000000000000000000000000000000000000000000000000000000000000000000000000000000000000000000C3F5F500000000000000000000000000F5F500000000000000000000000000000000000000000000000000000000000000000000000000000000000000000000000000
310
00000000000000000000000000000000000000000000000000000000000000000000000000C3F5F500000000000000000000000000F5F5000000000000000000000000000000000000000000000000000000000000000000000000000000000000000000000000000000000000000000000000000000000000000000000000
310
0000000000000000000000000000C3F5F500000000000000000000000000F5F50000000000000000000000000000000000000000000000000000000000000000000000000000000000000000000000000000000000000000000000000000000000000000000000000000000000000000000000000000C3F5F5000000000000
310
00000000000000F5F50000000000000000000000000000000000000000000000000000000000000000000000000000000000000000000000000000000000000000000000000000000000000000000000000000000000000000000000000000C3F5F500000000000000000000000000F5F50000000000000000000000000000
310
000000000000000000000000000000000000000000000000000000000000000000000000000000000000000000000000000000000000000000000000000000000000000000000000C3F5F500000000000000000000000000F5F5C3C3C3C3C3C3C3C3C3C3C3C3C3C3C3C3C3C3C3C3C3C3C3C3C3C3C3C3C3C3C3C3C3C3C3C3C3
310
C3C3C3C3C3C3C3C3C3C3C3C3C3C3C3C3C3C3C3C3C3C3C3C3C3C3C3C3C3C3C3C3C3C3C3C3C3C3C3C3C3C3C3C3C3C3C3C3C3C3F5F500000000000000000000000000F5F5000000000000000000000000000000000000000000000000000000000000000000000000000000000000000000000000000000000000000000000000
310
000000000000000000000000000000000000000000000000000000F5F500000000000000000000000000F5F50000000000000000000000000000000000000000000000000000000000000000000000000000000000000000000000000000000000000000000000000000000000000000000000000000000000000000000000
310
00000000F5F500000000000000000000000000F5F5000000000000000000000000000000000000000000000000000000000000000000000000000000000000000000000000000000000000000000000000000000000000000000000000000000000000000000000000000000F5F500000000000000000000000000F5F50000
310
00000000000000000000000000000000000000000000000000000000000000000000000000000000000000000000000000000000000000000000000000000000000000000000000000000000000000000000000000F5F500000000000000000000000000F5F500000000000000000000000000000000000000000000000000
310
0000000000000000000000000000000000000000000000000000000000000000000000000000000000000000000000000000000000000000000000000000F5F500000000000000000000000000F5F5000000000000000000000000000000000000000000000000000000000000000000000000000000000000000000000000
310
000000000000000000000000000000000000000000000000000000000000000000000000000000F5F500000000000000000000000000F5F50000000000000000000000000000000000000000000000000000000000000000000000000000000000000000000000000000000000000000000000000000000000000000000000
310
00000000000000000000000000000000F5F500000000000000000000000000F5F5000000000000000000000000000000000000000000000000000000000000000000000000000000000000000000000000000000000000000000000000000000000000000000000000000000000000000000000000000000F5F50000000000
310
0000000000000000F5F5000000000000000000000000000000000000000000000000000000000000000000000000000000000000000000000000000000000000000000000000000000000000000000000000000000000000000000000000000000F5F500000000000000000000000000F5F500000000000000000000000000
310
0000000000000000000000000000000000000000000000000000000000000000000000000000000000000000000000000000000000000000000000000000000000000000000000000000F5F500000000000000000000000000F5F5000000000000000000000000000000000000000000000000000000000000000000000000
310
000000000000000000000000000000000000000000000000000000000000000000000000000000000000000000000000000000F5F500000000000000000000000000F5F50000000000000000000000000000000000000000000000000000000000000000000000000000000000000000000000000000000000000000000000
310
00000000000000000000000000000000000000000000000000000000F5F500000000000000000000000000F5F500000000000000000000000000000000000000000000000000000000000000000000000000000000000000000000000000000000000000000000000000000000000000000000000000000000000000000000
310
0000000000F5F500000000000000000000000000F5F5F5F5F5F5F5F5F5F5F5F5F5F5F5F5F5F5F5F5F5F5F5F5F5F5F5F5F5F5F5F5F5F5F5F5F5F5F5F5F5F5F5F5F5F5F5F5F5F5F5F5F5F5F5F5F5F5F5F5F5F5F5F5F5F5F5F5F5F5F5F5F5F5F5F5F5F5F5F5F5F5F5F5F5F5F5F5F5F5F500000000000000000000000000F5F5F5
310
F5F5F5F5F5F5F5F5F5F5F5F5F5F5F5F5F5F5F5F5F5F5F5F5F5F5F5F5F5F5F5F5F5F5F5F5F5F5F5F5F5F5F5F5F5F5F5F5F5F5F5F5F5F5F5F5F5F5F5F5F5F5F5F5F5F5F5F5F5F5F5F5F5F5F5F5F5F5F5F5F5F5F5F5F5F5F500000000000000000000000000000000000000000000000000000000000000000000000000000000
310
00000000000000000000000000000000000000000000000000000000000000000000000000000000000000000000000000000000000000000000000000000000000000000000000000000000000000000000000000000000000000000000000000000000000000000000000000000000000000000000000000000000000000
310
00000000000000000000000000000000000000000000000000000000000000000000000000000000000000000000000000000000000000000000000000000000000000000000000000000000000000000000000000000000000000000000000000000000000000000000000000000000000000000000000000000000000000
310
00000000000000000000000000000000000000000000000000000000000000000000000000000000000000000000000000000000000000000000000000000000000000000000000000000000000000000000000000000000000000000000000000000000000000000000000000000000000000000000000000000000000000
310
000000
  0
XRECORD
  5
79C1
102
{ACAD_REACTORS
330
2F40
102
}
330
2F40
100
AcDbXrecord
280
     1
102
MATERIAL
148
0.0
149
0.0
149
0.0
 93
        0
 94
      127
282
     0
 72
     0
 77
     0
171
     0
175
     0
179
     0
273
     0
  0
XRECORD
  5
2F42
102
{ACAD_REACTORS
330
2F40
102
}
330
2F40
100
AcDbXrecord
280
     1
270
     1
271
     1
  0
XRECORD
  5
2F41
102
{ACAD_REACTORS
330
2F40
102
}
330
2F40
100
AcDbXrecord
280
     1
270
     1
271
     1
  0
XRECORD
  5
2F45
102
{ACAD_REACTORS
330
2F40
102
}
330
2F40
100
AcDbXrecord
280
     1
270
     1
271
     1
  0
XRECORD
  5
2F44
102
{ACAD_REACTORS
330
2F40
102
}
330
2F40
100
AcDbXrecord
280
     1
270
     1
271
     1
  0
XRECORD
  5
2F46
102
{ACAD_REACTORS
330
2F40
102
}
330
2F40
100
AcDbXrecord
280
     1
270
     1
271
     1
  0
XRECORD
  5
2F43
102
{ACAD_REACTORS
330
2F40
102
}
330
2F40
100
AcDbXrecord
280
     1
270
     1
271
     1
  0
XRECORD
  5
79C0
102
{ACAD_REACTORS
330
2F38
102
}
330
2F38
100
AcDbXrecord
280
     1
102
MATERIAL
148
0.0
149
0.0
149
0.0
 93
        0
 94
      127
282
     0
 72
     0
 77
     0
171
     0
175
     0
179
     0
273
     0
  0
XRECORD
  5
2F3A
102
{ACAD_REACTORS
330
2F38
102
}
330
2F38
100
AcDbXrecord
280
     1
270
     1
271
     1
  0
XRECORD
  5
2F39
102
{ACAD_REACTORS
330
2F38
102
}
330
2F38
100
AcDbXrecord
280
     1
270
     1
271
     1
  0
XRECORD
  5
2F3D
102
{ACAD_REACTORS
330
2F38
102
}
330
2F38
100
AcDbXrecord
280
     1
270
     1
271
     1
  0
XRECORD
  5
2F3C
102
{ACAD_REACTORS
330
2F38
102
}
330
2F38
100
AcDbXrecord
280
     1
270
     1
271
     1
  0
XRECORD
  5
2F3E
102
{ACAD_REACTORS
330
2F38
102
}
330
2F38
100
AcDbXrecord
280
     1
270
     1
271
     1
  0
XRECORD
  5
2F3B
102
{ACAD_REACTORS
330
2F38
102
}
330
2F38
100
AcDbXrecord
280
     1
270
     1
271
     1
  0
XRECORD
  5
79C2
102
{ACAD_REACTORS
330
2F48
102
}
330
2F48
100
AcDbXrecord
280
     1
102
MATERIAL
148
0.0
149
0.0
149
0.0
 93
        0
 94
      127
282
     0
 72
     0
 77
     0
171
     0
175
     0
179
     0
273
     0
  0
XRECORD
  5
2F4A
102
{ACAD_REACTORS
330
2F48
102
}
330
2F48
100
AcDbXrecord
280
     1
270
     1
271
     1
  0
XRECORD
  5
2F49
102
{ACAD_REACTORS
330
2F48
102
}
330
2F48
100
AcDbXrecord
280
     1
270
     1
271
     1
  0
XRECORD
  5
2F4D
102
{ACAD_REACTORS
330
2F48
102
}
330
2F48
100
AcDbXrecord
280
     1
270
     1
271
     1
  0
XRECORD
  5
2F4C
102
{ACAD_REACTORS
330
2F48
102
}
330
2F48
100
AcDbXrecord
280
     1
270
     1
271
     1
  0
XRECORD
  5
2F4E
102
{ACAD_REACTORS
330
2F48
102
}
330
2F48
100
AcDbXrecord
280
     1
270
     1
271
     1
  0
XRECORD
  5
2F4B
102
{ACAD_REACTORS
330
2F48
102
}
330
2F48
100
AcDbXrecord
280
     1
270
     1
271
     1
  0
CELLSTYLEMAP
  5
79AF
102
{ACAD_REACTORS
330
2FC0
102
}
330
2FC0
100
AcDbCellStyleMap
 90
        3
300
CELLSTYLE
  1
TABLEFORMAT_BEGIN
 90
        5
170
     1
 91
        0
 92
    32768
 62
   257
 93
        1
300
CONTENTFORMAT
  1
CONTENTFORMAT_BEGIN
 90
        0
 91
        0
 92
      512
 93
        0
300

 40
0.0
140
1.0
 94
        5
 62
     0
340
555
144
0.25
309
CONTENTFORMAT_END
171
     0
 94
        0
309
TABLEFORMAT_END
  1
CELLSTYLE_BEGIN
 90
        1
 91
        1
300
_TITLE
309
CELLSTYLE_END
300
CELLSTYLE
  1
TABLEFORMAT_BEGIN
 90
        5
170
     1
 91
        0
 92
        0
 62
   257
 93
        1
300
CONTENTFORMAT
  1
CONTENTFORMAT_BEGIN
 90
        0
 91
        0
 92
      512
 93
        0
300

 40
0.0
140
1.0
 94
        5
 62
     0
340
555
144
0.18
309
CONTENTFORMAT_END
171
     0
 94
        0
309
TABLEFORMAT_END
  1
CELLSTYLE_BEGIN
 90
        2
 91
        1
300
_HEADER
309
CELLSTYLE_END
300
CELLSTYLE
  1
TABLEFORMAT_BEGIN
 90
        5
170
     1
 91
        0
 92
        0
 62
   257
 93
        1
300
CONTENTFORMAT
  1
CONTENTFORMAT_BEGIN
 90
        0
 91
        0
 92
      512
 93
        0
300

 40
0.0
140
1.0
 94
        2
 62
     0
340
555
144
0.18
309
CONTENTFORMAT_END
171
     0
 94
        0
309
TABLEFORMAT_END
  1
CELLSTYLE_BEGIN
 90
        3
 91
        2
300
_DATA
309
CELLSTYLE_END
  0
XRECORD
  5
79E3
102
{ACAD_REACTORS
330
2FC0
102
}
330
2FC0
100
AcDbXrecord
280
     1
102
ACAD_ROUNDTRIP_PRE2007_TABLESTYLE
 90
      512
 91
        0
  1

 92
      512
 93
        0
  2

 94
      512
 95
        0
  3

  0
XRECORD
  5
79CE
102
{ACAD_REACTORS
330
79CD
102
}
330
79CD
100
AcDbXrecord
280
     1
102
RTVSPost2010Prop28
280
     1
102
RTVSPost2010PropOp28
 70
     1
102
RTVSPost2010Prop29
280
     1
102
RTVSPost2010PropOp29
 70
     1
102
RTVSPost2010Prop30
280
     0
102
RTVSPost2010PropOp30
 70
     1
102
RTVSPost2010Prop31
280
     0
102
RTVSPost2010PropOp31
 70
     1
102
RTVSPost2010Prop32
280
     0
102
RTVSPost2010PropOp32
 70
     1
102
RTVSPost2010Prop33
280
     0
102
RTVSPost2010PropOp33
 70
     1
102
RTVSPost2010Prop34
280
     0
102
RTVSPost2010PropOp34
 70
     1
102
RTVSPost2010Prop35
280
     0
102
RTVSPost2010PropOp35
 70
     1
102
RTVSPost2010Prop36
280
     0
102
RTVSPost2010PropOp36
 70
     1
102
RTVSPost2010Prop37
 90
       50
102
RTVSPost2010PropOp37
 70
     1
102
RTVSPost2010Prop38
140
0.0
102
RTVSPost2010PropOp38
 70
     1
102
RTVSPost2010Prop39
140
1.0
102
RTVSPost2010PropOp39
 70
     1
102
RTVSPost2010Prop40
 90
        0
102
RTVSPost2010PropOp40
 70
     1
102
RTVSPost2010Prop41ColorIndex
 90
       18
102
RTVSPost2010Prop41ColorRGB
 90
        0
102
RTVSPost2010PropOp41
 70
     1
102
RTVSPost2010Prop42
 90
       50
102
RTVSPost2010PropOp42
 70
     1
102
RTVSPost2010Prop43
 90
        3
102
RTVSPost2010PropOp43
 70
     1
102
RTVSPost2010Prop44ColorIndex
 90
        5
102
RTVSPost2010Prop44ColorRGB
 90
      255
102
RTVSPost2010PropOp44
 70
     1
102
RTVSPost2010Prop45
280
     0
102
RTVSPost2010PropOp45
 70
     1
102
RTVSPost2010Prop46
 90
       50
102
RTVSPost2010PropOp46
 70
     1
102
RTVSPost2010Prop47
 90
       50
102
RTVSPost2010PropOp47
 70
     1
102
RTVSPost2010Prop48
 90
       50
102
RTVSPost2010PropOp48
 70
     1
102
RTVSPost2010Prop49
280
     0
102
RTVSPost2010PropOp49
 70
     1
102
RTVSPost2010Prop50
 90
       50
102
RTVSPost2010PropOp50
 70
     1
102
RTVSPost2010Prop51ColorIndex
 90
      256
102
RTVSPost2010Prop51ColorRGB
 90
-16777216
102
RTVSPost2010PropOp51
 70
     0
102
RTVSPost2010Prop52
140
1.0
102
RTVSPost2010PropOp52
 70
     0
102
RTVSPost2010Prop53
 90
        2
102
RTVSPost2010PropOp53
 70
     1
102
RTVSPost2010Prop54
  1
strokes_ogs.tif
102
RTVSPost2010PropOp54
 70
     1
102
RTVSPost2010Prop55
280
     0
102
RTVSPost2010PropOp55
 70
     1
102
RTVSPost2010Prop56
140
1.0
102
RTVSPost2010PropOp56
 70
     1
102
RTVSPost2010Prop57
140
1.0
102
RTVSPost2010PropOp57
 70
     1
102
RTVSPropertyOp0
 70
     1
102
RTVSPropertyOp1
 70
     1
102
RTVSPropertyOp2
 70
     1
102
RTVSPropertyOp3
 70
     1
102
RTVSPropertyOp4
 70
     1
102
RTVSPropertyOp5
 70
     1
102
RTVSPropertyOp6
 70
     1
102
RTVSPropertyOp7
 70
     1
102
RTVSPropertyOp8
 70
     1
102
RTVSPropertyOp9
 70
     1
102
RTVSPropertyOp10
 70
     1
102
RTVSPropertyOp11
 70
     1
102
RTVSPropertyOp12
 70
     1
102
RTVSPropertyOp13
 70
     1
102
RTVSPropertyOp14
 70
     1
102
RTVSPropertyOp15
 70
     1
102
RTVSPropertyOp16
 70
     1
102
RTVSPropertyOp17
 70
     1
102
RTVSPropertyOp18
 70
     1
102
RTVSPropertyOp19
 70
     1
102
RTVSPropertyOp20
 70
     1
102
RTVSPropertyOp21
 70
     1
102
RTVSPropertyOp22
 70
     1
102
RTVSPropertyOp23
 70
     1
102
RTVSPropertyOp24
 70
     1
102
RTVSPropertyOp25
 70
     1
102
RTVSPropertyOp26
 70
     1
102
RTVSPropertyOp27
 70
     1
102
RTVSPropertyOp28
 70
     1
102
RTVSPropertyOp29
 70
     1
102
RTVSPropertyOp30
 70
     1
102
RTVSPropertyOp31
 70
     1
102
RTVSPropertyOp32
 70
     1
102
RTVSPropertyOp33
 70
     1
102
RTVSPropertyOp34
 70
     1
102
RTVSPropertyOp35
 70
     1
102
RTVSPropertyOp36
 70
     1
102
RTVSPropertyOp37
 70
     1
102
RTVSPropertyOp38
 70
     1
102
RTVSPropertyOp39
 70
     1
102
RTVSPropertyOp40
 70
     1
102
RTVSPropertyOp41
 70
     1
102
RTVSPropertyOp42
 70
     1
102
RTVSPropertyOp43
 70
     1
102
RTVSPropertyOp44
 70
     1
102
RTVSPropertyOp45
 70
     1
102
RTVSPropertyOp46
 70
     1
102
RTVSPropertyOp47
 70
     1
102
RTVSPropertyOp48
 70
     1
102
RTVSPropertyOp49
 70
     1
102
RTVSPropertyOp50
 70
     1
102
RTVSPropertyOp51
 70
     0
102
RTVSPropertyOp52
 70
     0
102
RTVSPropertyOp53
 70
     1
102
RTVSPropertyOp54
 70
     1
102
RTVSPropertyOp55
 70
     1
102
RTVSPropertyOp56
 70
     1
102
RTVSPropertyOp57
 70
     1
102
RTVSPropertyOp58
 70
     1
102
RTVSPropertyOp59
 70
     1
102
RTVSPropertyOp60
 70
     1
102
RTVSPropertyOp61
 70
     1
102
RTVSPropertyOp62
 70
     1
  0
XRECORD
  5
79D2
102
{ACAD_REACTORS
330
79D1
102
}
330
79D1
100
AcDbXrecord
280
     1
102
RTVSPost2010Prop28
280
     0
102
RTVSPost2010PropOp28
 70
     1
102
RTVSPost2010Prop29
280
     1
102
RTVSPost2010PropOp29
 70
     1
102
RTVSPost2010Prop30
280
     1
102
RTVSPost2010PropOp30
 70
     1
102
RTVSPost2010Prop31
280
     0
102
RTVSPost2010PropOp31
 70
     1
102
RTVSPost2010Prop32
280
     0
102
RTVSPost2010PropOp32
 70
     1
102
RTVSPost2010Prop33
280
     0
102
RTVSPost2010PropOp33
 70
     1
102
RTVSPost2010Prop34
280
     0
102
RTVSPost2010PropOp34
 70
     1
102
RTVSPost2010Prop35
280
     0
102
RTVSPost2010PropOp35
 70
     1
102
RTVSPost2010Prop36
280
     0
102
RTVSPost2010PropOp36
 70
     1
102
RTVSPost2010Prop37
 90
       50
102
RTVSPost2010PropOp37
 70
     1
102
RTVSPost2010Prop38
140
0.0
102
RTVSPost2010PropOp38
 70
     1
102
RTVSPost2010Prop39
140
1.0
102
RTVSPost2010PropOp39
 70
     1
102
RTVSPost2010Prop40
 90
        0
102
RTVSPost2010PropOp40
 70
     1
102
RTVSPost2010Prop41ColorIndex
 90
       18
102
RTVSPost2010Prop41ColorRGB
 90
        0
102
RTVSPost2010PropOp41
 70
     1
102
RTVSPost2010Prop42
 90
       50
102
RTVSPost2010PropOp42
 70
     1
102
RTVSPost2010Prop43
 90
        3
102
RTVSPost2010PropOp43
 70
     1
102
RTVSPost2010Prop44ColorIndex
 90
        5
102
RTVSPost2010Prop44ColorRGB
 90
      255
102
RTVSPost2010PropOp44
 70
     1
102
RTVSPost2010Prop45
280
     0
102
RTVSPost2010PropOp45
 70
     1
102
RTVSPost2010Prop46
 90
       50
102
RTVSPost2010PropOp46
 70
     1
102
RTVSPost2010Prop47
 90
       50
102
RTVSPost2010PropOp47
 70
     1
102
RTVSPost2010Prop48
 90
       50
102
RTVSPost2010PropOp48
 70
     1
102
RTVSPost2010Prop49
280
     0
102
RTVSPost2010PropOp49
 70
     1
102
RTVSPost2010Prop50
 90
       50
102
RTVSPost2010PropOp50
 70
     1
102
RTVSPost2010Prop51ColorIndex
 90
      256
102
RTVSPost2010Prop51ColorRGB
 90
-16777216
102
RTVSPost2010PropOp51
 70
     0
102
RTVSPost2010Prop52
140
1.0
102
RTVSPost2010PropOp52
 70
     0
102
RTVSPost2010Prop53
 90
        2
102
RTVSPost2010PropOp53
 70
     1
102
RTVSPost2010Prop54
  1
strokes_ogs.tif
102
RTVSPost2010PropOp54
 70
     1
102
RTVSPost2010Prop55
280
     0
102
RTVSPost2010PropOp55
 70
     1
102
RTVSPost2010Prop56
140
1.0
102
RTVSPost2010PropOp56
 70
     1
102
RTVSPost2010Prop57
140
1.0
102
RTVSPost2010PropOp57
 70
     1
102
RTVSPropertyOp0
 70
     1
102
RTVSPropertyOp1
 70
     1
102
RTVSPropertyOp2
 70
     1
102
RTVSPropertyOp3
 70
     1
102
RTVSPropertyOp4
 70
     1
102
RTVSPropertyOp5
 70
     1
102
RTVSPropertyOp6
 70
     1
102
RTVSPropertyOp7
 70
     1
102
RTVSPropertyOp8
 70
     1
102
RTVSPropertyOp9
 70
     1
102
RTVSPropertyOp10
 70
     1
102
RTVSPropertyOp11
 70
     1
102
RTVSPropertyOp12
 70
     1
102
RTVSPropertyOp13
 70
     1
102
RTVSPropertyOp14
 70
     1
102
RTVSPropertyOp15
 70
     1
102
RTVSPropertyOp16
 70
     1
102
RTVSPropertyOp17
 70
     1
102
RTVSPropertyOp18
 70
     1
102
RTVSPropertyOp19
 70
     1
102
RTVSPropertyOp20
 70
     1
102
RTVSPropertyOp21
 70
     1
102
RTVSPropertyOp22
 70
     1
102
RTVSPropertyOp23
 70
     1
102
RTVSPropertyOp24
 70
     1
102
RTVSPropertyOp25
 70
     1
102
RTVSPropertyOp26
 70
     1
102
RTVSPropertyOp27
 70
     1
102
RTVSPropertyOp28
 70
     1
102
RTVSPropertyOp29
 70
     1
102
RTVSPropertyOp30
 70
     1
102
RTVSPropertyOp31
 70
     1
102
RTVSPropertyOp32
 70
     1
102
RTVSPropertyOp33
 70
     1
102
RTVSPropertyOp34
 70
     1
102
RTVSPropertyOp35
 70
     1
102
RTVSPropertyOp36
 70
     1
102
RTVSPropertyOp37
 70
     1
102
RTVSPropertyOp38
 70
     1
102
RTVSPropertyOp39
 70
     1
102
RTVSPropertyOp40
 70
     1
102
RTVSPropertyOp41
 70
     1
102
RTVSPropertyOp42
 70
     1
102
RTVSPropertyOp43
 70
     1
102
RTVSPropertyOp44
 70
     1
102
RTVSPropertyOp45
 70
     1
102
RTVSPropertyOp46
 70
     1
102
RTVSPropertyOp47
 70
     1
102
RTVSPropertyOp48
 70
     1
102
RTVSPropertyOp49
 70
     1
102
RTVSPropertyOp50
 70
     1
102
RTVSPropertyOp51
 70
     0
102
RTVSPropertyOp52
 70
     0
102
RTVSPropertyOp53
 70
     1
102
RTVSPropertyOp54
 70
     1
102
RTVSPropertyOp55
 70
     1
102
RTVSPropertyOp56
 70
     1
102
RTVSPropertyOp57
 70
     1
102
RTVSPropertyOp58
 70
     1
102
RTVSPropertyOp59
 70
     1
102
RTVSPropertyOp60
 70
     1
102
RTVSPropertyOp61
 70
     1
102
RTVSPropertyOp62
 70
     1
  0
XRECORD
  5
79D0
102
{ACAD_REACTORS
330
79CF
102
}
330
79CF
100
AcDbXrecord
280
     1
102
RTVSPost2010Prop28
280
     0
102
RTVSPost2010PropOp28
 70
     1
102
RTVSPost2010Prop29
280
     1
102
RTVSPost2010PropOp29
 70
     1
102
RTVSPost2010Prop30
280
     1
102
RTVSPost2010PropOp30
 70
     1
102
RTVSPost2010Prop31
280
     0
102
RTVSPost2010PropOp31
 70
     1
102
RTVSPost2010Prop32
280
     0
102
RTVSPost2010PropOp32
 70
     1
102
RTVSPost2010Prop33
280
     0
102
RTVSPost2010PropOp33
 70
     1
102
RTVSPost2010Prop34
280
     0
102
RTVSPost2010PropOp34
 70
     1
102
RTVSPost2010Prop35
280
     0
102
RTVSPost2010PropOp35
 70
     1
102
RTVSPost2010Prop36
280
     0
102
RTVSPost2010PropOp36
 70
     1
102
RTVSPost2010Prop37
 90
       50
102
RTVSPost2010PropOp37
 70
     1
102
RTVSPost2010Prop38
140
0.0
102
RTVSPost2010PropOp38
 70
     1
102
RTVSPost2010Prop39
140
1.0
102
RTVSPost2010PropOp39
 70
     1
102
RTVSPost2010Prop40
 90
        0
102
RTVSPost2010PropOp40
 70
     1
102
RTVSPost2010Prop41ColorIndex
 90
       18
102
RTVSPost2010Prop41ColorRGB
 90
        0
102
RTVSPost2010PropOp41
 70
     1
102
RTVSPost2010Prop42
 90
       50
102
RTVSPost2010PropOp42
 70
     1
102
RTVSPost2010Prop43
 90
        3
102
RTVSPost2010PropOp43
 70
     1
102
RTVSPost2010Prop44ColorIndex
 90
        5
102
RTVSPost2010Prop44ColorRGB
 90
      255
102
RTVSPost2010PropOp44
 70
     1
102
RTVSPost2010Prop45
280
     0
102
RTVSPost2010PropOp45
 70
     1
102
RTVSPost2010Prop46
 90
       50
102
RTVSPost2010PropOp46
 70
     1
102
RTVSPost2010Prop47
 90
       50
102
RTVSPost2010PropOp47
 70
     1
102
RTVSPost2010Prop48
 90
       50
102
RTVSPost2010PropOp48
 70
     1
102
RTVSPost2010Prop49
280
     0
102
RTVSPost2010PropOp49
 70
     1
102
RTVSPost2010Prop50
 90
       50
102
RTVSPost2010PropOp50
 70
     1
102
RTVSPost2010Prop51ColorIndex
 90
      256
102
RTVSPost2010Prop51ColorRGB
 90
-16777216
102
RTVSPost2010PropOp51
 70
     0
102
RTVSPost2010Prop52
140
1.0
102
RTVSPost2010PropOp52
 70
     0
102
RTVSPost2010Prop53
 90
        2
102
RTVSPost2010PropOp53
 70
     1
102
RTVSPost2010Prop54
  1
strokes_ogs.tif
102
RTVSPost2010PropOp54
 70
     1
102
RTVSPost2010Prop55
280
     0
102
RTVSPost2010PropOp55
 70
     1
102
RTVSPost2010Prop56
140
1.0
102
RTVSPost2010PropOp56
 70
     1
102
RTVSPost2010Prop57
140
1.0
102
RTVSPost2010PropOp57
 70
     1
102
RTVSPropertyOp0
 70
     1
102
RTVSPropertyOp1
 70
     1
102
RTVSPropertyOp2
 70
     1
102
RTVSPropertyOp3
 70
     1
102
RTVSPropertyOp4
 70
     1
102
RTVSPropertyOp5
 70
     1
102
RTVSPropertyOp6
 70
     1
102
RTVSPropertyOp7
 70
     1
102
RTVSPropertyOp8
 70
     1
102
RTVSPropertyOp9
 70
     1
102
RTVSPropertyOp10
 70
     1
102
RTVSPropertyOp11
 70
     1
102
RTVSPropertyOp12
 70
     1
102
RTVSPropertyOp13
 70
     1
102
RTVSPropertyOp14
 70
     1
102
RTVSPropertyOp15
 70
     1
102
RTVSPropertyOp16
 70
     1
102
RTVSPropertyOp17
 70
     1
102
RTVSPropertyOp18
 70
     1
102
RTVSPropertyOp19
 70
     1
102
RTVSPropertyOp20
 70
     1
102
RTVSPropertyOp21
 70
     1
102
RTVSPropertyOp22
 70
     1
102
RTVSPropertyOp23
 70
     1
102
RTVSPropertyOp24
 70
     1
102
RTVSPropertyOp25
 70
     1
102
RTVSPropertyOp26
 70
     1
102
RTVSPropertyOp27
 70
     1
102
RTVSPropertyOp28
 70
     1
102
RTVSPropertyOp29
 70
     1
102
RTVSPropertyOp30
 70
     1
102
RTVSPropertyOp31
 70
     1
102
RTVSPropertyOp32
 70
     1
102
RTVSPropertyOp33
 70
     1
102
RTVSPropertyOp34
 70
     1
102
RTVSPropertyOp35
 70
     1
102
RTVSPropertyOp36
 70
     1
102
RTVSPropertyOp37
 70
     1
102
RTVSPropertyOp38
 70
     1
102
RTVSPropertyOp39
 70
     1
102
RTVSPropertyOp40
 70
     1
102
RTVSPropertyOp41
 70
     1
102
RTVSPropertyOp42
 70
     1
102
RTVSPropertyOp43
 70
     1
102
RTVSPropertyOp44
 70
     1
102
RTVSPropertyOp45
 70
     1
102
RTVSPropertyOp46
 70
     1
102
RTVSPropertyOp47
 70
     1
102
RTVSPropertyOp48
 70
     1
102
RTVSPropertyOp49
 70
     1
102
RTVSPropertyOp50
 70
     1
102
RTVSPropertyOp51
 70
     0
102
RTVSPropertyOp52
 70
     0
102
RTVSPropertyOp53
 70
     1
102
RTVSPropertyOp54
 70
     1
102
RTVSPropertyOp55
 70
     1
102
RTVSPropertyOp56
 70
     1
102
RTVSPropertyOp57
 70
     1
102
RTVSPropertyOp58
 70
     1
102
RTVSPropertyOp59
 70
     1
102
RTVSPropertyOp60
 70
     1
102
RTVSPropertyOp61
 70
     1
102
RTVSPropertyOp62
 70
     1
  0
XRECORD
  5
79CC
102
{ACAD_REACTORS
330
79CB
102
}
330
79CB
100
AcDbXrecord
280
     1
102
RTVSPost2010Prop28
280
     0
102
RTVSPost2010PropOp28
 70
     1
102
RTVSPost2010Prop29
280
     1
102
RTVSPost2010PropOp29
 70
     1
102
RTVSPost2010Prop30
280
     1
102
RTVSPost2010PropOp30
 70
     1
102
RTVSPost2010Prop31
280
     0
102
RTVSPost2010PropOp31
 70
     1
102
RTVSPost2010Prop32
280
     0
102
RTVSPost2010PropOp32
 70
     1
102
RTVSPost2010Prop33
280
     0
102
RTVSPost2010PropOp33
 70
     1
102
RTVSPost2010Prop34
280
     0
102
RTVSPost2010PropOp34
 70
     1
102
RTVSPost2010Prop35
280
     0
102
RTVSPost2010PropOp35
 70
     1
102
RTVSPost2010Prop36
280
     0
102
RTVSPost2010PropOp36
 70
     1
102
RTVSPost2010Prop37
 90
       50
102
RTVSPost2010PropOp37
 70
     1
102
RTVSPost2010Prop38
140
0.0
102
RTVSPost2010PropOp38
 70
     1
102
RTVSPost2010Prop39
140
1.0
102
RTVSPost2010PropOp39
 70
     1
102
RTVSPost2010Prop40
 90
        0
102
RTVSPost2010PropOp40
 70
     1
102
RTVSPost2010Prop41ColorIndex
 90
       18
102
RTVSPost2010Prop41ColorRGB
 90
        0
102
RTVSPost2010PropOp41
 70
     1
102
RTVSPost2010Prop42
 90
       50
102
RTVSPost2010PropOp42
 70
     1
102
RTVSPost2010Prop43
 90
        3
102
RTVSPost2010PropOp43
 70
     1
102
RTVSPost2010Prop44ColorIndex
 90
        5
102
RTVSPost2010Prop44ColorRGB
 90
      255
102
RTVSPost2010PropOp44
 70
     1
102
RTVSPost2010Prop45
280
     0
102
RTVSPost2010PropOp45
 70
     1
102
RTVSPost2010Prop46
 90
       50
102
RTVSPost2010PropOp46
 70
     1
102
RTVSPost2010Prop47
 90
       50
102
RTVSPost2010PropOp47
 70
     1
102
RTVSPost2010Prop48
 90
       50
102
RTVSPost2010PropOp48
 70
     1
102
RTVSPost2010Prop49
280
     0
102
RTVSPost2010PropOp49
 70
     1
102
RTVSPost2010Prop50
 90
       50
102
RTVSPost2010PropOp50
 70
     1
102
RTVSPost2010Prop51ColorIndex
 90
      256
102
RTVSPost2010Prop51ColorRGB
 90
-16777216
102
RTVSPost2010PropOp51
 70
     0
102
RTVSPost2010Prop52
140
1.0
102
RTVSPost2010PropOp52
 70
     0
102
RTVSPost2010Prop53
 90
        2
102
RTVSPost2010PropOp53
 70
     1
102
RTVSPost2010Prop54
  1
strokes_ogs.tif
102
RTVSPost2010PropOp54
 70
     1
102
RTVSPost2010Prop55
280
     0
102
RTVSPost2010PropOp55
 70
     1
102
RTVSPost2010Prop56
140
1.0
102
RTVSPost2010PropOp56
 70
     1
102
RTVSPost2010Prop57
140
1.0
102
RTVSPost2010PropOp57
 70
     1
102
RTVSPropertyOp0
 70
     1
102
RTVSPropertyOp1
 70
     1
102
RTVSPropertyOp2
 70
     1
102
RTVSPropertyOp3
 70
     1
102
RTVSPropertyOp4
 70
     1
102
RTVSPropertyOp5
 70
     1
102
RTVSPropertyOp6
 70
     1
102
RTVSPropertyOp7
 70
     1
102
RTVSPropertyOp8
 70
     1
102
RTVSPropertyOp9
 70
     1
102
RTVSPropertyOp10
 70
     1
102
RTVSPropertyOp11
 70
     1
102
RTVSPropertyOp12
 70
     1
102
RTVSPropertyOp13
 70
     1
102
RTVSPropertyOp14
 70
     1
102
RTVSPropertyOp15
 70
     1
102
RTVSPropertyOp16
 70
     1
102
RTVSPropertyOp17
 70
     1
102
RTVSPropertyOp18
 70
     1
102
RTVSPropertyOp19
 70
     1
102
RTVSPropertyOp20
 70
     1
102
RTVSPropertyOp21
 70
     1
102
RTVSPropertyOp22
 70
     1
102
RTVSPropertyOp23
 70
     1
102
RTVSPropertyOp24
 70
     1
102
RTVSPropertyOp25
 70
     1
102
RTVSPropertyOp26
 70
     1
102
RTVSPropertyOp27
 70
     1
102
RTVSPropertyOp28
 70
     1
102
RTVSPropertyOp29
 70
     1
102
RTVSPropertyOp30
 70
     1
102
RTVSPropertyOp31
 70
     1
102
RTVSPropertyOp32
 70
     1
102
RTVSPropertyOp33
 70
     1
102
RTVSPropertyOp34
 70
     1
102
RTVSPropertyOp35
 70
     1
102
RTVSPropertyOp36
 70
     1
102
RTVSPropertyOp37
 70
     1
102
RTVSPropertyOp38
 70
     1
102
RTVSPropertyOp39
 70
     1
102
RTVSPropertyOp40
 70
     1
102
RTVSPropertyOp41
 70
     1
102
RTVSPropertyOp42
 70
     1
102
RTVSPropertyOp43
 70
     1
102
RTVSPropertyOp44
 70
     1
102
RTVSPropertyOp45
 70
     1
102
RTVSPropertyOp46
 70
     1
102
RTVSPropertyOp47
 70
     1
102
RTVSPropertyOp48
 70
     1
102
RTVSPropertyOp49
 70
     1
102
RTVSPropertyOp50
 70
     1
102
RTVSPropertyOp51
 70
     0
102
RTVSPropertyOp52
 70
     0
102
RTVSPropertyOp53
 70
     1
102
RTVSPropertyOp54
 70
     1
102
RTVSPropertyOp55
 70
     1
102
RTVSPropertyOp56
 70
     1
102
RTVSPropertyOp57
 70
     1
102
RTVSPropertyOp58
 70
     1
102
RTVSPropertyOp59
 70
     1
102
RTVSPropertyOp60
 70
     1
102
RTVSPropertyOp61
 70
     1
102
RTVSPropertyOp62
 70
     1
  0
XRECORD
  5
79DA
102
{ACAD_REACTORS
330
79D9
102
}
330
79D9
100
AcDbXrecord
280
     1
102
RTVSPost2010Prop28
280
     0
102
RTVSPost2010PropOp28
 70
     1
102
RTVSPost2010Prop29
280
     1
102
RTVSPost2010PropOp29
 70
     1
102
RTVSPost2010Prop30
280
     1
102
RTVSPost2010PropOp30
 70
     1
102
RTVSPost2010Prop31
280
     0
102
RTVSPost2010PropOp31
 70
     1
102
RTVSPost2010Prop32
280
     0
102
RTVSPost2010PropOp32
 70
     1
102
RTVSPost2010Prop33
280
     0
102
RTVSPost2010PropOp33
 70
     1
102
RTVSPost2010Prop34
280
     0
102
RTVSPost2010PropOp34
 70
     1
102
RTVSPost2010Prop35
280
     0
102
RTVSPost2010PropOp35
 70
     1
102
RTVSPost2010Prop36
280
     0
102
RTVSPost2010PropOp36
 70
     1
102
RTVSPost2010Prop37
 90
       50
102
RTVSPost2010PropOp37
 70
     1
102
RTVSPost2010Prop38
140
0.0
102
RTVSPost2010PropOp38
 70
     1
102
RTVSPost2010Prop39
140
1.0
102
RTVSPost2010PropOp39
 70
     1
102
RTVSPost2010Prop40
 90
        0
102
RTVSPost2010PropOp40
 70
     1
102
RTVSPost2010Prop41ColorIndex
 90
       18
102
RTVSPost2010Prop41ColorRGB
 90
        0
102
RTVSPost2010PropOp41
 70
     1
102
RTVSPost2010Prop42
 90
       50
102
RTVSPost2010PropOp42
 70
     1
102
RTVSPost2010Prop43
 90
        3
102
RTVSPost2010PropOp43
 70
     1
102
RTVSPost2010Prop44ColorIndex
 90
        5
102
RTVSPost2010Prop44ColorRGB
 90
      255
102
RTVSPost2010PropOp44
 70
     1
102
RTVSPost2010Prop45
280
     0
102
RTVSPost2010PropOp45
 70
     1
102
RTVSPost2010Prop46
 90
       50
102
RTVSPost2010PropOp46
 70
     1
102
RTVSPost2010Prop47
 90
       50
102
RTVSPost2010PropOp47
 70
     1
102
RTVSPost2010Prop48
 90
       50
102
RTVSPost2010PropOp48
 70
     1
102
RTVSPost2010Prop49
280
     0
102
RTVSPost2010PropOp49
 70
     1
102
RTVSPost2010Prop50
 90
       50
102
RTVSPost2010PropOp50
 70
     1
102
RTVSPost2010Prop51ColorIndex
 90
      256
102
RTVSPost2010Prop51ColorRGB
 90
-16777216
102
RTVSPost2010PropOp51
 70
     0
102
RTVSPost2010Prop52
140
1.0
102
RTVSPost2010PropOp52
 70
     0
102
RTVSPost2010Prop53
 90
        2
102
RTVSPost2010PropOp53
 70
     1
102
RTVSPost2010Prop54
  1
strokes_ogs.tif
102
RTVSPost2010PropOp54
 70
     1
102
RTVSPost2010Prop55
280
     0
102
RTVSPost2010PropOp55
 70
     1
102
RTVSPost2010Prop56
140
1.0
102
RTVSPost2010PropOp56
 70
     1
102
RTVSPost2010Prop57
140
1.0
102
RTVSPost2010PropOp57
 70
     1
102
RTVSPropertyOp0
 70
     1
102
RTVSPropertyOp1
 70
     1
102
RTVSPropertyOp2
 70
     1
102
RTVSPropertyOp3
 70
     1
102
RTVSPropertyOp4
 70
     1
102
RTVSPropertyOp5
 70
     1
102
RTVSPropertyOp6
 70
     1
102
RTVSPropertyOp7
 70
     1
102
RTVSPropertyOp8
 70
     1
102
RTVSPropertyOp9
 70
     1
102
RTVSPropertyOp10
 70
     1
102
RTVSPropertyOp11
 70
     1
102
RTVSPropertyOp12
 70
     1
102
RTVSPropertyOp13
 70
     1
102
RTVSPropertyOp14
 70
     1
102
RTVSPropertyOp15
 70
     1
102
RTVSPropertyOp16
 70
     1
102
RTVSPropertyOp17
 70
     1
102
RTVSPropertyOp18
 70
     1
102
RTVSPropertyOp19
 70
     1
102
RTVSPropertyOp20
 70
     1
102
RTVSPropertyOp21
 70
     1
102
RTVSPropertyOp22
 70
     1
102
RTVSPropertyOp23
 70
     1
102
RTVSPropertyOp24
 70
     1
102
RTVSPropertyOp25
 70
     1
102
RTVSPropertyOp26
 70
     1
102
RTVSPropertyOp27
 70
     1
102
RTVSPropertyOp28
 70
     1
102
RTVSPropertyOp29
 70
     1
102
RTVSPropertyOp30
 70
     1
102
RTVSPropertyOp31
 70
     1
102
RTVSPropertyOp32
 70
     1
102
RTVSPropertyOp33
 70
     1
102
RTVSPropertyOp34
 70
     1
102
RTVSPropertyOp35
 70
     1
102
RTVSPropertyOp36
 70
     1
102
RTVSPropertyOp37
 70
     1
102
RTVSPropertyOp38
 70
     1
102
RTVSPropertyOp39
 70
     1
102
RTVSPropertyOp40
 70
     1
102
RTVSPropertyOp41
 70
     1
102
RTVSPropertyOp42
 70
     1
102
RTVSPropertyOp43
 70
     1
102
RTVSPropertyOp44
 70
     1
102
RTVSPropertyOp45
 70
     1
102
RTVSPropertyOp46
 70
     1
102
RTVSPropertyOp47
 70
     1
102
RTVSPropertyOp48
 70
     1
102
RTVSPropertyOp49
 70
     1
102
RTVSPropertyOp50
 70
     1
102
RTVSPropertyOp51
 70
     0
102
RTVSPropertyOp52
 70
     0
102
RTVSPropertyOp53
 70
     1
102
RTVSPropertyOp54
 70
     1
102
RTVSPropertyOp55
 70
     1
102
RTVSPropertyOp56
 70
     1
102
RTVSPropertyOp57
 70
     1
102
RTVSPropertyOp58
 70
     1
102
RTVSPropertyOp59
 70
     1
102
RTVSPropertyOp60
 70
     1
102
RTVSPropertyOp61
 70
     1
102
RTVSPropertyOp62
 70
     1
  0
XRECORD
  5
79E2
102
{ACAD_REACTORS
330
79E1
102
}
330
79E1
100
AcDbXrecord
280
     1
102
RTVSPost2010Prop28
280
     0
102
RTVSPost2010PropOp28
 70
     1
102
RTVSPost2010Prop29
280
     1
102
RTVSPost2010PropOp29
 70
     1
102
RTVSPost2010Prop30
280
     1
102
RTVSPost2010PropOp30
 70
     1
102
RTVSPost2010Prop31
280
     0
102
RTVSPost2010PropOp31
 70
     1
102
RTVSPost2010Prop32
280
     0
102
RTVSPost2010PropOp32
 70
     1
102
RTVSPost2010Prop33
280
     0
102
RTVSPost2010PropOp33
 70
     1
102
RTVSPost2010Prop34
280
     0
102
RTVSPost2010PropOp34
 70
     1
102
RTVSPost2010Prop35
280
     0
102
RTVSPost2010PropOp35
 70
     1
102
RTVSPost2010Prop36
280
     0
102
RTVSPost2010PropOp36
 70
     1
102
RTVSPost2010Prop37
 90
       50
102
RTVSPost2010PropOp37
 70
     1
102
RTVSPost2010Prop38
140
0.0
102
RTVSPost2010PropOp38
 70
     1
102
RTVSPost2010Prop39
140
1.0
102
RTVSPost2010PropOp39
 70
     1
102
RTVSPost2010Prop40
 90
        0
102
RTVSPost2010PropOp40
 70
     1
102
RTVSPost2010Prop41ColorIndex
 90
       18
102
RTVSPost2010Prop41ColorRGB
 90
        0
102
RTVSPost2010PropOp41
 70
     1
102
RTVSPost2010Prop42
 90
       50
102
RTVSPost2010PropOp42
 70
     1
102
RTVSPost2010Prop43
 90
        3
102
RTVSPost2010PropOp43
 70
     1
102
RTVSPost2010Prop44ColorIndex
 90
        5
102
RTVSPost2010Prop44ColorRGB
 90
      255
102
RTVSPost2010PropOp44
 70
     1
102
RTVSPost2010Prop45
280
     0
102
RTVSPost2010PropOp45
 70
     1
102
RTVSPost2010Prop46
 90
       50
102
RTVSPost2010PropOp46
 70
     1
102
RTVSPost2010Prop47
 90
       50
102
RTVSPost2010PropOp47
 70
     1
102
RTVSPost2010Prop48
 90
       50
102
RTVSPost2010PropOp48
 70
     1
102
RTVSPost2010Prop49
280
     0
102
RTVSPost2010PropOp49
 70
     1
102
RTVSPost2010Prop50
 90
       50
102
RTVSPost2010PropOp50
 70
     1
102
RTVSPost2010Prop51ColorIndex
 90
      256
102
RTVSPost2010Prop51ColorRGB
 90
-16777216
102
RTVSPost2010PropOp51
 70
     0
102
RTVSPost2010Prop52
140
1.0
102
RTVSPost2010PropOp52
 70
     0
102
RTVSPost2010Prop53
 90
        2
102
RTVSPost2010PropOp53
 70
     1
102
RTVSPost2010Prop54
  1
strokes_ogs.tif
102
RTVSPost2010PropOp54
 70
     1
102
RTVSPost2010Prop55
280
     0
102
RTVSPost2010PropOp55
 70
     1
102
RTVSPost2010Prop56
140
1.0
102
RTVSPost2010PropOp56
 70
     1
102
RTVSPost2010Prop57
140
1.0
102
RTVSPost2010PropOp57
 70
     1
102
RTVSPropertyOp0
 70
     1
102
RTVSPropertyOp1
 70
     1
102
RTVSPropertyOp2
 70
     1
102
RTVSPropertyOp3
 70
     1
102
RTVSPropertyOp4
 70
     1
102
RTVSPropertyOp5
 70
     1
102
RTVSPropertyOp6
 70
     1
102
RTVSPropertyOp7
 70
     1
102
RTVSPropertyOp8
 70
     1
102
RTVSPropertyOp9
 70
     1
102
RTVSPropertyOp10
 70
     1
102
RTVSPropertyOp11
 70
     1
102
RTVSPropertyOp12
 70
     1
102
RTVSPropertyOp13
 70
     1
102
RTVSPropertyOp14
 70
     1
102
RTVSPropertyOp15
 70
     1
102
RTVSPropertyOp16
 70
     1
102
RTVSPropertyOp17
 70
     1
102
RTVSPropertyOp18
 70
     1
102
RTVSPropertyOp19
 70
     1
102
RTVSPropertyOp20
 70
     1
102
RTVSPropertyOp21
 70
     1
102
RTVSPropertyOp22
 70
     1
102
RTVSPropertyOp23
 70
     1
102
RTVSPropertyOp24
 70
     1
102
RTVSPropertyOp25
 70
     1
102
RTVSPropertyOp26
 70
     1
102
RTVSPropertyOp27
 70
     1
102
RTVSPropertyOp28
 70
     1
102
RTVSPropertyOp29
 70
     1
102
RTVSPropertyOp30
 70
     1
102
RTVSPropertyOp31
 70
     1
102
RTVSPropertyOp32
 70
     1
102
RTVSPropertyOp33
 70
     1
102
RTVSPropertyOp34
 70
     1
102
RTVSPropertyOp35
 70
     1
102
RTVSPropertyOp36
 70
     1
102
RTVSPropertyOp37
 70
     1
102
RTVSPropertyOp38
 70
     1
102
RTVSPropertyOp39
 70
     1
102
RTVSPropertyOp40
 70
     1
102
RTVSPropertyOp41
 70
     1
102
RTVSPropertyOp42
 70
     1
102
RTVSPropertyOp43
 70
     1
102
RTVSPropertyOp44
 70
     1
102
RTVSPropertyOp45
 70
     1
102
RTVSPropertyOp46
 70
     1
102
RTVSPropertyOp47
 70
     1
102
RTVSPropertyOp48
 70
     1
102
RTVSPropertyOp49
 70
     1
102
RTVSPropertyOp50
 70
     1
102
RTVSPropertyOp51
 70
     0
102
RTVSPropertyOp52
 70
     0
102
RTVSPropertyOp53
 70
     1
102
RTVSPropertyOp54
 70
     1
102
RTVSPropertyOp55
 70
     1
102
RTVSPropertyOp56
 70
     1
102
RTVSPropertyOp57
 70
     1
102
RTVSPropertyOp58
 70
     1
102
RTVSPropertyOp59
 70
     1
102
RTVSPropertyOp60
 70
     1
102
RTVSPropertyOp61
 70
     1
102
RTVSPropertyOp62
 70
     1
  0
XRECORD
  5
79D4
102
{ACAD_REACTORS
330
79D3
102
}
330
79D3
100
AcDbXrecord
280
     1
102
RTVSPost2010Prop28
280
     0
102
RTVSPost2010PropOp28
 70
     1
102
RTVSPost2010Prop29
280
     1
102
RTVSPost2010PropOp29
 70
     1
102
RTVSPost2010Prop30
280
     1
102
RTVSPost2010PropOp30
 70
     1
102
RTVSPost2010Prop31
280
     0
102
RTVSPost2010PropOp31
 70
     1
102
RTVSPost2010Prop32
280
     0
102
RTVSPost2010PropOp32
 70
     1
102
RTVSPost2010Prop33
280
     0
102
RTVSPost2010PropOp33
 70
     1
102
RTVSPost2010Prop34
280
     0
102
RTVSPost2010PropOp34
 70
     1
102
RTVSPost2010Prop35
280
     0
102
RTVSPost2010PropOp35
 70
     1
102
RTVSPost2010Prop36
280
     0
102
RTVSPost2010PropOp36
 70
     1
102
RTVSPost2010Prop37
 90
       50
102
RTVSPost2010PropOp37
 70
     1
102
RTVSPost2010Prop38
140
0.0
102
RTVSPost2010PropOp38
 70
     1
102
RTVSPost2010Prop39
140
1.0
102
RTVSPost2010PropOp39
 70
     1
102
RTVSPost2010Prop40
 90
        0
102
RTVSPost2010PropOp40
 70
     1
102
RTVSPost2010Prop41ColorIndex
 90
       18
102
RTVSPost2010Prop41ColorRGB
 90
        0
102
RTVSPost2010PropOp41
 70
     1
102
RTVSPost2010Prop42
 90
       50
102
RTVSPost2010PropOp42
 70
     1
102
RTVSPost2010Prop43
 90
        3
102
RTVSPost2010PropOp43
 70
     1
102
RTVSPost2010Prop44ColorIndex
 90
        5
102
RTVSPost2010Prop44ColorRGB
 90
      255
102
RTVSPost2010PropOp44
 70
     1
102
RTVSPost2010Prop45
280
     0
102
RTVSPost2010PropOp45
 70
     1
102
RTVSPost2010Prop46
 90
       50
102
RTVSPost2010PropOp46
 70
     1
102
RTVSPost2010Prop47
 90
       50
102
RTVSPost2010PropOp47
 70
     1
102
RTVSPost2010Prop48
 90
       50
102
RTVSPost2010PropOp48
 70
     1
102
RTVSPost2010Prop49
280
     0
102
RTVSPost2010PropOp49
 70
     1
102
RTVSPost2010Prop50
 90
       50
102
RTVSPost2010PropOp50
 70
     1
102
RTVSPost2010Prop51ColorIndex
 90
      256
102
RTVSPost2010Prop51ColorRGB
 90
-16777216
102
RTVSPost2010PropOp51
 70
     0
102
RTVSPost2010Prop52
140
1.0
102
RTVSPost2010PropOp52
 70
     0
102
RTVSPost2010Prop53
 90
        2
102
RTVSPost2010PropOp53
 70
     1
102
RTVSPost2010Prop54
  1
strokes_ogs.tif
102
RTVSPost2010PropOp54
 70
     1
102
RTVSPost2010Prop55
280
     0
102
RTVSPost2010PropOp55
 70
     1
102
RTVSPost2010Prop56
140
1.0
102
RTVSPost2010PropOp56
 70
     1
102
RTVSPost2010Prop57
140
1.0
102
RTVSPost2010PropOp57
 70
     1
102
RTVSPropertyOp0
 70
     1
102
RTVSPropertyOp1
 70
     1
102
RTVSPropertyOp2
 70
     1
102
RTVSPropertyOp3
 70
     1
102
RTVSPropertyOp4
 70
     1
102
RTVSPropertyOp5
 70
     1
102
RTVSPropertyOp6
 70
     1
102
RTVSPropertyOp7
 70
     1
102
RTVSPropertyOp8
 70
     1
102
RTVSPropertyOp9
 70
     1
102
RTVSPropertyOp10
 70
     1
102
RTVSPropertyOp11
 70
     1
102
RTVSPropertyOp12
 70
     1
102
RTVSPropertyOp13
 70
     1
102
RTVSPropertyOp14
 70
     1
102
RTVSPropertyOp15
 70
     1
102
RTVSPropertyOp16
 70
     1
102
RTVSPropertyOp17
 70
     1
102
RTVSPropertyOp18
 70
     1
102
RTVSPropertyOp19
 70
     1
102
RTVSPropertyOp20
 70
     1
102
RTVSPropertyOp21
 70
     1
102
RTVSPropertyOp22
 70
     1
102
RTVSPropertyOp23
 70
     1
102
RTVSPropertyOp24
 70
     1
102
RTVSPropertyOp25
 70
     1
102
RTVSPropertyOp26
 70
     1
102
RTVSPropertyOp27
 70
     1
102
RTVSPropertyOp28
 70
     1
102
RTVSPropertyOp29
 70
     1
102
RTVSPropertyOp30
 70
     1
102
RTVSPropertyOp31
 70
     1
102
RTVSPropertyOp32
 70
     1
102
RTVSPropertyOp33
 70
     1
102
RTVSPropertyOp34
 70
     1
102
RTVSPropertyOp35
 70
     1
102
RTVSPropertyOp36
 70
     1
102
RTVSPropertyOp37
 70
     1
102
RTVSPropertyOp38
 70
     1
102
RTVSPropertyOp39
 70
     1
102
RTVSPropertyOp40
 70
     1
102
RTVSPropertyOp41
 70
     1
102
RTVSPropertyOp42
 70
     1
102
RTVSPropertyOp43
 70
     1
102
RTVSPropertyOp44
 70
     1
102
RTVSPropertyOp45
 70
     1
102
RTVSPropertyOp46
 70
     1
102
RTVSPropertyOp47
 70
     1
102
RTVSPropertyOp48
 70
     1
102
RTVSPropertyOp49
 70
     1
102
RTVSPropertyOp50
 70
     1
102
RTVSPropertyOp51
 70
     0
102
RTVSPropertyOp52
 70
     0
102
RTVSPropertyOp53
 70
     1
102
RTVSPropertyOp54
 70
     1
102
RTVSPropertyOp55
 70
     1
102
RTVSPropertyOp56
 70
     1
102
RTVSPropertyOp57
 70
     1
102
RTVSPropertyOp58
 70
     1
102
RTVSPropertyOp59
 70
     1
102
RTVSPropertyOp60
 70
     1
102
RTVSPropertyOp61
 70
     1
102
RTVSPropertyOp62
 70
     1
  0
XRECORD
  5
79D8
102
{ACAD_REACTORS
330
79D7
102
}
330
79D7
100
AcDbXrecord
280
     1
102
RTVSPost2010Prop28
280
     0
102
RTVSPost2010PropOp28
 70
     1
102
RTVSPost2010Prop29
280
     1
102
RTVSPost2010PropOp29
 70
     1
102
RTVSPost2010Prop30
280
     1
102
RTVSPost2010PropOp30
 70
     1
102
RTVSPost2010Prop31
280
     0
102
RTVSPost2010PropOp31
 70
     1
102
RTVSPost2010Prop32
280
     0
102
RTVSPost2010PropOp32
 70
     1
102
RTVSPost2010Prop33
280
     0
102
RTVSPost2010PropOp33
 70
     1
102
RTVSPost2010Prop34
280
     0
102
RTVSPost2010PropOp34
 70
     1
102
RTVSPost2010Prop35
280
     0
102
RTVSPost2010PropOp35
 70
     1
102
RTVSPost2010Prop36
280
     0
102
RTVSPost2010PropOp36
 70
     1
102
RTVSPost2010Prop37
 90
       50
102
RTVSPost2010PropOp37
 70
     1
102
RTVSPost2010Prop38
140
0.0
102
RTVSPost2010PropOp38
 70
     1
102
RTVSPost2010Prop39
140
1.0
102
RTVSPost2010PropOp39
 70
     1
102
RTVSPost2010Prop40
 90
        0
102
RTVSPost2010PropOp40
 70
     1
102
RTVSPost2010Prop41ColorIndex
 90
       18
102
RTVSPost2010Prop41ColorRGB
 90
        0
102
RTVSPost2010PropOp41
 70
     1
102
RTVSPost2010Prop42
 90
       50
102
RTVSPost2010PropOp42
 70
     1
102
RTVSPost2010Prop43
 90
        3
102
RTVSPost2010PropOp43
 70
     1
102
RTVSPost2010Prop44ColorIndex
 90
        5
102
RTVSPost2010Prop44ColorRGB
 90
      255
102
RTVSPost2010PropOp44
 70
     1
102
RTVSPost2010Prop45
280
     0
102
RTVSPost2010PropOp45
 70
     1
102
RTVSPost2010Prop46
 90
       50
102
RTVSPost2010PropOp46
 70
     1
102
RTVSPost2010Prop47
 90
       50
102
RTVSPost2010PropOp47
 70
     1
102
RTVSPost2010Prop48
 90
       50
102
RTVSPost2010PropOp48
 70
     1
102
RTVSPost2010Prop49
280
     0
102
RTVSPost2010PropOp49
 70
     1
102
RTVSPost2010Prop50
 90
       50
102
RTVSPost2010PropOp50
 70
     1
102
RTVSPost2010Prop51ColorIndex
 90
      256
102
RTVSPost2010Prop51ColorRGB
 90
-16777216
102
RTVSPost2010PropOp51
 70
     0
102
RTVSPost2010Prop52
140
1.0
102
RTVSPost2010PropOp52
 70
     0
102
RTVSPost2010Prop53
 90
        2
102
RTVSPost2010PropOp53
 70
     1
102
RTVSPost2010Prop54
  1
strokes_ogs.tif
102
RTVSPost2010PropOp54
 70
     1
102
RTVSPost2010Prop55
280
     0
102
RTVSPost2010PropOp55
 70
     1
102
RTVSPost2010Prop56
140
1.0
102
RTVSPost2010PropOp56
 70
     1
102
RTVSPost2010Prop57
140
1.0
102
RTVSPost2010PropOp57
 70
     1
102
RTVSPropertyOp0
 70
     1
102
RTVSPropertyOp1
 70
     1
102
RTVSPropertyOp2
 70
     1
102
RTVSPropertyOp3
 70
     1
102
RTVSPropertyOp4
 70
     1
102
RTVSPropertyOp5
 70
     1
102
RTVSPropertyOp6
 70
     1
102
RTVSPropertyOp7
 70
     1
102
RTVSPropertyOp8
 70
     1
102
RTVSPropertyOp9
 70
     1
102
RTVSPropertyOp10
 70
     1
102
RTVSPropertyOp11
 70
     1
102
RTVSPropertyOp12
 70
     1
102
RTVSPropertyOp13
 70
     1
102
RTVSPropertyOp14
 70
     1
102
RTVSPropertyOp15
 70
     1
102
RTVSPropertyOp16
 70
     1
102
RTVSPropertyOp17
 70
     1
102
RTVSPropertyOp18
 70
     1
102
RTVSPropertyOp19
 70
     1
102
RTVSPropertyOp20
 70
     1
102
RTVSPropertyOp21
 70
     1
102
RTVSPropertyOp22
 70
     1
102
RTVSPropertyOp23
 70
     1
102
RTVSPropertyOp24
 70
     1
102
RTVSPropertyOp25
 70
     1
102
RTVSPropertyOp26
 70
     1
102
RTVSPropertyOp27
 70
     1
102
RTVSPropertyOp28
 70
     1
102
RTVSPropertyOp29
 70
     1
102
RTVSPropertyOp30
 70
     1
102
RTVSPropertyOp31
 70
     1
102
RTVSPropertyOp32
 70
     1
102
RTVSPropertyOp33
 70
     1
102
RTVSPropertyOp34
 70
     1
102
RTVSPropertyOp35
 70
     1
102
RTVSPropertyOp36
 70
     1
102
RTVSPropertyOp37
 70
     1
102
RTVSPropertyOp38
 70
     1
102
RTVSPropertyOp39
 70
     1
102
RTVSPropertyOp40
 70
     1
102
RTVSPropertyOp41
 70
     1
102
RTVSPropertyOp42
 70
     1
102
RTVSPropertyOp43
 70
     1
102
RTVSPropertyOp44
 70
     1
102
RTVSPropertyOp45
 70
     1
102
RTVSPropertyOp46
 70
     1
102
RTVSPropertyOp47
 70
     1
102
RTVSPropertyOp48
 70
     1
102
RTVSPropertyOp49
 70
     1
102
RTVSPropertyOp50
 70
     1
102
RTVSPropertyOp51
 70
     0
102
RTVSPropertyOp52
 70
     0
102
RTVSPropertyOp53
 70
     1
102
RTVSPropertyOp54
 70
     1
102
RTVSPropertyOp55
 70
     1
102
RTVSPropertyOp56
 70
     1
102
RTVSPropertyOp57
 70
     1
102
RTVSPropertyOp58
 70
     1
102
RTVSPropertyOp59
 70
     1
102
RTVSPropertyOp60
 70
     1
102
RTVSPropertyOp61
 70
     1
102
RTVSPropertyOp62
 70
     1
  0
XRECORD
  5
79F8
102
{ACAD_REACTORS
330
79F7
102
}
330
79F7
100
AcDbXrecord
280
     1
102
RTVSPost2010Prop28
280
     0
102
RTVSPost2010PropOp28
 70
     0
102
RTVSPost2010Prop29
280
     1
102
RTVSPost2010PropOp29
 70
     0
102
RTVSPost2010Prop30
280
     1
102
RTVSPost2010PropOp30
 70
     0
102
RTVSPost2010Prop31
280
     0
102
RTVSPost2010PropOp31
 70
     0
102
RTVSPost2010Prop32
280
     0
102
RTVSPost2010PropOp32
 70
     0
102
RTVSPost2010Prop33
280
     0
102
RTVSPost2010PropOp33
 70
     0
102
RTVSPost2010Prop34
280
     0
102
RTVSPost2010PropOp34
 70
     0
102
RTVSPost2010Prop35
280
     0
102
RTVSPost2010PropOp35
 70
     0
102
RTVSPost2010Prop36
280
     0
102
RTVSPost2010PropOp36
 70
     0
102
RTVSPost2010Prop37
 90
       50
102
RTVSPost2010PropOp37
 70
     0
102
RTVSPost2010Prop38
140
0.0
102
RTVSPost2010PropOp38
 70
     0
102
RTVSPost2010Prop39
140
1.0
102
RTVSPost2010PropOp39
 70
     0
102
RTVSPost2010Prop40
 90
        0
102
RTVSPost2010PropOp40
 70
     0
102
RTVSPost2010Prop41ColorIndex
 90
       18
102
RTVSPost2010Prop41ColorRGB
 90
        0
102
RTVSPost2010PropOp41
 70
     0
102
RTVSPost2010Prop42
 90
       50
102
RTVSPost2010PropOp42
 70
     0
102
RTVSPost2010Prop43
 90
        3
102
RTVSPost2010PropOp43
 70
     0
102
RTVSPost2010Prop44ColorIndex
 90
        5
102
RTVSPost2010Prop44ColorRGB
 90
      255
102
RTVSPost2010PropOp44
 70
     0
102
RTVSPost2010Prop45
280
     0
102
RTVSPost2010PropOp45
 70
     0
102
RTVSPost2010Prop46
 90
       50
102
RTVSPost2010PropOp46
 70
     0
102
RTVSPost2010Prop47
 90
       50
102
RTVSPost2010PropOp47
 70
     0
102
RTVSPost2010Prop48
 90
       50
102
RTVSPost2010PropOp48
 70
     0
102
RTVSPost2010Prop49
280
     0
102
RTVSPost2010PropOp49
 70
     0
102
RTVSPost2010Prop50
 90
       50
102
RTVSPost2010PropOp50
 70
     0
102
RTVSPost2010Prop51ColorIndex
 90
      256
102
RTVSPost2010Prop51ColorRGB
 90
-16777216
102
RTVSPost2010PropOp51
 70
     0
102
RTVSPost2010Prop52
140
1.0
102
RTVSPost2010PropOp52
 70
     0
102
RTVSPost2010Prop53
 90
        2
102
RTVSPost2010PropOp53
 70
     0
102
RTVSPost2010Prop54
  1
strokes_ogs.tif
102
RTVSPost2010PropOp54
 70
     0
102
RTVSPost2010Prop55
280
     0
102
RTVSPost2010PropOp55
 70
     0
102
RTVSPost2010Prop56
140
1.0
102
RTVSPost2010PropOp56
 70
     0
102
RTVSPost2010Prop57
140
1.0
102
RTVSPost2010PropOp57
 70
     0
102
RTVSPropertyOp0
 70
     0
102
RTVSPropertyOp1
 70
     0
102
RTVSPropertyOp2
 70
     0
102
RTVSPropertyOp3
 70
     0
102
RTVSPropertyOp4
 70
     0
102
RTVSPropertyOp5
 70
     0
102
RTVSPropertyOp6
 70
     0
102
RTVSPropertyOp7
 70
     0
102
RTVSPropertyOp8
 70
     0
102
RTVSPropertyOp9
 70
     0
102
RTVSPropertyOp10
 70
     0
102
RTVSPropertyOp11
 70
     0
102
RTVSPropertyOp12
 70
     0
102
RTVSPropertyOp13
 70
     0
102
RTVSPropertyOp14
 70
     2
102
RTVSPropertyOp15
 70
     0
102
RTVSPropertyOp16
 70
     0
102
RTVSPropertyOp17
 70
     0
102
RTVSPropertyOp18
 70
     0
102
RTVSPropertyOp19
 70
     0
102
RTVSPropertyOp20
 70
     0
102
RTVSPropertyOp21
 70
     0
102
RTVSPropertyOp22
 70
     0
102
RTVSPropertyOp23
 70
     0
102
RTVSPropertyOp24
 70
     0
102
RTVSPropertyOp25
 70
     0
102
RTVSPropertyOp26
 70
     0
102
RTVSPropertyOp27
 70
     0
102
RTVSPropertyOp28
 70
     0
102
RTVSPropertyOp29
 70
     0
102
RTVSPropertyOp30
 70
     0
102
RTVSPropertyOp31
 70
     0
102
RTVSPropertyOp32
 70
     0
102
RTVSPropertyOp33
 70
     0
102
RTVSPropertyOp34
 70
     0
102
RTVSPropertyOp35
 70
     0
102
RTVSPropertyOp36
 70
     0
102
RTVSPropertyOp37
 70
     0
102
RTVSPropertyOp38
 70
     0
102
RTVSPropertyOp39
 70
     0
102
RTVSPropertyOp40
 70
     0
102
RTVSPropertyOp41
 70
     0
102
RTVSPropertyOp42
 70
     0
102
RTVSPropertyOp43
 70
     0
102
RTVSPropertyOp44
 70
     0
102
RTVSPropertyOp45
 70
     0
102
RTVSPropertyOp46
 70
     0
102
RTVSPropertyOp47
 70
     0
102
RTVSPropertyOp48
 70
     0
102
RTVSPropertyOp49
 70
     0
102
RTVSPropertyOp50
 70
     0
102
RTVSPropertyOp51
 70
     0
102
RTVSPropertyOp52
 70
     0
102
RTVSPropertyOp53
 70
     0
102
RTVSPropertyOp54
 70
     0
102
RTVSPropertyOp55
 70
     0
102
RTVSPropertyOp56
 70
     0
102
RTVSPropertyOp57
 70
     0
102
RTVSPropertyOp58
 70
     0
102
RTVSPropertyOp59
 70
     0
102
RTVSPropertyOp60
 70
     0
102
RTVSPropertyOp61
 70
     0
102
RTVSPropertyOp62
 70
     0
  0
XRECORD
  5
79E0
102
{ACAD_REACTORS
330
79DF
102
}
330
79DF
100
AcDbXrecord
280
     1
102
RTVSPost2010Prop28
280
     0
102
RTVSPost2010PropOp28
 70
     1
102
RTVSPost2010Prop29
280
     1
102
RTVSPost2010PropOp29
 70
     1
102
RTVSPost2010Prop30
280
     1
102
RTVSPost2010PropOp30
 70
     1
102
RTVSPost2010Prop31
280
     0
102
RTVSPost2010PropOp31
 70
     1
102
RTVSPost2010Prop32
280
     0
102
RTVSPost2010PropOp32
 70
     1
102
RTVSPost2010Prop33
280
     0
102
RTVSPost2010PropOp33
 70
     1
102
RTVSPost2010Prop34
280
     0
102
RTVSPost2010PropOp34
 70
     1
102
RTVSPost2010Prop35
280
     0
102
RTVSPost2010PropOp35
 70
     1
102
RTVSPost2010Prop36
280
     0
102
RTVSPost2010PropOp36
 70
     1
102
RTVSPost2010Prop37
 90
       50
102
RTVSPost2010PropOp37
 70
     1
102
RTVSPost2010Prop38
140
0.0
102
RTVSPost2010PropOp38
 70
     1
102
RTVSPost2010Prop39
140
1.0
102
RTVSPost2010PropOp39
 70
     1
102
RTVSPost2010Prop40
 90
        0
102
RTVSPost2010PropOp40
 70
     1
102
RTVSPost2010Prop41ColorIndex
 90
       18
102
RTVSPost2010Prop41ColorRGB
 90
        0
102
RTVSPost2010PropOp41
 70
     1
102
RTVSPost2010Prop42
 90
       50
102
RTVSPost2010PropOp42
 70
     1
102
RTVSPost2010Prop43
 90
        3
102
RTVSPost2010PropOp43
 70
     1
102
RTVSPost2010Prop44ColorIndex
 90
        5
102
RTVSPost2010Prop44ColorRGB
 90
      255
102
RTVSPost2010PropOp44
 70
     1
102
RTVSPost2010Prop45
280
     0
102
RTVSPost2010PropOp45
 70
     1
102
RTVSPost2010Prop46
 90
       50
102
RTVSPost2010PropOp46
 70
     1
102
RTVSPost2010Prop47
 90
       50
102
RTVSPost2010PropOp47
 70
     1
102
RTVSPost2010Prop48
 90
       50
102
RTVSPost2010PropOp48
 70
     1
102
RTVSPost2010Prop49
280
     0
102
RTVSPost2010PropOp49
 70
     1
102
RTVSPost2010Prop50
 90
       50
102
RTVSPost2010PropOp50
 70
     1
102
RTVSPost2010Prop51ColorIndex
 90
      256
102
RTVSPost2010Prop51ColorRGB
 90
-16777216
102
RTVSPost2010PropOp51
 70
     0
102
RTVSPost2010Prop52
140
1.0
102
RTVSPost2010PropOp52
 70
     0
102
RTVSPost2010Prop53
 90
        2
102
RTVSPost2010PropOp53
 70
     1
102
RTVSPost2010Prop54
  1
strokes_ogs.tif
102
RTVSPost2010PropOp54
 70
     1
102
RTVSPost2010Prop55
280
     0
102
RTVSPost2010PropOp55
 70
     1
102
RTVSPost2010Prop56
140
1.0
102
RTVSPost2010PropOp56
 70
     1
102
RTVSPost2010Prop57
140
1.0
102
RTVSPost2010PropOp57
 70
     1
102
RTVSPropertyOp0
 70
     1
102
RTVSPropertyOp1
 70
     1
102
RTVSPropertyOp2
 70
     1
102
RTVSPropertyOp3
 70
     1
102
RTVSPropertyOp4
 70
     1
102
RTVSPropertyOp5
 70
     1
102
RTVSPropertyOp6
 70
     1
102
RTVSPropertyOp7
 70
     1
102
RTVSPropertyOp8
 70
     1
102
RTVSPropertyOp9
 70
     1
102
RTVSPropertyOp10
 70
     1
102
RTVSPropertyOp11
 70
     1
102
RTVSPropertyOp12
 70
     1
102
RTVSPropertyOp13
 70
     1
102
RTVSPropertyOp14
 70
     1
102
RTVSPropertyOp15
 70
     1
102
RTVSPropertyOp16
 70
     1
102
RTVSPropertyOp17
 70
     1
102
RTVSPropertyOp18
 70
     1
102
RTVSPropertyOp19
 70
     1
102
RTVSPropertyOp20
 70
     1
102
RTVSPropertyOp21
 70
     1
102
RTVSPropertyOp22
 70
     1
102
RTVSPropertyOp23
 70
     1
102
RTVSPropertyOp24
 70
     1
102
RTVSPropertyOp25
 70
     1
102
RTVSPropertyOp26
 70
     1
102
RTVSPropertyOp27
 70
     1
102
RTVSPropertyOp28
 70
     1
102
RTVSPropertyOp29
 70
     1
102
RTVSPropertyOp30
 70
     1
102
RTVSPropertyOp31
 70
     1
102
RTVSPropertyOp32
 70
     1
102
RTVSPropertyOp33
 70
     1
102
RTVSPropertyOp34
 70
     1
102
RTVSPropertyOp35
 70
     1
102
RTVSPropertyOp36
 70
     1
102
RTVSPropertyOp37
 70
     1
102
RTVSPropertyOp38
 70
     1
102
RTVSPropertyOp39
 70
     1
102
RTVSPropertyOp40
 70
     1
102
RTVSPropertyOp41
 70
     1
102
RTVSPropertyOp42
 70
     1
102
RTVSPropertyOp43
 70
     1
102
RTVSPropertyOp44
 70
     1
102
RTVSPropertyOp45
 70
     1
102
RTVSPropertyOp46
 70
     1
102
RTVSPropertyOp47
 70
     1
102
RTVSPropertyOp48
 70
     1
102
RTVSPropertyOp49
 70
     1
102
RTVSPropertyOp50
 70
     1
102
RTVSPropertyOp51
 70
     0
102
RTVSPropertyOp52
 70
     0
102
RTVSPropertyOp53
 70
     1
102
RTVSPropertyOp54
 70
     1
102
RTVSPropertyOp55
 70
     1
102
RTVSPropertyOp56
 70
     1
102
RTVSPropertyOp57
 70
     1
102
RTVSPropertyOp58
 70
     1
102
RTVSPropertyOp59
 70
     1
102
RTVSPropertyOp60
 70
     1
102
RTVSPropertyOp61
 70
     1
102
RTVSPropertyOp62
 70
     1
  0
XRECORD
  5
79C4
102
{ACAD_REACTORS
330
79C3
102
}
330
79C3
100
AcDbXrecord
280
     1
102
RTVSPost2010Prop28
280
     0
102
RTVSPost2010PropOp28
 70
     1
102
RTVSPost2010Prop29
280
     1
102
RTVSPost2010PropOp29
 70
     1
102
RTVSPost2010Prop30
280
     1
102
RTVSPost2010PropOp30
 70
     1
102
RTVSPost2010Prop31
280
     0
102
RTVSPost2010PropOp31
 70
     1
102
RTVSPost2010Prop32
280
     0
102
RTVSPost2010PropOp32
 70
     1
102
RTVSPost2010Prop33
280
     0
102
RTVSPost2010PropOp33
 70
     1
102
RTVSPost2010Prop34
280
     0
102
RTVSPost2010PropOp34
 70
     1
102
RTVSPost2010Prop35
280
     0
102
RTVSPost2010PropOp35
 70
     1
102
RTVSPost2010Prop36
280
     0
102
RTVSPost2010PropOp36
 70
     1
102
RTVSPost2010Prop37
 90
       50
102
RTVSPost2010PropOp37
 70
     1
102
RTVSPost2010Prop38
140
0.0
102
RTVSPost2010PropOp38
 70
     1
102
RTVSPost2010Prop39
140
1.0
102
RTVSPost2010PropOp39
 70
     1
102
RTVSPost2010Prop40
 90
        0
102
RTVSPost2010PropOp40
 70
     1
102
RTVSPost2010Prop41ColorIndex
 90
       18
102
RTVSPost2010Prop41ColorRGB
 90
        0
102
RTVSPost2010PropOp41
 70
     1
102
RTVSPost2010Prop42
 90
       50
102
RTVSPost2010PropOp42
 70
     1
102
RTVSPost2010Prop43
 90
        3
102
RTVSPost2010PropOp43
 70
     1
102
RTVSPost2010Prop44ColorIndex
 90
        5
102
RTVSPost2010Prop44ColorRGB
 90
      255
102
RTVSPost2010PropOp44
 70
     1
102
RTVSPost2010Prop45
280
     0
102
RTVSPost2010PropOp45
 70
     1
102
RTVSPost2010Prop46
 90
       50
102
RTVSPost2010PropOp46
 70
     1
102
RTVSPost2010Prop47
 90
       50
102
RTVSPost2010PropOp47
 70
     1
102
RTVSPost2010Prop48
 90
       50
102
RTVSPost2010PropOp48
 70
     1
102
RTVSPost2010Prop49
280
     0
102
RTVSPost2010PropOp49
 70
     1
102
RTVSPost2010Prop50
 90
       50
102
RTVSPost2010PropOp50
 70
     1
102
RTVSPost2010Prop51ColorIndex
 90
      256
102
RTVSPost2010Prop51ColorRGB
 90
-16777216
102
RTVSPost2010PropOp51
 70
     0
102
RTVSPost2010Prop52
140
1.0
102
RTVSPost2010PropOp52
 70
     0
102
RTVSPost2010Prop53
 90
        2
102
RTVSPost2010PropOp53
 70
     1
102
RTVSPost2010Prop54
  1
strokes_ogs.tif
102
RTVSPost2010PropOp54
 70
     1
102
RTVSPost2010Prop55
280
     0
102
RTVSPost2010PropOp55
 70
     1
102
RTVSPost2010Prop56
140
1.0
102
RTVSPost2010PropOp56
 70
     1
102
RTVSPost2010Prop57
140
1.0
102
RTVSPost2010PropOp57
 70
     1
102
RTVSPropertyOp0
 70
     1
102
RTVSPropertyOp1
 70
     1
102
RTVSPropertyOp2
 70
     1
102
RTVSPropertyOp3
 70
     1
102
RTVSPropertyOp4
 70
     1
102
RTVSPropertyOp5
 70
     1
102
RTVSPropertyOp6
 70
     1
102
RTVSPropertyOp7
 70
     1
102
RTVSPropertyOp8
 70
     1
102
RTVSPropertyOp9
 70
     1
102
RTVSPropertyOp10
 70
     1
102
RTVSPropertyOp11
 70
     1
102
RTVSPropertyOp12
 70
     1
102
RTVSPropertyOp13
 70
     1
102
RTVSPropertyOp14
 70
     1
102
RTVSPropertyOp15
 70
     1
102
RTVSPropertyOp16
 70
     1
102
RTVSPropertyOp17
 70
     1
102
RTVSPropertyOp18
 70
     1
102
RTVSPropertyOp19
 70
     1
102
RTVSPropertyOp20
 70
     1
102
RTVSPropertyOp21
 70
     1
102
RTVSPropertyOp22
 70
     1
102
RTVSPropertyOp23
 70
     1
102
RTVSPropertyOp24
 70
     1
102
RTVSPropertyOp25
 70
     1
102
RTVSPropertyOp26
 70
     1
102
RTVSPropertyOp27
 70
     1
102
RTVSPropertyOp28
 70
     1
102
RTVSPropertyOp29
 70
     1
102
RTVSPropertyOp30
 70
     1
102
RTVSPropertyOp31
 70
     1
102
RTVSPropertyOp32
 70
     1
102
RTVSPropertyOp33
 70
     1
102
RTVSPropertyOp34
 70
     1
102
RTVSPropertyOp35
 70
     1
102
RTVSPropertyOp36
 70
     1
102
RTVSPropertyOp37
 70
     1
102
RTVSPropertyOp38
 70
     1
102
RTVSPropertyOp39
 70
     1
102
RTVSPropertyOp40
 70
     1
102
RTVSPropertyOp41
 70
     1
102
RTVSPropertyOp42
 70
     1
102
RTVSPropertyOp43
 70
     1
102
RTVSPropertyOp44
 70
     1
102
RTVSPropertyOp45
 70
     1
102
RTVSPropertyOp46
 70
     1
102
RTVSPropertyOp47
 70
     1
102
RTVSPropertyOp48
 70
     1
102
RTVSPropertyOp49
 70
     1
102
RTVSPropertyOp50
 70
     1
102
RTVSPropertyOp51
 70
     0
102
RTVSPropertyOp52
 70
     0
102
RTVSPropertyOp53
 70
     1
102
RTVSPropertyOp54
 70
     1
102
RTVSPropertyOp55
 70
     1
102
RTVSPropertyOp56
 70
     1
102
RTVSPropertyOp57
 70
     1
102
RTVSPropertyOp58
 70
     1
102
RTVSPropertyOp59
 70
     1
102
RTVSPropertyOp60
 70
     1
102
RTVSPropertyOp61
 70
     1
102
RTVSPropertyOp62
 70
     1
  0
XRECORD
  5
79C6
102
{ACAD_REACTORS
330
79C5
102
}
330
79C5
100
AcDbXrecord
280
     1
102
RTVSPost2010Prop28
280
     0
102
RTVSPost2010PropOp28
 70
     1
102
RTVSPost2010Prop29
280
     1
102
RTVSPost2010PropOp29
 70
     1
102
RTVSPost2010Prop30
280
     1
102
RTVSPost2010PropOp30
 70
     1
102
RTVSPost2010Prop31
280
     0
102
RTVSPost2010PropOp31
 70
     1
102
RTVSPost2010Prop32
280
     0
102
RTVSPost2010PropOp32
 70
     1
102
RTVSPost2010Prop33
280
     0
102
RTVSPost2010PropOp33
 70
     1
102
RTVSPost2010Prop34
280
     0
102
RTVSPost2010PropOp34
 70
     1
102
RTVSPost2010Prop35
280
     0
102
RTVSPost2010PropOp35
 70
     1
102
RTVSPost2010Prop36
280
     0
102
RTVSPost2010PropOp36
 70
     1
102
RTVSPost2010Prop37
 90
       50
102
RTVSPost2010PropOp37
 70
     1
102
RTVSPost2010Prop38
140
0.0
102
RTVSPost2010PropOp38
 70
     1
102
RTVSPost2010Prop39
140
1.0
102
RTVSPost2010PropOp39
 70
     1
102
RTVSPost2010Prop40
 90
        0
102
RTVSPost2010PropOp40
 70
     1
102
RTVSPost2010Prop41ColorIndex
 90
       18
102
RTVSPost2010Prop41ColorRGB
 90
        0
102
RTVSPost2010PropOp41
 70
     1
102
RTVSPost2010Prop42
 90
       50
102
RTVSPost2010PropOp42
 70
     1
102
RTVSPost2010Prop43
 90
        3
102
RTVSPost2010PropOp43
 70
     1
102
RTVSPost2010Prop44ColorIndex
 90
        5
102
RTVSPost2010Prop44ColorRGB
 90
      255
102
RTVSPost2010PropOp44
 70
     1
102
RTVSPost2010Prop45
280
     0
102
RTVSPost2010PropOp45
 70
     1
102
RTVSPost2010Prop46
 90
       50
102
RTVSPost2010PropOp46
 70
     1
102
RTVSPost2010Prop47
 90
       50
102
RTVSPost2010PropOp47
 70
     1
102
RTVSPost2010Prop48
 90
       50
102
RTVSPost2010PropOp48
 70
     1
102
RTVSPost2010Prop49
280
     0
102
RTVSPost2010PropOp49
 70
     1
102
RTVSPost2010Prop50
 90
       50
102
RTVSPost2010PropOp50
 70
     1
102
RTVSPost2010Prop51ColorIndex
 90
      256
102
RTVSPost2010Prop51ColorRGB
 90
-16777216
102
RTVSPost2010PropOp51
 70
     0
102
RTVSPost2010Prop52
140
1.0
102
RTVSPost2010PropOp52
 70
     0
102
RTVSPost2010Prop53
 90
        2
102
RTVSPost2010PropOp53
 70
     1
102
RTVSPost2010Prop54
  1
strokes_ogs.tif
102
RTVSPost2010PropOp54
 70
     1
102
RTVSPost2010Prop55
280
     0
102
RTVSPost2010PropOp55
 70
     1
102
RTVSPost2010Prop56
140
1.0
102
RTVSPost2010PropOp56
 70
     1
102
RTVSPost2010Prop57
140
1.0
102
RTVSPost2010PropOp57
 70
     1
102
RTVSPropertyOp0
 70
     1
102
RTVSPropertyOp1
 70
     1
102
RTVSPropertyOp2
 70
     1
102
RTVSPropertyOp3
 70
     1
102
RTVSPropertyOp4
 70
     1
102
RTVSPropertyOp5
 70
     1
102
RTVSPropertyOp6
 70
     1
102
RTVSPropertyOp7
 70
     1
102
RTVSPropertyOp8
 70
     1
102
RTVSPropertyOp9
 70
     1
102
RTVSPropertyOp10
 70
     1
102
RTVSPropertyOp11
 70
     1
102
RTVSPropertyOp12
 70
     1
102
RTVSPropertyOp13
 70
     1
102
RTVSPropertyOp14
 70
     1
102
RTVSPropertyOp15
 70
     1
102
RTVSPropertyOp16
 70
     1
102
RTVSPropertyOp17
 70
     1
102
RTVSPropertyOp18
 70
     1
102
RTVSPropertyOp19
 70
     1
102
RTVSPropertyOp20
 70
     1
102
RTVSPropertyOp21
 70
     1
102
RTVSPropertyOp22
 70
     1
102
RTVSPropertyOp23
 70
     1
102
RTVSPropertyOp24
 70
     1
102
RTVSPropertyOp25
 70
     1
102
RTVSPropertyOp26
 70
     1
102
RTVSPropertyOp27
 70
     1
102
RTVSPropertyOp28
 70
     1
102
RTVSPropertyOp29
 70
     1
102
RTVSPropertyOp30
 70
     1
102
RTVSPropertyOp31
 70
     1
102
RTVSPropertyOp32
 70
     1
102
RTVSPropertyOp33
 70
     1
102
RTVSPropertyOp34
 70
     1
102
RTVSPropertyOp35
 70
     1
102
RTVSPropertyOp36
 70
     1
102
RTVSPropertyOp37
 70
     1
102
RTVSPropertyOp38
 70
     1
102
RTVSPropertyOp39
 70
     1
102
RTVSPropertyOp40
 70
     1
102
RTVSPropertyOp41
 70
     1
102
RTVSPropertyOp42
 70
     1
102
RTVSPropertyOp43
 70
     1
102
RTVSPropertyOp44
 70
     1
102
RTVSPropertyOp45
 70
     1
102
RTVSPropertyOp46
 70
     1
102
RTVSPropertyOp47
 70
     1
102
RTVSPropertyOp48
 70
     1
102
RTVSPropertyOp49
 70
     1
102
RTVSPropertyOp50
 70
     1
102
RTVSPropertyOp51
 70
     0
102
RTVSPropertyOp52
 70
     0
102
RTVSPropertyOp53
 70
     1
102
RTVSPropertyOp54
 70
     1
102
RTVSPropertyOp55
 70
     1
102
RTVSPropertyOp56
 70
     1
102
RTVSPropertyOp57
 70
     1
102
RTVSPropertyOp58
 70
     1
102
RTVSPropertyOp59
 70
     1
102
RTVSPropertyOp60
 70
     1
102
RTVSPropertyOp61
 70
     1
102
RTVSPropertyOp62
 70
     1
  0
XRECORD
  5
79C8
102
{ACAD_REACTORS
330
79C7
102
}
330
79C7
100
AcDbXrecord
280
     1
102
RTVSPost2010Prop28
280
     0
102
RTVSPost2010PropOp28
 70
     1
102
RTVSPost2010Prop29
280
     1
102
RTVSPost2010PropOp29
 70
     1
102
RTVSPost2010Prop30
280
     1
102
RTVSPost2010PropOp30
 70
     1
102
RTVSPost2010Prop31
280
     0
102
RTVSPost2010PropOp31
 70
     1
102
RTVSPost2010Prop32
280
     0
102
RTVSPost2010PropOp32
 70
     1
102
RTVSPost2010Prop33
280
     0
102
RTVSPost2010PropOp33
 70
     1
102
RTVSPost2010Prop34
280
     0
102
RTVSPost2010PropOp34
 70
     1
102
RTVSPost2010Prop35
280
     0
102
RTVSPost2010PropOp35
 70
     1
102
RTVSPost2010Prop36
280
     0
102
RTVSPost2010PropOp36
 70
     1
102
RTVSPost2010Prop37
 90
       50
102
RTVSPost2010PropOp37
 70
     1
102
RTVSPost2010Prop38
140
0.0
102
RTVSPost2010PropOp38
 70
     1
102
RTVSPost2010Prop39
140
1.0
102
RTVSPost2010PropOp39
 70
     1
102
RTVSPost2010Prop40
 90
        0
102
RTVSPost2010PropOp40
 70
     1
102
RTVSPost2010Prop41ColorIndex
 90
       18
102
RTVSPost2010Prop41ColorRGB
 90
        0
102
RTVSPost2010PropOp41
 70
     1
102
RTVSPost2010Prop42
 90
       50
102
RTVSPost2010PropOp42
 70
     1
102
RTVSPost2010Prop43
 90
        3
102
RTVSPost2010PropOp43
 70
     1
102
RTVSPost2010Prop44ColorIndex
 90
        5
102
RTVSPost2010Prop44ColorRGB
 90
      255
102
RTVSPost2010PropOp44
 70
     1
102
RTVSPost2010Prop45
280
     0
102
RTVSPost2010PropOp45
 70
     1
102
RTVSPost2010Prop46
 90
       50
102
RTVSPost2010PropOp46
 70
     1
102
RTVSPost2010Prop47
 90
       50
102
RTVSPost2010PropOp47
 70
     1
102
RTVSPost2010Prop48
 90
       50
102
RTVSPost2010PropOp48
 70
     1
102
RTVSPost2010Prop49
280
     0
102
RTVSPost2010PropOp49
 70
     1
102
RTVSPost2010Prop50
 90
       50
102
RTVSPost2010PropOp50
 70
     1
102
RTVSPost2010Prop51ColorIndex
 90
      256
102
RTVSPost2010Prop51ColorRGB
 90
-16777216
102
RTVSPost2010PropOp51
 70
     0
102
RTVSPost2010Prop52
140
1.0
102
RTVSPost2010PropOp52
 70
     0
102
RTVSPost2010Prop53
 90
        2
102
RTVSPost2010PropOp53
 70
     1
102
RTVSPost2010Prop54
  1
strokes_ogs.tif
102
RTVSPost2010PropOp54
 70
     1
102
RTVSPost2010Prop55
280
     0
102
RTVSPost2010PropOp55
 70
     1
102
RTVSPost2010Prop56
140
1.0
102
RTVSPost2010PropOp56
 70
     1
102
RTVSPost2010Prop57
140
1.0
102
RTVSPost2010PropOp57
 70
     1
102
RTVSPropertyOp0
 70
     1
102
RTVSPropertyOp1
 70
     1
102
RTVSPropertyOp2
 70
     1
102
RTVSPropertyOp3
 70
     1
102
RTVSPropertyOp4
 70
     1
102
RTVSPropertyOp5
 70
     1
102
RTVSPropertyOp6
 70
     1
102
RTVSPropertyOp7
 70
     1
102
RTVSPropertyOp8
 70
     1
102
RTVSPropertyOp9
 70
     1
102
RTVSPropertyOp10
 70
     1
102
RTVSPropertyOp11
 70
     1
102
RTVSPropertyOp12
 70
     1
102
RTVSPropertyOp13
 70
     1
102
RTVSPropertyOp14
 70
     1
102
RTVSPropertyOp15
 70
     1
102
RTVSPropertyOp16
 70
     1
102
RTVSPropertyOp17
 70
     1
102
RTVSPropertyOp18
 70
     1
102
RTVSPropertyOp19
 70
     1
102
RTVSPropertyOp20
 70
     1
102
RTVSPropertyOp21
 70
     1
102
RTVSPropertyOp22
 70
     1
102
RTVSPropertyOp23
 70
     1
102
RTVSPropertyOp24
 70
     1
102
RTVSPropertyOp25
 70
     1
102
RTVSPropertyOp26
 70
     1
102
RTVSPropertyOp27
 70
     1
102
RTVSPropertyOp28
 70
     1
102
RTVSPropertyOp29
 70
     1
102
RTVSPropertyOp30
 70
     1
102
RTVSPropertyOp31
 70
     1
102
RTVSPropertyOp32
 70
     1
102
RTVSPropertyOp33
 70
     1
102
RTVSPropertyOp34
 70
     1
102
RTVSPropertyOp35
 70
     1
102
RTVSPropertyOp36
 70
     1
102
RTVSPropertyOp37
 70
     1
102
RTVSPropertyOp38
 70
     1
102
RTVSPropertyOp39
 70
     1
102
RTVSPropertyOp40
 70
     1
102
RTVSPropertyOp41
 70
     1
102
RTVSPropertyOp42
 70
     1
102
RTVSPropertyOp43
 70
     1
102
RTVSPropertyOp44
 70
     1
102
RTVSPropertyOp45
 70
     1
102
RTVSPropertyOp46
 70
     1
102
RTVSPropertyOp47
 70
     1
102
RTVSPropertyOp48
 70
     1
102
RTVSPropertyOp49
 70
     1
102
RTVSPropertyOp50
 70
     1
102
RTVSPropertyOp51
 70
     0
102
RTVSPropertyOp52
 70
     0
102
RTVSPropertyOp53
 70
     1
102
RTVSPropertyOp54
 70
     1
102
RTVSPropertyOp55
 70
     1
102
RTVSPropertyOp56
 70
     1
102
RTVSPropertyOp57
 70
     1
102
RTVSPropertyOp58
 70
     1
102
RTVSPropertyOp59
 70
     1
102
RTVSPropertyOp60
 70
     1
102
RTVSPropertyOp61
 70
     1
102
RTVSPropertyOp62
 70
     1
  0
XRECORD
  5
79CA
102
{ACAD_REACTORS
330
79C9
102
}
330
79C9
100
AcDbXrecord
280
     1
102
RTVSPost2010Prop28
280
     0
102
RTVSPost2010PropOp28
 70
     1
102
RTVSPost2010Prop29
280
     1
102
RTVSPost2010PropOp29
 70
     1
102
RTVSPost2010Prop30
280
     1
102
RTVSPost2010PropOp30
 70
     1
102
RTVSPost2010Prop31
280
     0
102
RTVSPost2010PropOp31
 70
     1
102
RTVSPost2010Prop32
280
     0
102
RTVSPost2010PropOp32
 70
     1
102
RTVSPost2010Prop33
280
     0
102
RTVSPost2010PropOp33
 70
     1
102
RTVSPost2010Prop34
280
     0
102
RTVSPost2010PropOp34
 70
     1
102
RTVSPost2010Prop35
280
     0
102
RTVSPost2010PropOp35
 70
     1
102
RTVSPost2010Prop36
280
     0
102
RTVSPost2010PropOp36
 70
     1
102
RTVSPost2010Prop37
 90
       50
102
RTVSPost2010PropOp37
 70
     1
102
RTVSPost2010Prop38
140
0.0
102
RTVSPost2010PropOp38
 70
     1
102
RTVSPost2010Prop39
140
1.0
102
RTVSPost2010PropOp39
 70
     1
102
RTVSPost2010Prop40
 90
        0
102
RTVSPost2010PropOp40
 70
     1
102
RTVSPost2010Prop41ColorIndex
 90
       18
102
RTVSPost2010Prop41ColorRGB
 90
        0
102
RTVSPost2010PropOp41
 70
     1
102
RTVSPost2010Prop42
 90
       50
102
RTVSPost2010PropOp42
 70
     1
102
RTVSPost2010Prop43
 90
        3
102
RTVSPost2010PropOp43
 70
     1
102
RTVSPost2010Prop44ColorIndex
 90
        5
102
RTVSPost2010Prop44ColorRGB
 90
      255
102
RTVSPost2010PropOp44
 70
     1
102
RTVSPost2010Prop45
280
     0
102
RTVSPost2010PropOp45
 70
     1
102
RTVSPost2010Prop46
 90
       50
102
RTVSPost2010PropOp46
 70
     1
102
RTVSPost2010Prop47
 90
       50
102
RTVSPost2010PropOp47
 70
     1
102
RTVSPost2010Prop48
 90
       50
102
RTVSPost2010PropOp48
 70
     1
102
RTVSPost2010Prop49
280
     0
102
RTVSPost2010PropOp49
 70
     1
102
RTVSPost2010Prop50
 90
       50
102
RTVSPost2010PropOp50
 70
     1
102
RTVSPost2010Prop51ColorIndex
 90
      256
102
RTVSPost2010Prop51ColorRGB
 90
-16777216
102
RTVSPost2010PropOp51
 70
     0
102
RTVSPost2010Prop52
140
1.0
102
RTVSPost2010PropOp52
 70
     0
102
RTVSPost2010Prop53
 90
        2
102
RTVSPost2010PropOp53
 70
     1
102
RTVSPost2010Prop54
  1
strokes_ogs.tif
102
RTVSPost2010PropOp54
 70
     1
102
RTVSPost2010Prop55
280
     0
102
RTVSPost2010PropOp55
 70
     1
102
RTVSPost2010Prop56
140
1.0
102
RTVSPost2010PropOp56
 70
     1
102
RTVSPost2010Prop57
140
1.0
102
RTVSPost2010PropOp57
 70
     1
102
RTVSPropertyOp0
 70
     1
102
RTVSPropertyOp1
 70
     1
102
RTVSPropertyOp2
 70
     1
102
RTVSPropertyOp3
 70
     1
102
RTVSPropertyOp4
 70
     1
102
RTVSPropertyOp5
 70
     1
102
RTVSPropertyOp6
 70
     1
102
RTVSPropertyOp7
 70
     1
102
RTVSPropertyOp8
 70
     1
102
RTVSPropertyOp9
 70
     1
102
RTVSPropertyOp10
 70
     1
102
RTVSPropertyOp11
 70
     1
102
RTVSPropertyOp12
 70
     1
102
RTVSPropertyOp13
 70
     1
102
RTVSPropertyOp14
 70
     1
102
RTVSPropertyOp15
 70
     1
102
RTVSPropertyOp16
 70
     1
102
RTVSPropertyOp17
 70
     1
102
RTVSPropertyOp18
 70
     1
102
RTVSPropertyOp19
 70
     1
102
RTVSPropertyOp20
 70
     1
102
RTVSPropertyOp21
 70
     1
102
RTVSPropertyOp22
 70
     1
102
RTVSPropertyOp23
 70
     1
102
RTVSPropertyOp24
 70
     1
102
RTVSPropertyOp25
 70
     1
102
RTVSPropertyOp26
 70
     1
102
RTVSPropertyOp27
 70
     1
102
RTVSPropertyOp28
 70
     1
102
RTVSPropertyOp29
 70
     1
102
RTVSPropertyOp30
 70
     1
102
RTVSPropertyOp31
 70
     1
102
RTVSPropertyOp32
 70
     1
102
RTVSPropertyOp33
 70
     1
102
RTVSPropertyOp34
 70
     1
102
RTVSPropertyOp35
 70
     1
102
RTVSPropertyOp36
 70
     1
102
RTVSPropertyOp37
 70
     1
102
RTVSPropertyOp38
 70
     1
102
RTVSPropertyOp39
 70
     1
102
RTVSPropertyOp40
 70
     1
102
RTVSPropertyOp41
 70
     1
102
RTVSPropertyOp42
 70
     1
102
RTVSPropertyOp43
 70
     1
102
RTVSPropertyOp44
 70
     1
102
RTVSPropertyOp45
 70
     1
102
RTVSPropertyOp46
 70
     1
102
RTVSPropertyOp47
 70
     1
102
RTVSPropertyOp48
 70
     1
102
RTVSPropertyOp49
 70
     1
102
RTVSPropertyOp50
 70
     1
102
RTVSPropertyOp51
 70
     0
102
RTVSPropertyOp52
 70
     0
102
RTVSPropertyOp53
 70
     1
102
RTVSPropertyOp54
 70
     1
102
RTVSPropertyOp55
 70
     1
102
RTVSPropertyOp56
 70
     1
102
RTVSPropertyOp57
 70
     1
102
RTVSPropertyOp58
 70
     1
102
RTVSPropertyOp59
 70
     1
102
RTVSPropertyOp60
 70
     1
102
RTVSPropertyOp61
 70
     1
102
RTVSPropertyOp62
 70
     1
  0
XRECORD
  5
79E8
102
{ACAD_REACTORS
330
79E7
102
}
330
79E7
100
AcDbXrecord
280
     1
102
RTVSPost2010Prop28
280
     0
102
RTVSPost2010PropOp28
 70
     1
102
RTVSPost2010Prop29
280
     1
102
RTVSPost2010PropOp29
 70
     1
102
RTVSPost2010Prop30
280
     1
102
RTVSPost2010PropOp30
 70
     1
102
RTVSPost2010Prop31
280
     0
102
RTVSPost2010PropOp31
 70
     1
102
RTVSPost2010Prop32
280
     0
102
RTVSPost2010PropOp32
 70
     1
102
RTVSPost2010Prop33
280
     0
102
RTVSPost2010PropOp33
 70
     1
102
RTVSPost2010Prop34
280
     0
102
RTVSPost2010PropOp34
 70
     1
102
RTVSPost2010Prop35
280
     0
102
RTVSPost2010PropOp35
 70
     1
102
RTVSPost2010Prop36
280
     0
102
RTVSPost2010PropOp36
 70
     1
102
RTVSPost2010Prop37
 90
       50
102
RTVSPost2010PropOp37
 70
     1
102
RTVSPost2010Prop38
140
0.0
102
RTVSPost2010PropOp38
 70
     1
102
RTVSPost2010Prop39
140
1.0
102
RTVSPost2010PropOp39
 70
     1
102
RTVSPost2010Prop40
 90
        0
102
RTVSPost2010PropOp40
 70
     1
102
RTVSPost2010Prop41ColorIndex
 90
       18
102
RTVSPost2010Prop41ColorRGB
 90
        0
102
RTVSPost2010PropOp41
 70
     1
102
RTVSPost2010Prop42
 90
       50
102
RTVSPost2010PropOp42
 70
     1
102
RTVSPost2010Prop43
 90
        3
102
RTVSPost2010PropOp43
 70
     1
102
RTVSPost2010Prop44ColorIndex
 90
        5
102
RTVSPost2010Prop44ColorRGB
 90
      255
102
RTVSPost2010PropOp44
 70
     1
102
RTVSPost2010Prop45
280
     0
102
RTVSPost2010PropOp45
 70
     1
102
RTVSPost2010Prop46
 90
       50
102
RTVSPost2010PropOp46
 70
     1
102
RTVSPost2010Prop47
 90
       50
102
RTVSPost2010PropOp47
 70
     1
102
RTVSPost2010Prop48
 90
       50
102
RTVSPost2010PropOp48
 70
     1
102
RTVSPost2010Prop49
280
     0
102
RTVSPost2010PropOp49
 70
     1
102
RTVSPost2010Prop50
 90
       50
102
RTVSPost2010PropOp50
 70
     1
102
RTVSPost2010Prop51ColorIndex
 90
      256
102
RTVSPost2010Prop51ColorRGB
 90
-16777216
102
RTVSPost2010PropOp51
 70
     0
102
RTVSPost2010Prop52
140
1.0
102
RTVSPost2010PropOp52
 70
     0
102
RTVSPost2010Prop53
 90
        2
102
RTVSPost2010PropOp53
 70
     1
102
RTVSPost2010Prop54
  1
strokes_ogs.tif
102
RTVSPost2010PropOp54
 70
     1
102
RTVSPost2010Prop55
280
     0
102
RTVSPost2010PropOp55
 70
     1
102
RTVSPost2010Prop56
140
1.0
102
RTVSPost2010PropOp56
 70
     1
102
RTVSPost2010Prop57
140
1.0
102
RTVSPost2010PropOp57
 70
     1
102
RTVSPropertyOp0
 70
     1
102
RTVSPropertyOp1
 70
     1
102
RTVSPropertyOp2
 70
     1
102
RTVSPropertyOp3
 70
     1
102
RTVSPropertyOp4
 70
     1
102
RTVSPropertyOp5
 70
     1
102
RTVSPropertyOp6
 70
     1
102
RTVSPropertyOp7
 70
     1
102
RTVSPropertyOp8
 70
     1
102
RTVSPropertyOp9
 70
     1
102
RTVSPropertyOp10
 70
     1
102
RTVSPropertyOp11
 70
     1
102
RTVSPropertyOp12
 70
     1
102
RTVSPropertyOp13
 70
     1
102
RTVSPropertyOp14
 70
     1
102
RTVSPropertyOp15
 70
     1
102
RTVSPropertyOp16
 70
     1
102
RTVSPropertyOp17
 70
     1
102
RTVSPropertyOp18
 70
     1
102
RTVSPropertyOp19
 70
     1
102
RTVSPropertyOp20
 70
     1
102
RTVSPropertyOp21
 70
     1
102
RTVSPropertyOp22
 70
     1
102
RTVSPropertyOp23
 70
     1
102
RTVSPropertyOp24
 70
     1
102
RTVSPropertyOp25
 70
     1
102
RTVSPropertyOp26
 70
     1
102
RTVSPropertyOp27
 70
     1
102
RTVSPropertyOp28
 70
     1
102
RTVSPropertyOp29
 70
     1
102
RTVSPropertyOp30
 70
     1
102
RTVSPropertyOp31
 70
     1
102
RTVSPropertyOp32
 70
     1
102
RTVSPropertyOp33
 70
     1
102
RTVSPropertyOp34
 70
     1
102
RTVSPropertyOp35
 70
     1
102
RTVSPropertyOp36
 70
     1
102
RTVSPropertyOp37
 70
     1
102
RTVSPropertyOp38
 70
     1
102
RTVSPropertyOp39
 70
     1
102
RTVSPropertyOp40
 70
     1
102
RTVSPropertyOp41
 70
     1
102
RTVSPropertyOp42
 70
     1
102
RTVSPropertyOp43
 70
     1
102
RTVSPropertyOp44
 70
     1
102
RTVSPropertyOp45
 70
     1
102
RTVSPropertyOp46
 70
     1
102
RTVSPropertyOp47
 70
     1
102
RTVSPropertyOp48
 70
     1
102
RTVSPropertyOp49
 70
     1
102
RTVSPropertyOp50
 70
     1
102
RTVSPropertyOp51
 70
     0
102
RTVSPropertyOp52
 70
     0
102
RTVSPropertyOp53
 70
     1
102
RTVSPropertyOp54
 70
     1
102
RTVSPropertyOp55
 70
     1
102
RTVSPropertyOp56
 70
     1
102
RTVSPropertyOp57
 70
     1
102
RTVSPropertyOp58
 70
     1
102
RTVSPropertyOp59
 70
     1
102
RTVSPropertyOp60
 70
     1
102
RTVSPropertyOp61
 70
     1
102
RTVSPropertyOp62
 70
     1
  0
XRECORD
  5
79F4
102
{ACAD_REACTORS
330
79F3
102
}
330
79F3
100
AcDbXrecord
280
     1
102
RTVSPost2010Prop28
280
     0
102
RTVSPost2010PropOp28
 70
     0
102
RTVSPost2010Prop29
280
     1
102
RTVSPost2010PropOp29
 70
     0
102
RTVSPost2010Prop30
280
     1
102
RTVSPost2010PropOp30
 70
     0
102
RTVSPost2010Prop31
280
     0
102
RTVSPost2010PropOp31
 70
     0
102
RTVSPost2010Prop32
280
     0
102
RTVSPost2010PropOp32
 70
     0
102
RTVSPost2010Prop33
280
     0
102
RTVSPost2010PropOp33
 70
     0
102
RTVSPost2010Prop34
280
     0
102
RTVSPost2010PropOp34
 70
     0
102
RTVSPost2010Prop35
280
     0
102
RTVSPost2010PropOp35
 70
     0
102
RTVSPost2010Prop36
280
     0
102
RTVSPost2010PropOp36
 70
     0
102
RTVSPost2010Prop37
 90
       50
102
RTVSPost2010PropOp37
 70
     0
102
RTVSPost2010Prop38
140
0.0
102
RTVSPost2010PropOp38
 70
     0
102
RTVSPost2010Prop39
140
1.0
102
RTVSPost2010PropOp39
 70
     0
102
RTVSPost2010Prop40
 90
        0
102
RTVSPost2010PropOp40
 70
     0
102
RTVSPost2010Prop41ColorIndex
 90
       18
102
RTVSPost2010Prop41ColorRGB
 90
        0
102
RTVSPost2010PropOp41
 70
     0
102
RTVSPost2010Prop42
 90
       50
102
RTVSPost2010PropOp42
 70
     0
102
RTVSPost2010Prop43
 90
        3
102
RTVSPost2010PropOp43
 70
     0
102
RTVSPost2010Prop44ColorIndex
 90
        5
102
RTVSPost2010Prop44ColorRGB
 90
      255
102
RTVSPost2010PropOp44
 70
     0
102
RTVSPost2010Prop45
280
     0
102
RTVSPost2010PropOp45
 70
     0
102
RTVSPost2010Prop46
 90
       50
102
RTVSPost2010PropOp46
 70
     0
102
RTVSPost2010Prop47
 90
       50
102
RTVSPost2010PropOp47
 70
     0
102
RTVSPost2010Prop48
 90
       50
102
RTVSPost2010PropOp48
 70
     0
102
RTVSPost2010Prop49
280
     0
102
RTVSPost2010PropOp49
 70
     0
102
RTVSPost2010Prop50
 90
       50
102
RTVSPost2010PropOp50
 70
     0
102
RTVSPost2010Prop51ColorIndex
 90
      256
102
RTVSPost2010Prop51ColorRGB
 90
-16777216
102
RTVSPost2010PropOp51
 70
     0
102
RTVSPost2010Prop52
140
1.0
102
RTVSPost2010PropOp52
 70
     0
102
RTVSPost2010Prop53
 90
        2
102
RTVSPost2010PropOp53
 70
     0
102
RTVSPost2010Prop54
  1
strokes_ogs.tif
102
RTVSPost2010PropOp54
 70
     0
102
RTVSPost2010Prop55
280
     0
102
RTVSPost2010PropOp55
 70
     0
102
RTVSPost2010Prop56
140
1.0
102
RTVSPost2010PropOp56
 70
     0
102
RTVSPost2010Prop57
140
1.0
102
RTVSPost2010PropOp57
 70
     0
102
RTVSPropertyOp0
 70
     0
102
RTVSPropertyOp1
 70
     0
102
RTVSPropertyOp2
 70
     0
102
RTVSPropertyOp3
 70
     0
102
RTVSPropertyOp4
 70
     0
102
RTVSPropertyOp5
 70
     0
102
RTVSPropertyOp6
 70
     0
102
RTVSPropertyOp7
 70
     0
102
RTVSPropertyOp8
 70
     0
102
RTVSPropertyOp9
 70
     0
102
RTVSPropertyOp10
 70
     0
102
RTVSPropertyOp11
 70
     0
102
RTVSPropertyOp12
 70
     0
102
RTVSPropertyOp13
 70
     0
102
RTVSPropertyOp14
 70
     2
102
RTVSPropertyOp15
 70
     0
102
RTVSPropertyOp16
 70
     0
102
RTVSPropertyOp17
 70
     0
102
RTVSPropertyOp18
 70
     0
102
RTVSPropertyOp19
 70
     0
102
RTVSPropertyOp20
 70
     0
102
RTVSPropertyOp21
 70
     0
102
RTVSPropertyOp22
 70
     0
102
RTVSPropertyOp23
 70
     0
102
RTVSPropertyOp24
 70
     0
102
RTVSPropertyOp25
 70
     0
102
RTVSPropertyOp26
 70
     0
102
RTVSPropertyOp27
 70
     0
102
RTVSPropertyOp28
 70
     0
102
RTVSPropertyOp29
 70
     0
102
RTVSPropertyOp30
 70
     0
102
RTVSPropertyOp31
 70
     0
102
RTVSPropertyOp32
 70
     0
102
RTVSPropertyOp33
 70
     0
102
RTVSPropertyOp34
 70
     0
102
RTVSPropertyOp35
 70
     0
102
RTVSPropertyOp36
 70
     0
102
RTVSPropertyOp37
 70
     0
102
RTVSPropertyOp38
 70
     0
102
RTVSPropertyOp39
 70
     0
102
RTVSPropertyOp40
 70
     0
102
RTVSPropertyOp41
 70
     0
102
RTVSPropertyOp42
 70
     0
102
RTVSPropertyOp43
 70
     0
102
RTVSPropertyOp44
 70
     0
102
RTVSPropertyOp45
 70
     0
102
RTVSPropertyOp46
 70
     0
102
RTVSPropertyOp47
 70
     0
102
RTVSPropertyOp48
 70
     0
102
RTVSPropertyOp49
 70
     0
102
RTVSPropertyOp50
 70
     0
102
RTVSPropertyOp51
 70
     0
102
RTVSPropertyOp52
 70
     0
102
RTVSPropertyOp53
 70
     0
102
RTVSPropertyOp54
 70
     0
102
RTVSPropertyOp55
 70
     0
102
RTVSPropertyOp56
 70
     0
102
RTVSPropertyOp57
 70
     0
102
RTVSPropertyOp58
 70
     0
102
RTVSPropertyOp59
 70
     0
102
RTVSPropertyOp60
 70
     0
102
RTVSPropertyOp61
 70
     0
102
RTVSPropertyOp62
 70
     0
  0
XRECORD
  5
79DE
102
{ACAD_REACTORS
330
79DD
102
}
330
79DD
100
AcDbXrecord
280
     1
102
RTVSPost2010Prop28
280
     0
102
RTVSPost2010PropOp28
 70
     1
102
RTVSPost2010Prop29
280
     1
102
RTVSPost2010PropOp29
 70
     1
102
RTVSPost2010Prop30
280
     1
102
RTVSPost2010PropOp30
 70
     1
102
RTVSPost2010Prop31
280
     0
102
RTVSPost2010PropOp31
 70
     1
102
RTVSPost2010Prop32
280
     0
102
RTVSPost2010PropOp32
 70
     1
102
RTVSPost2010Prop33
280
     0
102
RTVSPost2010PropOp33
 70
     1
102
RTVSPost2010Prop34
280
     0
102
RTVSPost2010PropOp34
 70
     1
102
RTVSPost2010Prop35
280
     0
102
RTVSPost2010PropOp35
 70
     1
102
RTVSPost2010Prop36
280
     0
102
RTVSPost2010PropOp36
 70
     1
102
RTVSPost2010Prop37
 90
       50
102
RTVSPost2010PropOp37
 70
     1
102
RTVSPost2010Prop38
140
0.0
102
RTVSPost2010PropOp38
 70
     1
102
RTVSPost2010Prop39
140
1.0
102
RTVSPost2010PropOp39
 70
     1
102
RTVSPost2010Prop40
 90
        0
102
RTVSPost2010PropOp40
 70
     1
102
RTVSPost2010Prop41ColorIndex
 90
       18
102
RTVSPost2010Prop41ColorRGB
 90
        0
102
RTVSPost2010PropOp41
 70
     1
102
RTVSPost2010Prop42
 90
       50
102
RTVSPost2010PropOp42
 70
     1
102
RTVSPost2010Prop43
 90
        3
102
RTVSPost2010PropOp43
 70
     1
102
RTVSPost2010Prop44ColorIndex
 90
        5
102
RTVSPost2010Prop44ColorRGB
 90
      255
102
RTVSPost2010PropOp44
 70
     1
102
RTVSPost2010Prop45
280
     0
102
RTVSPost2010PropOp45
 70
     1
102
RTVSPost2010Prop46
 90
       50
102
RTVSPost2010PropOp46
 70
     1
102
RTVSPost2010Prop47
 90
       50
102
RTVSPost2010PropOp47
 70
     1
102
RTVSPost2010Prop48
 90
       50
102
RTVSPost2010PropOp48
 70
     1
102
RTVSPost2010Prop49
280
     0
102
RTVSPost2010PropOp49
 70
     1
102
RTVSPost2010Prop50
 90
       50
102
RTVSPost2010PropOp50
 70
     1
102
RTVSPost2010Prop51ColorIndex
 90
      256
102
RTVSPost2010Prop51ColorRGB
 90
-16777216
102
RTVSPost2010PropOp51
 70
     0
102
RTVSPost2010Prop52
140
1.0
102
RTVSPost2010PropOp52
 70
     0
102
RTVSPost2010Prop53
 90
        2
102
RTVSPost2010PropOp53
 70
     1
102
RTVSPost2010Prop54
  1
strokes_ogs.tif
102
RTVSPost2010PropOp54
 70
     1
102
RTVSPost2010Prop55
280
     0
102
RTVSPost2010PropOp55
 70
     1
102
RTVSPost2010Prop56
140
1.0
102
RTVSPost2010PropOp56
 70
     1
102
RTVSPost2010Prop57
140
1.0
102
RTVSPost2010PropOp57
 70
     1
102
RTVSPropertyOp0
 70
     1
102
RTVSPropertyOp1
 70
     1
102
RTVSPropertyOp2
 70
     1
102
RTVSPropertyOp3
 70
     1
102
RTVSPropertyOp4
 70
     1
102
RTVSPropertyOp5
 70
     1
102
RTVSPropertyOp6
 70
     1
102
RTVSPropertyOp7
 70
     1
102
RTVSPropertyOp8
 70
     1
102
RTVSPropertyOp9
 70
     1
102
RTVSPropertyOp10
 70
     1
102
RTVSPropertyOp11
 70
     1
102
RTVSPropertyOp12
 70
     1
102
RTVSPropertyOp13
 70
     1
102
RTVSPropertyOp14
 70
     1
102
RTVSPropertyOp15
 70
     1
102
RTVSPropertyOp16
 70
     1
102
RTVSPropertyOp17
 70
     1
102
RTVSPropertyOp18
 70
     1
102
RTVSPropertyOp19
 70
     1
102
RTVSPropertyOp20
 70
     1
102
RTVSPropertyOp21
 70
     1
102
RTVSPropertyOp22
 70
     1
102
RTVSPropertyOp23
 70
     1
102
RTVSPropertyOp24
 70
     1
102
RTVSPropertyOp25
 70
     1
102
RTVSPropertyOp26
 70
     1
102
RTVSPropertyOp27
 70
     1
102
RTVSPropertyOp28
 70
     1
102
RTVSPropertyOp29
 70
     1
102
RTVSPropertyOp30
 70
     1
102
RTVSPropertyOp31
 70
     1
102
RTVSPropertyOp32
 70
     1
102
RTVSPropertyOp33
 70
     1
102
RTVSPropertyOp34
 70
     1
102
RTVSPropertyOp35
 70
     1
102
RTVSPropertyOp36
 70
     1
102
RTVSPropertyOp37
 70
     1
102
RTVSPropertyOp38
 70
     1
102
RTVSPropertyOp39
 70
     1
102
RTVSPropertyOp40
 70
     1
102
RTVSPropertyOp41
 70
     1
102
RTVSPropertyOp42
 70
     1
102
RTVSPropertyOp43
 70
     1
102
RTVSPropertyOp44
 70
     1
102
RTVSPropertyOp45
 70
     1
102
RTVSPropertyOp46
 70
     1
102
RTVSPropertyOp47
 70
     1
102
RTVSPropertyOp48
 70
     1
102
RTVSPropertyOp49
 70
     1
102
RTVSPropertyOp50
 70
     1
102
RTVSPropertyOp51
 70
     0
102
RTVSPropertyOp52
 70
     0
102
RTVSPropertyOp53
 70
     1
102
RTVSPropertyOp54
 70
     1
102
RTVSPropertyOp55
 70
     1
102
RTVSPropertyOp56
 70
     1
102
RTVSPropertyOp57
 70
     1
102
RTVSPropertyOp58
 70
     1
102
RTVSPropertyOp59
 70
     1
102
RTVSPropertyOp60
 70
     1
102
RTVSPropertyOp61
 70
     1
102
RTVSPropertyOp62
 70
     1
  0
XRECORD
  5
79F6
102
{ACAD_REACTORS
330
79F5
102
}
330
79F5
100
AcDbXrecord
280
     1
102
RTVSPost2010Prop28
280
     0
102
RTVSPost2010PropOp28
 70
     0
102
RTVSPost2010Prop29
280
     1
102
RTVSPost2010PropOp29
 70
     0
102
RTVSPost2010Prop30
280
     1
102
RTVSPost2010PropOp30
 70
     0
102
RTVSPost2010Prop31
280
     0
102
RTVSPost2010PropOp31
 70
     0
102
RTVSPost2010Prop32
280
     0
102
RTVSPost2010PropOp32
 70
     0
102
RTVSPost2010Prop33
280
     0
102
RTVSPost2010PropOp33
 70
     0
102
RTVSPost2010Prop34
280
     0
102
RTVSPost2010PropOp34
 70
     0
102
RTVSPost2010Prop35
280
     0
102
RTVSPost2010PropOp35
 70
     0
102
RTVSPost2010Prop36
280
     0
102
RTVSPost2010PropOp36
 70
     0
102
RTVSPost2010Prop37
 90
       50
102
RTVSPost2010PropOp37
 70
     0
102
RTVSPost2010Prop38
140
0.0
102
RTVSPost2010PropOp38
 70
     0
102
RTVSPost2010Prop39
140
1.0
102
RTVSPost2010PropOp39
 70
     0
102
RTVSPost2010Prop40
 90
        0
102
RTVSPost2010PropOp40
 70
     0
102
RTVSPost2010Prop41ColorIndex
 90
       18
102
RTVSPost2010Prop41ColorRGB
 90
        0
102
RTVSPost2010PropOp41
 70
     0
102
RTVSPost2010Prop42
 90
       50
102
RTVSPost2010PropOp42
 70
     0
102
RTVSPost2010Prop43
 90
        3
102
RTVSPost2010PropOp43
 70
     0
102
RTVSPost2010Prop44ColorIndex
 90
        5
102
RTVSPost2010Prop44ColorRGB
 90
      255
102
RTVSPost2010PropOp44
 70
     0
102
RTVSPost2010Prop45
280
     0
102
RTVSPost2010PropOp45
 70
     0
102
RTVSPost2010Prop46
 90
       50
102
RTVSPost2010PropOp46
 70
     0
102
RTVSPost2010Prop47
 90
       50
102
RTVSPost2010PropOp47
 70
     0
102
RTVSPost2010Prop48
 90
       50
102
RTVSPost2010PropOp48
 70
     0
102
RTVSPost2010Prop49
280
     0
102
RTVSPost2010PropOp49
 70
     0
102
RTVSPost2010Prop50
 90
       50
102
RTVSPost2010PropOp50
 70
     0
102
RTVSPost2010Prop51ColorIndex
 90
      256
102
RTVSPost2010Prop51ColorRGB
 90
-16777216
102
RTVSPost2010PropOp51
 70
     0
102
RTVSPost2010Prop52
140
1.0
102
RTVSPost2010PropOp52
 70
     0
102
RTVSPost2010Prop53
 90
        2
102
RTVSPost2010PropOp53
 70
     0
102
RTVSPost2010Prop54
  1
strokes_ogs.tif
102
RTVSPost2010PropOp54
 70
     0
102
RTVSPost2010Prop55
280
     0
102
RTVSPost2010PropOp55
 70
     0
102
RTVSPost2010Prop56
140
1.0
102
RTVSPost2010PropOp56
 70
     0
102
RTVSPost2010Prop57
140
1.0
102
RTVSPost2010PropOp57
 70
     0
102
RTVSPropertyOp0
 70
     0
102
RTVSPropertyOp1
 70
     0
102
RTVSPropertyOp2
 70
     0
102
RTVSPropertyOp3
 70
     0
102
RTVSPropertyOp4
 70
     0
102
RTVSPropertyOp5
 70
     0
102
RTVSPropertyOp6
 70
     0
102
RTVSPropertyOp7
 70
     0
102
RTVSPropertyOp8
 70
     0
102
RTVSPropertyOp9
 70
     0
102
RTVSPropertyOp10
 70
     0
102
RTVSPropertyOp11
 70
     0
102
RTVSPropertyOp12
 70
     0
102
RTVSPropertyOp13
 70
     0
102
RTVSPropertyOp14
 70
     2
102
RTVSPropertyOp15
 70
     0
102
RTVSPropertyOp16
 70
     0
102
RTVSPropertyOp17
 70
     0
102
RTVSPropertyOp18
 70
     0
102
RTVSPropertyOp19
 70
     0
102
RTVSPropertyOp20
 70
     0
102
RTVSPropertyOp21
 70
     0
102
RTVSPropertyOp22
 70
     0
102
RTVSPropertyOp23
 70
     0
102
RTVSPropertyOp24
 70
     0
102
RTVSPropertyOp25
 70
     0
102
RTVSPropertyOp26
 70
     0
102
RTVSPropertyOp27
 70
     0
102
RTVSPropertyOp28
 70
     0
102
RTVSPropertyOp29
 70
     0
102
RTVSPropertyOp30
 70
     0
102
RTVSPropertyOp31
 70
     0
102
RTVSPropertyOp32
 70
     0
102
RTVSPropertyOp33
 70
     0
102
RTVSPropertyOp34
 70
     0
102
RTVSPropertyOp35
 70
     0
102
RTVSPropertyOp36
 70
     0
102
RTVSPropertyOp37
 70
     0
102
RTVSPropertyOp38
 70
     0
102
RTVSPropertyOp39
 70
     0
102
RTVSPropertyOp40
 70
     0
102
RTVSPropertyOp41
 70
     0
102
RTVSPropertyOp42
 70
     0
102
RTVSPropertyOp43
 70
     0
102
RTVSPropertyOp44
 70
     0
102
RTVSPropertyOp45
 70
     0
102
RTVSPropertyOp46
 70
     0
102
RTVSPropertyOp47
 70
     0
102
RTVSPropertyOp48
 70
     0
102
RTVSPropertyOp49
 70
     0
102
RTVSPropertyOp50
 70
     0
102
RTVSPropertyOp51
 70
     0
102
RTVSPropertyOp52
 70
     0
102
RTVSPropertyOp53
 70
     0
102
RTVSPropertyOp54
 70
     0
102
RTVSPropertyOp55
 70
     0
102
RTVSPropertyOp56
 70
     0
102
RTVSPropertyOp57
 70
     0
102
RTVSPropertyOp58
 70
     0
102
RTVSPropertyOp59
 70
     0
102
RTVSPropertyOp60
 70
     0
102
RTVSPropertyOp61
 70
     0
102
RTVSPropertyOp62
 70
     0
  0
XRECORD
  5
79D6
102
{ACAD_REACTORS
330
79D5
102
}
330
79D5
100
AcDbXrecord
280
     1
102
RTVSPost2010Prop28
280
     0
102
RTVSPost2010PropOp28
 70
     1
102
RTVSPost2010Prop29
280
     1
102
RTVSPost2010PropOp29
 70
     1
102
RTVSPost2010Prop30
280
     1
102
RTVSPost2010PropOp30
 70
     1
102
RTVSPost2010Prop31
280
     0
102
RTVSPost2010PropOp31
 70
     1
102
RTVSPost2010Prop32
280
     0
102
RTVSPost2010PropOp32
 70
     1
102
RTVSPost2010Prop33
280
     0
102
RTVSPost2010PropOp33
 70
     1
102
RTVSPost2010Prop34
280
     0
102
RTVSPost2010PropOp34
 70
     1
102
RTVSPost2010Prop35
280
     0
102
RTVSPost2010PropOp35
 70
     1
102
RTVSPost2010Prop36
280
     0
102
RTVSPost2010PropOp36
 70
     1
102
RTVSPost2010Prop37
 90
       50
102
RTVSPost2010PropOp37
 70
     1
102
RTVSPost2010Prop38
140
0.0
102
RTVSPost2010PropOp38
 70
     1
102
RTVSPost2010Prop39
140
1.0
102
RTVSPost2010PropOp39
 70
     1
102
RTVSPost2010Prop40
 90
        0
102
RTVSPost2010PropOp40
 70
     1
102
RTVSPost2010Prop41ColorIndex
 90
       18
102
RTVSPost2010Prop41ColorRGB
 90
        0
102
RTVSPost2010PropOp41
 70
     1
102
RTVSPost2010Prop42
 90
       50
102
RTVSPost2010PropOp42
 70
     1
102
RTVSPost2010Prop43
 90
        3
102
RTVSPost2010PropOp43
 70
     1
102
RTVSPost2010Prop44ColorIndex
 90
        5
102
RTVSPost2010Prop44ColorRGB
 90
      255
102
RTVSPost2010PropOp44
 70
     1
102
RTVSPost2010Prop45
280
     0
102
RTVSPost2010PropOp45
 70
     1
102
RTVSPost2010Prop46
 90
       50
102
RTVSPost2010PropOp46
 70
     1
102
RTVSPost2010Prop47
 90
       50
102
RTVSPost2010PropOp47
 70
     1
102
RTVSPost2010Prop48
 90
       50
102
RTVSPost2010PropOp48
 70
     1
102
RTVSPost2010Prop49
280
     0
102
RTVSPost2010PropOp49
 70
     1
102
RTVSPost2010Prop50
 90
       50
102
RTVSPost2010PropOp50
 70
     1
102
RTVSPost2010Prop51ColorIndex
 90
      256
102
RTVSPost2010Prop51ColorRGB
 90
-16777216
102
RTVSPost2010PropOp51
 70
     0
102
RTVSPost2010Prop52
140
1.0
102
RTVSPost2010PropOp52
 70
     0
102
RTVSPost2010Prop53
 90
        2
102
RTVSPost2010PropOp53
 70
     1
102
RTVSPost2010Prop54
  1
strokes_ogs.tif
102
RTVSPost2010PropOp54
 70
     1
102
RTVSPost2010Prop55
280
     0
102
RTVSPost2010PropOp55
 70
     1
102
RTVSPost2010Prop56
140
1.0
102
RTVSPost2010PropOp56
 70
     1
102
RTVSPost2010Prop57
140
1.0
102
RTVSPost2010PropOp57
 70
     1
102
RTVSPropertyOp0
 70
     1
102
RTVSPropertyOp1
 70
     1
102
RTVSPropertyOp2
 70
     1
102
RTVSPropertyOp3
 70
     1
102
RTVSPropertyOp4
 70
     1
102
RTVSPropertyOp5
 70
     1
102
RTVSPropertyOp6
 70
     1
102
RTVSPropertyOp7
 70
     1
102
RTVSPropertyOp8
 70
     1
102
RTVSPropertyOp9
 70
     1
102
RTVSPropertyOp10
 70
     1
102
RTVSPropertyOp11
 70
     1
102
RTVSPropertyOp12
 70
     1
102
RTVSPropertyOp13
 70
     1
102
RTVSPropertyOp14
 70
     1
102
RTVSPropertyOp15
 70
     1
102
RTVSPropertyOp16
 70
     1
102
RTVSPropertyOp17
 70
     1
102
RTVSPropertyOp18
 70
     1
102
RTVSPropertyOp19
 70
     1
102
RTVSPropertyOp20
 70
     1
102
RTVSPropertyOp21
 70
     1
102
RTVSPropertyOp22
 70
     1
102
RTVSPropertyOp23
 70
     1
102
RTVSPropertyOp24
 70
     1
102
RTVSPropertyOp25
 70
     1
102
RTVSPropertyOp26
 70
     1
102
RTVSPropertyOp27
 70
     1
102
RTVSPropertyOp28
 70
     1
102
RTVSPropertyOp29
 70
     1
102
RTVSPropertyOp30
 70
     1
102
RTVSPropertyOp31
 70
     1
102
RTVSPropertyOp32
 70
     1
102
RTVSPropertyOp33
 70
     1
102
RTVSPropertyOp34
 70
     1
102
RTVSPropertyOp35
 70
     1
102
RTVSPropertyOp36
 70
     1
102
RTVSPropertyOp37
 70
     1
102
RTVSPropertyOp38
 70
     1
102
RTVSPropertyOp39
 70
     1
102
RTVSPropertyOp40
 70
     1
102
RTVSPropertyOp41
 70
     1
102
RTVSPropertyOp42
 70
     1
102
RTVSPropertyOp43
 70
     1
102
RTVSPropertyOp44
 70
     1
102
RTVSPropertyOp45
 70
     1
102
RTVSPropertyOp46
 70
     1
102
RTVSPropertyOp47
 70
     1
102
RTVSPropertyOp48
 70
     1
102
RTVSPropertyOp49
 70
     1
102
RTVSPropertyOp50
 70
     1
102
RTVSPropertyOp51
 70
     0
102
RTVSPropertyOp52
 70
     0
102
RTVSPropertyOp53
 70
     1
102
RTVSPropertyOp54
 70
     1
102
RTVSPropertyOp55
 70
     1
102
RTVSPropertyOp56
 70
     1
102
RTVSPropertyOp57
 70
     1
102
RTVSPropertyOp58
 70
     1
102
RTVSPropertyOp59
 70
     1
102
RTVSPropertyOp60
 70
     1
102
RTVSPropertyOp61
 70
     1
102
RTVSPropertyOp62
 70
     1
  0
XRECORD
  5
79F2
102
{ACAD_REACTORS
330
79F1
102
}
330
79F1
100
AcDbXrecord
280
     1
102
RTVSPost2010Prop28
280
     0
102
RTVSPost2010PropOp28
 70
     1
102
RTVSPost2010Prop29
280
     1
102
RTVSPost2010PropOp29
 70
     1
102
RTVSPost2010Prop30
280
     1
102
RTVSPost2010PropOp30
 70
     1
102
RTVSPost2010Prop31
280
     0
102
RTVSPost2010PropOp31
 70
     1
102
RTVSPost2010Prop32
280
     0
102
RTVSPost2010PropOp32
 70
     1
102
RTVSPost2010Prop33
280
     0
102
RTVSPost2010PropOp33
 70
     1
102
RTVSPost2010Prop34
280
     0
102
RTVSPost2010PropOp34
 70
     1
102
RTVSPost2010Prop35
280
     0
102
RTVSPost2010PropOp35
 70
     1
102
RTVSPost2010Prop36
280
     0
102
RTVSPost2010PropOp36
 70
     1
102
RTVSPost2010Prop37
 90
       50
102
RTVSPost2010PropOp37
 70
     1
102
RTVSPost2010Prop38
140
0.0
102
RTVSPost2010PropOp38
 70
     1
102
RTVSPost2010Prop39
140
1.0
102
RTVSPost2010PropOp39
 70
     1
102
RTVSPost2010Prop40
 90
        0
102
RTVSPost2010PropOp40
 70
     1
102
RTVSPost2010Prop41ColorIndex
 90
       18
102
RTVSPost2010Prop41ColorRGB
 90
        0
102
RTVSPost2010PropOp41
 70
     1
102
RTVSPost2010Prop42
 90
       50
102
RTVSPost2010PropOp42
 70
     1
102
RTVSPost2010Prop43
 90
        3
102
RTVSPost2010PropOp43
 70
     1
102
RTVSPost2010Prop44ColorIndex
 90
        5
102
RTVSPost2010Prop44ColorRGB
 90
      255
102
RTVSPost2010PropOp44
 70
     1
102
RTVSPost2010Prop45
280
     0
102
RTVSPost2010PropOp45
 70
     1
102
RTVSPost2010Prop46
 90
       50
102
RTVSPost2010PropOp46
 70
     1
102
RTVSPost2010Prop47
 90
       50
102
RTVSPost2010PropOp47
 70
     1
102
RTVSPost2010Prop48
 90
       50
102
RTVSPost2010PropOp48
 70
     1
102
RTVSPost2010Prop49
280
     0
102
RTVSPost2010PropOp49
 70
     1
102
RTVSPost2010Prop50
 90
       50
102
RTVSPost2010PropOp50
 70
     1
102
RTVSPost2010Prop51ColorIndex
 90
      256
102
RTVSPost2010Prop51ColorRGB
 90
-16777216
102
RTVSPost2010PropOp51
 70
     0
102
RTVSPost2010Prop52
140
1.0
102
RTVSPost2010PropOp52
 70
     0
102
RTVSPost2010Prop53
 90
        2
102
RTVSPost2010PropOp53
 70
     1
102
RTVSPost2010Prop54
  1
strokes_ogs.tif
102
RTVSPost2010PropOp54
 70
     1
102
RTVSPost2010Prop55
280
     0
102
RTVSPost2010PropOp55
 70
     1
102
RTVSPost2010Prop56
140
1.0
102
RTVSPost2010PropOp56
 70
     1
102
RTVSPost2010Prop57
140
1.0
102
RTVSPost2010PropOp57
 70
     1
102
RTVSPropertyOp0
 70
     1
102
RTVSPropertyOp1
 70
     1
102
RTVSPropertyOp2
 70
     1
102
RTVSPropertyOp3
 70
     1
102
RTVSPropertyOp4
 70
     1
102
RTVSPropertyOp5
 70
     1
102
RTVSPropertyOp6
 70
     1
102
RTVSPropertyOp7
 70
     1
102
RTVSPropertyOp8
 70
     1
102
RTVSPropertyOp9
 70
     1
102
RTVSPropertyOp10
 70
     1
102
RTVSPropertyOp11
 70
     1
102
RTVSPropertyOp12
 70
     1
102
RTVSPropertyOp13
 70
     1
102
RTVSPropertyOp14
 70
     1
102
RTVSPropertyOp15
 70
     1
102
RTVSPropertyOp16
 70
     1
102
RTVSPropertyOp17
 70
     1
102
RTVSPropertyOp18
 70
     1
102
RTVSPropertyOp19
 70
     1
102
RTVSPropertyOp20
 70
     1
102
RTVSPropertyOp21
 70
     1
102
RTVSPropertyOp22
 70
     1
102
RTVSPropertyOp23
 70
     1
102
RTVSPropertyOp24
 70
     1
102
RTVSPropertyOp25
 70
     1
102
RTVSPropertyOp26
 70
     1
102
RTVSPropertyOp27
 70
     1
102
RTVSPropertyOp28
 70
     1
102
RTVSPropertyOp29
 70
     1
102
RTVSPropertyOp30
 70
     1
102
RTVSPropertyOp31
 70
     1
102
RTVSPropertyOp32
 70
     1
102
RTVSPropertyOp33
 70
     1
102
RTVSPropertyOp34
 70
     1
102
RTVSPropertyOp35
 70
     1
102
RTVSPropertyOp36
 70
     1
102
RTVSPropertyOp37
 70
     1
102
RTVSPropertyOp38
 70
     1
102
RTVSPropertyOp39
 70
     1
102
RTVSPropertyOp40
 70
     1
102
RTVSPropertyOp41
 70
     1
102
RTVSPropertyOp42
 70
     1
102
RTVSPropertyOp43
 70
     1
102
RTVSPropertyOp44
 70
     1
102
RTVSPropertyOp45
 70
     1
102
RTVSPropertyOp46
 70
     1
102
RTVSPropertyOp47
 70
     1
102
RTVSPropertyOp48
 70
     1
102
RTVSPropertyOp49
 70
     1
102
RTVSPropertyOp50
 70
     1
102
RTVSPropertyOp51
 70
     0
102
RTVSPropertyOp52
 70
     0
102
RTVSPropertyOp53
 70
     1
102
RTVSPropertyOp54
 70
     1
102
RTVSPropertyOp55
 70
     1
102
RTVSPropertyOp56
 70
     1
102
RTVSPropertyOp57
 70
     1
102
RTVSPropertyOp58
 70
     1
102
RTVSPropertyOp59
 70
     1
102
RTVSPropertyOp60
 70
     1
102
RTVSPropertyOp61
 70
     1
102
RTVSPropertyOp62
 70
     1
  0
XRECORD
  5
79F0
102
{ACAD_REACTORS
330
79EF
102
}
330
79EF
100
AcDbXrecord
280
     1
102
RTVSPost2010Prop28
280
     0
102
RTVSPost2010PropOp28
 70
     1
102
RTVSPost2010Prop29
280
     1
102
RTVSPost2010PropOp29
 70
     1
102
RTVSPost2010Prop30
280
     1
102
RTVSPost2010PropOp30
 70
     1
102
RTVSPost2010Prop31
280
     0
102
RTVSPost2010PropOp31
 70
     1
102
RTVSPost2010Prop32
280
     0
102
RTVSPost2010PropOp32
 70
     1
102
RTVSPost2010Prop33
280
     0
102
RTVSPost2010PropOp33
 70
     1
102
RTVSPost2010Prop34
280
     0
102
RTVSPost2010PropOp34
 70
     1
102
RTVSPost2010Prop35
280
     0
102
RTVSPost2010PropOp35
 70
     1
102
RTVSPost2010Prop36
280
     0
102
RTVSPost2010PropOp36
 70
     1
102
RTVSPost2010Prop37
 90
       50
102
RTVSPost2010PropOp37
 70
     1
102
RTVSPost2010Prop38
140
0.0
102
RTVSPost2010PropOp38
 70
     1
102
RTVSPost2010Prop39
140
1.0
102
RTVSPost2010PropOp39
 70
     1
102
RTVSPost2010Prop40
 90
        0
102
RTVSPost2010PropOp40
 70
     1
102
RTVSPost2010Prop41ColorIndex
 90
       18
102
RTVSPost2010Prop41ColorRGB
 90
        0
102
RTVSPost2010PropOp41
 70
     1
102
RTVSPost2010Prop42
 90
       50
102
RTVSPost2010PropOp42
 70
     1
102
RTVSPost2010Prop43
 90
        3
102
RTVSPost2010PropOp43
 70
     1
102
RTVSPost2010Prop44ColorIndex
 90
        5
102
RTVSPost2010Prop44ColorRGB
 90
      255
102
RTVSPost2010PropOp44
 70
     1
102
RTVSPost2010Prop45
280
     0
102
RTVSPost2010PropOp45
 70
     1
102
RTVSPost2010Prop46
 90
       50
102
RTVSPost2010PropOp46
 70
     1
102
RTVSPost2010Prop47
 90
       50
102
RTVSPost2010PropOp47
 70
     1
102
RTVSPost2010Prop48
 90
       50
102
RTVSPost2010PropOp48
 70
     1
102
RTVSPost2010Prop49
280
     0
102
RTVSPost2010PropOp49
 70
     1
102
RTVSPost2010Prop50
 90
       50
102
RTVSPost2010PropOp50
 70
     1
102
RTVSPost2010Prop51ColorIndex
 90
      256
102
RTVSPost2010Prop51ColorRGB
 90
-16777216
102
RTVSPost2010PropOp51
 70
     0
102
RTVSPost2010Prop52
140
1.0
102
RTVSPost2010PropOp52
 70
     0
102
RTVSPost2010Prop53
 90
        2
102
RTVSPost2010PropOp53
 70
     1
102
RTVSPost2010Prop54
  1
strokes_ogs.tif
102
RTVSPost2010PropOp54
 70
     1
102
RTVSPost2010Prop55
280
     0
102
RTVSPost2010PropOp55
 70
     1
102
RTVSPost2010Prop56
140
1.0
102
RTVSPost2010PropOp56
 70
     1
102
RTVSPost2010Prop57
140
1.0
102
RTVSPost2010PropOp57
 70
     1
102
RTVSPropertyOp0
 70
     1
102
RTVSPropertyOp1
 70
     1
102
RTVSPropertyOp2
 70
     1
102
RTVSPropertyOp3
 70
     1
102
RTVSPropertyOp4
 70
     1
102
RTVSPropertyOp5
 70
     1
102
RTVSPropertyOp6
 70
     1
102
RTVSPropertyOp7
 70
     1
102
RTVSPropertyOp8
 70
     1
102
RTVSPropertyOp9
 70
     1
102
RTVSPropertyOp10
 70
     1
102
RTVSPropertyOp11
 70
     1
102
RTVSPropertyOp12
 70
     1
102
RTVSPropertyOp13
 70
     1
102
RTVSPropertyOp14
 70
     1
102
RTVSPropertyOp15
 70
     1
102
RTVSPropertyOp16
 70
     1
102
RTVSPropertyOp17
 70
     1
102
RTVSPropertyOp18
 70
     1
102
RTVSPropertyOp19
 70
     1
102
RTVSPropertyOp20
 70
     1
102
RTVSPropertyOp21
 70
     1
102
RTVSPropertyOp22
 70
     1
102
RTVSPropertyOp23
 70
     1
102
RTVSPropertyOp24
 70
     1
102
RTVSPropertyOp25
 70
     1
102
RTVSPropertyOp26
 70
     1
102
RTVSPropertyOp27
 70
     1
102
RTVSPropertyOp28
 70
     1
102
RTVSPropertyOp29
 70
     1
102
RTVSPropertyOp30
 70
     1
102
RTVSPropertyOp31
 70
     1
102
RTVSPropertyOp32
 70
     1
102
RTVSPropertyOp33
 70
     1
102
RTVSPropertyOp34
 70
     1
102
RTVSPropertyOp35
 70
     1
102
RTVSPropertyOp36
 70
     1
102
RTVSPropertyOp37
 70
     1
102
RTVSPropertyOp38
 70
     1
102
RTVSPropertyOp39
 70
     1
102
RTVSPropertyOp40
 70
     1
102
RTVSPropertyOp41
 70
     1
102
RTVSPropertyOp42
 70
     1
102
RTVSPropertyOp43
 70
     1
102
RTVSPropertyOp44
 70
     1
102
RTVSPropertyOp45
 70
     1
102
RTVSPropertyOp46
 70
     1
102
RTVSPropertyOp47
 70
     1
102
RTVSPropertyOp48
 70
     1
102
RTVSPropertyOp49
 70
     1
102
RTVSPropertyOp50
 70
     1
102
RTVSPropertyOp51
 70
     0
102
RTVSPropertyOp52
 70
     0
102
RTVSPropertyOp53
 70
     1
102
RTVSPropertyOp54
 70
     1
102
RTVSPropertyOp55
 70
     1
102
RTVSPropertyOp56
 70
     1
102
RTVSPropertyOp57
 70
     1
102
RTVSPropertyOp58
 70
     1
102
RTVSPropertyOp59
 70
     1
102
RTVSPropertyOp60
 70
     1
102
RTVSPropertyOp61
 70
     1
102
RTVSPropertyOp62
 70
     1
  0
XRECORD
  5
79EA
102
{ACAD_REACTORS
330
79E9
102
}
330
79E9
100
AcDbXrecord
280
     1
102
RTVSPost2010Prop28
280
     0
102
RTVSPost2010PropOp28
 70
     1
102
RTVSPost2010Prop29
280
     1
102
RTVSPost2010PropOp29
 70
     1
102
RTVSPost2010Prop30
280
     1
102
RTVSPost2010PropOp30
 70
     1
102
RTVSPost2010Prop31
280
     0
102
RTVSPost2010PropOp31
 70
     1
102
RTVSPost2010Prop32
280
     0
102
RTVSPost2010PropOp32
 70
     1
102
RTVSPost2010Prop33
280
     0
102
RTVSPost2010PropOp33
 70
     1
102
RTVSPost2010Prop34
280
     0
102
RTVSPost2010PropOp34
 70
     1
102
RTVSPost2010Prop35
280
     0
102
RTVSPost2010PropOp35
 70
     1
102
RTVSPost2010Prop36
280
     0
102
RTVSPost2010PropOp36
 70
     1
102
RTVSPost2010Prop37
 90
       50
102
RTVSPost2010PropOp37
 70
     1
102
RTVSPost2010Prop38
140
0.0
102
RTVSPost2010PropOp38
 70
     1
102
RTVSPost2010Prop39
140
1.0
102
RTVSPost2010PropOp39
 70
     1
102
RTVSPost2010Prop40
 90
        0
102
RTVSPost2010PropOp40
 70
     1
102
RTVSPost2010Prop41ColorIndex
 90
       18
102
RTVSPost2010Prop41ColorRGB
 90
        0
102
RTVSPost2010PropOp41
 70
     1
102
RTVSPost2010Prop42
 90
       50
102
RTVSPost2010PropOp42
 70
     1
102
RTVSPost2010Prop43
 90
        3
102
RTVSPost2010PropOp43
 70
     1
102
RTVSPost2010Prop44ColorIndex
 90
        5
102
RTVSPost2010Prop44ColorRGB
 90
      255
102
RTVSPost2010PropOp44
 70
     1
102
RTVSPost2010Prop45
280
     0
102
RTVSPost2010PropOp45
 70
     1
102
RTVSPost2010Prop46
 90
       50
102
RTVSPost2010PropOp46
 70
     1
102
RTVSPost2010Prop47
 90
       50
102
RTVSPost2010PropOp47
 70
     1
102
RTVSPost2010Prop48
 90
       50
102
RTVSPost2010PropOp48
 70
     1
102
RTVSPost2010Prop49
280
     0
102
RTVSPost2010PropOp49
 70
     1
102
RTVSPost2010Prop50
 90
       50
102
RTVSPost2010PropOp50
 70
     1
102
RTVSPost2010Prop51ColorIndex
 90
      256
102
RTVSPost2010Prop51ColorRGB
 90
-16777216
102
RTVSPost2010PropOp51
 70
     0
102
RTVSPost2010Prop52
140
1.0
102
RTVSPost2010PropOp52
 70
     0
102
RTVSPost2010Prop53
 90
        2
102
RTVSPost2010PropOp53
 70
     1
102
RTVSPost2010Prop54
  1
strokes_ogs.tif
102
RTVSPost2010PropOp54
 70
     1
102
RTVSPost2010Prop55
280
     0
102
RTVSPost2010PropOp55
 70
     1
102
RTVSPost2010Prop56
140
1.0
102
RTVSPost2010PropOp56
 70
     1
102
RTVSPost2010Prop57
140
1.0
102
RTVSPost2010PropOp57
 70
     1
102
RTVSPropertyOp0
 70
     1
102
RTVSPropertyOp1
 70
     1
102
RTVSPropertyOp2
 70
     1
102
RTVSPropertyOp3
 70
     1
102
RTVSPropertyOp4
 70
     1
102
RTVSPropertyOp5
 70
     1
102
RTVSPropertyOp6
 70
     1
102
RTVSPropertyOp7
 70
     1
102
RTVSPropertyOp8
 70
     1
102
RTVSPropertyOp9
 70
     1
102
RTVSPropertyOp10
 70
     1
102
RTVSPropertyOp11
 70
     1
102
RTVSPropertyOp12
 70
     1
102
RTVSPropertyOp13
 70
     1
102
RTVSPropertyOp14
 70
     1
102
RTVSPropertyOp15
 70
     1
102
RTVSPropertyOp16
 70
     1
102
RTVSPropertyOp17
 70
     1
102
RTVSPropertyOp18
 70
     1
102
RTVSPropertyOp19
 70
     1
102
RTVSPropertyOp20
 70
     1
102
RTVSPropertyOp21
 70
     1
102
RTVSPropertyOp22
 70
     1
102
RTVSPropertyOp23
 70
     1
102
RTVSPropertyOp24
 70
     1
102
RTVSPropertyOp25
 70
     1
102
RTVSPropertyOp26
 70
     1
102
RTVSPropertyOp27
 70
     1
102
RTVSPropertyOp28
 70
     1
102
RTVSPropertyOp29
 70
     1
102
RTVSPropertyOp30
 70
     1
102
RTVSPropertyOp31
 70
     1
102
RTVSPropertyOp32
 70
     1
102
RTVSPropertyOp33
 70
     1
102
RTVSPropertyOp34
 70
     1
102
RTVSPropertyOp35
 70
     1
102
RTVSPropertyOp36
 70
     1
102
RTVSPropertyOp37
 70
     1
102
RTVSPropertyOp38
 70
     1
102
RTVSPropertyOp39
 70
     1
102
RTVSPropertyOp40
 70
     1
102
RTVSPropertyOp41
 70
     1
102
RTVSPropertyOp42
 70
     1
102
RTVSPropertyOp43
 70
     1
102
RTVSPropertyOp44
 70
     1
102
RTVSPropertyOp45
 70
     1
102
RTVSPropertyOp46
 70
     1
102
RTVSPropertyOp47
 70
     1
102
RTVSPropertyOp48
 70
     1
102
RTVSPropertyOp49
 70
     1
102
RTVSPropertyOp50
 70
     1
102
RTVSPropertyOp51
 70
     0
102
RTVSPropertyOp52
 70
     0
102
RTVSPropertyOp53
 70
     1
102
RTVSPropertyOp54
 70
     1
102
RTVSPropertyOp55
 70
     1
102
RTVSPropertyOp56
 70
     1
102
RTVSPropertyOp57
 70
     1
102
RTVSPropertyOp58
 70
     1
102
RTVSPropertyOp59
 70
     1
102
RTVSPropertyOp60
 70
     1
102
RTVSPropertyOp61
 70
     1
102
RTVSPropertyOp62
 70
     1
  0
XRECORD
  5
79EC
102
{ACAD_REACTORS
330
79EB
102
}
330
79EB
100
AcDbXrecord
280
     1
102
RTVSPost2010Prop28
280
     0
102
RTVSPost2010PropOp28
 70
     1
102
RTVSPost2010Prop29
280
     1
102
RTVSPost2010PropOp29
 70
     1
102
RTVSPost2010Prop30
280
     1
102
RTVSPost2010PropOp30
 70
     1
102
RTVSPost2010Prop31
280
     0
102
RTVSPost2010PropOp31
 70
     1
102
RTVSPost2010Prop32
280
     0
102
RTVSPost2010PropOp32
 70
     1
102
RTVSPost2010Prop33
280
     0
102
RTVSPost2010PropOp33
 70
     1
102
RTVSPost2010Prop34
280
     0
102
RTVSPost2010PropOp34
 70
     1
102
RTVSPost2010Prop35
280
     0
102
RTVSPost2010PropOp35
 70
     1
102
RTVSPost2010Prop36
280
     0
102
RTVSPost2010PropOp36
 70
     1
102
RTVSPost2010Prop37
 90
       50
102
RTVSPost2010PropOp37
 70
     1
102
RTVSPost2010Prop38
140
0.0
102
RTVSPost2010PropOp38
 70
     1
102
RTVSPost2010Prop39
140
1.0
102
RTVSPost2010PropOp39
 70
     1
102
RTVSPost2010Prop40
 90
        0
102
RTVSPost2010PropOp40
 70
     1
102
RTVSPost2010Prop41ColorIndex
 90
       18
102
RTVSPost2010Prop41ColorRGB
 90
        0
102
RTVSPost2010PropOp41
 70
     1
102
RTVSPost2010Prop42
 90
       50
102
RTVSPost2010PropOp42
 70
     1
102
RTVSPost2010Prop43
 90
        3
102
RTVSPost2010PropOp43
 70
     1
102
RTVSPost2010Prop44ColorIndex
 90
        5
102
RTVSPost2010Prop44ColorRGB
 90
      255
102
RTVSPost2010PropOp44
 70
     1
102
RTVSPost2010Prop45
280
     0
102
RTVSPost2010PropOp45
 70
     1
102
RTVSPost2010Prop46
 90
       50
102
RTVSPost2010PropOp46
 70
     1
102
RTVSPost2010Prop47
 90
       50
102
RTVSPost2010PropOp47
 70
     1
102
RTVSPost2010Prop48
 90
       50
102
RTVSPost2010PropOp48
 70
     1
102
RTVSPost2010Prop49
280
     0
102
RTVSPost2010PropOp49
 70
     1
102
RTVSPost2010Prop50
 90
       50
102
RTVSPost2010PropOp50
 70
     1
102
RTVSPost2010Prop51ColorIndex
 90
      256
102
RTVSPost2010Prop51ColorRGB
 90
-16777216
102
RTVSPost2010PropOp51
 70
     0
102
RTVSPost2010Prop52
140
1.0
102
RTVSPost2010PropOp52
 70
     0
102
RTVSPost2010Prop53
 90
        2
102
RTVSPost2010PropOp53
 70
     1
102
RTVSPost2010Prop54
  1
strokes_ogs.tif
102
RTVSPost2010PropOp54
 70
     1
102
RTVSPost2010Prop55
280
     0
102
RTVSPost2010PropOp55
 70
     1
102
RTVSPost2010Prop56
140
1.0
102
RTVSPost2010PropOp56
 70
     1
102
RTVSPost2010Prop57
140
1.0
102
RTVSPost2010PropOp57
 70
     1
102
RTVSPropertyOp0
 70
     1
102
RTVSPropertyOp1
 70
     1
102
RTVSPropertyOp2
 70
     1
102
RTVSPropertyOp3
 70
     1
102
RTVSPropertyOp4
 70
     1
102
RTVSPropertyOp5
 70
     1
102
RTVSPropertyOp6
 70
     1
102
RTVSPropertyOp7
 70
     1
102
RTVSPropertyOp8
 70
     1
102
RTVSPropertyOp9
 70
     1
102
RTVSPropertyOp10
 70
     1
102
RTVSPropertyOp11
 70
     1
102
RTVSPropertyOp12
 70
     1
102
RTVSPropertyOp13
 70
     1
102
RTVSPropertyOp14
 70
     1
102
RTVSPropertyOp15
 70
     1
102
RTVSPropertyOp16
 70
     1
102
RTVSPropertyOp17
 70
     1
102
RTVSPropertyOp18
 70
     1
102
RTVSPropertyOp19
 70
     1
102
RTVSPropertyOp20
 70
     1
102
RTVSPropertyOp21
 70
     1
102
RTVSPropertyOp22
 70
     1
102
RTVSPropertyOp23
 70
     1
102
RTVSPropertyOp24
 70
     1
102
RTVSPropertyOp25
 70
     1
102
RTVSPropertyOp26
 70
     1
102
RTVSPropertyOp27
 70
     1
102
RTVSPropertyOp28
 70
     1
102
RTVSPropertyOp29
 70
     1
102
RTVSPropertyOp30
 70
     1
102
RTVSPropertyOp31
 70
     1
102
RTVSPropertyOp32
 70
     1
102
RTVSPropertyOp33
 70
     1
102
RTVSPropertyOp34
 70
     1
102
RTVSPropertyOp35
 70
     1
102
RTVSPropertyOp36
 70
     1
102
RTVSPropertyOp37
 70
     1
102
RTVSPropertyOp38
 70
     1
102
RTVSPropertyOp39
 70
     1
102
RTVSPropertyOp40
 70
     1
102
RTVSPropertyOp41
 70
     1
102
RTVSPropertyOp42
 70
     1
102
RTVSPropertyOp43
 70
     1
102
RTVSPropertyOp44
 70
     1
102
RTVSPropertyOp45
 70
     1
102
RTVSPropertyOp46
 70
     1
102
RTVSPropertyOp47
 70
     1
102
RTVSPropertyOp48
 70
     1
102
RTVSPropertyOp49
 70
     1
102
RTVSPropertyOp50
 70
     1
102
RTVSPropertyOp51
 70
     0
102
RTVSPropertyOp52
 70
     0
102
RTVSPropertyOp53
 70
     1
102
RTVSPropertyOp54
 70
     1
102
RTVSPropertyOp55
 70
     1
102
RTVSPropertyOp56
 70
     1
102
RTVSPropertyOp57
 70
     1
102
RTVSPropertyOp58
 70
     1
102
RTVSPropertyOp59
 70
     1
102
RTVSPropertyOp60
 70
     1
102
RTVSPropertyOp61
 70
     1
102
RTVSPropertyOp62
 70
     1
  0
XRECORD
  5
79DC
102
{ACAD_REACTORS
330
79DB
102
}
330
79DB
100
AcDbXrecord
280
     1
102
RTVSPost2010Prop28
280
     0
102
RTVSPost2010PropOp28
 70
     1
102
RTVSPost2010Prop29
280
     1
102
RTVSPost2010PropOp29
 70
     1
102
RTVSPost2010Prop30
280
     1
102
RTVSPost2010PropOp30
 70
     1
102
RTVSPost2010Prop31
280
     0
102
RTVSPost2010PropOp31
 70
     1
102
RTVSPost2010Prop32
280
     0
102
RTVSPost2010PropOp32
 70
     1
102
RTVSPost2010Prop33
280
     0
102
RTVSPost2010PropOp33
 70
     1
102
RTVSPost2010Prop34
280
     0
102
RTVSPost2010PropOp34
 70
     1
102
RTVSPost2010Prop35
280
     0
102
RTVSPost2010PropOp35
 70
     1
102
RTVSPost2010Prop36
280
     0
102
RTVSPost2010PropOp36
 70
     1
102
RTVSPost2010Prop37
 90
       50
102
RTVSPost2010PropOp37
 70
     1
102
RTVSPost2010Prop38
140
0.0
102
RTVSPost2010PropOp38
 70
     1
102
RTVSPost2010Prop39
140
1.0
102
RTVSPost2010PropOp39
 70
     1
102
RTVSPost2010Prop40
 90
        0
102
RTVSPost2010PropOp40
 70
     1
102
RTVSPost2010Prop41ColorIndex
 90
       18
102
RTVSPost2010Prop41ColorRGB
 90
        0
102
RTVSPost2010PropOp41
 70
     1
102
RTVSPost2010Prop42
 90
       50
102
RTVSPost2010PropOp42
 70
     1
102
RTVSPost2010Prop43
 90
        3
102
RTVSPost2010PropOp43
 70
     1
102
RTVSPost2010Prop44ColorIndex
 90
        5
102
RTVSPost2010Prop44ColorRGB
 90
      255
102
RTVSPost2010PropOp44
 70
     1
102
RTVSPost2010Prop45
280
     0
102
RTVSPost2010PropOp45
 70
     1
102
RTVSPost2010Prop46
 90
       50
102
RTVSPost2010PropOp46
 70
     1
102
RTVSPost2010Prop47
 90
       50
102
RTVSPost2010PropOp47
 70
     1
102
RTVSPost2010Prop48
 90
       50
102
RTVSPost2010PropOp48
 70
     1
102
RTVSPost2010Prop49
280
     0
102
RTVSPost2010PropOp49
 70
     1
102
RTVSPost2010Prop50
 90
       50
102
RTVSPost2010PropOp50
 70
     1
102
RTVSPost2010Prop51ColorIndex
 90
      256
102
RTVSPost2010Prop51ColorRGB
 90
-16777216
102
RTVSPost2010PropOp51
 70
     0
102
RTVSPost2010Prop52
140
1.0
102
RTVSPost2010PropOp52
 70
     0
102
RTVSPost2010Prop53
 90
        2
102
RTVSPost2010PropOp53
 70
     1
102
RTVSPost2010Prop54
  1
strokes_ogs.tif
102
RTVSPost2010PropOp54
 70
     1
102
RTVSPost2010Prop55
280
     0
102
RTVSPost2010PropOp55
 70
     1
102
RTVSPost2010Prop56
140
1.0
102
RTVSPost2010PropOp56
 70
     1
102
RTVSPost2010Prop57
140
1.0
102
RTVSPost2010PropOp57
 70
     1
102
RTVSPropertyOp0
 70
     1
102
RTVSPropertyOp1
 70
     1
102
RTVSPropertyOp2
 70
     1
102
RTVSPropertyOp3
 70
     1
102
RTVSPropertyOp4
 70
     1
102
RTVSPropertyOp5
 70
     1
102
RTVSPropertyOp6
 70
     1
102
RTVSPropertyOp7
 70
     1
102
RTVSPropertyOp8
 70
     1
102
RTVSPropertyOp9
 70
     1
102
RTVSPropertyOp10
 70
     1
102
RTVSPropertyOp11
 70
     1
102
RTVSPropertyOp12
 70
     1
102
RTVSPropertyOp13
 70
     1
102
RTVSPropertyOp14
 70
     1
102
RTVSPropertyOp15
 70
     1
102
RTVSPropertyOp16
 70
     1
102
RTVSPropertyOp17
 70
     1
102
RTVSPropertyOp18
 70
     1
102
RTVSPropertyOp19
 70
     1
102
RTVSPropertyOp20
 70
     1
102
RTVSPropertyOp21
 70
     1
102
RTVSPropertyOp22
 70
     1
102
RTVSPropertyOp23
 70
     1
102
RTVSPropertyOp24
 70
     1
102
RTVSPropertyOp25
 70
     1
102
RTVSPropertyOp26
 70
     1
102
RTVSPropertyOp27
 70
     1
102
RTVSPropertyOp28
 70
     1
102
RTVSPropertyOp29
 70
     1
102
RTVSPropertyOp30
 70
     1
102
RTVSPropertyOp31
 70
     1
102
RTVSPropertyOp32
 70
     1
102
RTVSPropertyOp33
 70
     1
102
RTVSPropertyOp34
 70
     1
102
RTVSPropertyOp35
 70
     1
102
RTVSPropertyOp36
 70
     1
102
RTVSPropertyOp37
 70
     1
102
RTVSPropertyOp38
 70
     1
102
RTVSPropertyOp39
 70
     1
102
RTVSPropertyOp40
 70
     1
102
RTVSPropertyOp41
 70
     1
102
RTVSPropertyOp42
 70
     1
102
RTVSPropertyOp43
 70
     1
102
RTVSPropertyOp44
 70
     1
102
RTVSPropertyOp45
 70
     1
102
RTVSPropertyOp46
 70
     1
102
RTVSPropertyOp47
 70
     1
102
RTVSPropertyOp48
 70
     1
102
RTVSPropertyOp49
 70
     1
102
RTVSPropertyOp50
 70
     1
102
RTVSPropertyOp51
 70
     0
102
RTVSPropertyOp52
 70
     0
102
RTVSPropertyOp53
 70
     1
102
RTVSPropertyOp54
 70
     1
102
RTVSPropertyOp55
 70
     1
102
RTVSPropertyOp56
 70
     1
102
RTVSPropertyOp57
 70
     1
102
RTVSPropertyOp58
 70
     1
102
RTVSPropertyOp59
 70
     1
102
RTVSPropertyOp60
 70
     1
102
RTVSPropertyOp61
 70
     1
102
RTVSPropertyOp62
 70
     1
  0
XRECORD
  5
79E6
102
{ACAD_REACTORS
330
79E5
102
}
330
79E5
100
AcDbXrecord
280
     1
102
RTVSPost2010Prop28
280
     0
102
RTVSPost2010PropOp28
 70
     1
102
RTVSPost2010Prop29
280
     1
102
RTVSPost2010PropOp29
 70
     1
102
RTVSPost2010Prop30
280
     1
102
RTVSPost2010PropOp30
 70
     1
102
RTVSPost2010Prop31
280
     0
102
RTVSPost2010PropOp31
 70
     1
102
RTVSPost2010Prop32
280
     0
102
RTVSPost2010PropOp32
 70
     1
102
RTVSPost2010Prop33
280
     0
102
RTVSPost2010PropOp33
 70
     1
102
RTVSPost2010Prop34
280
     0
102
RTVSPost2010PropOp34
 70
     1
102
RTVSPost2010Prop35
280
     0
102
RTVSPost2010PropOp35
 70
     1
102
RTVSPost2010Prop36
280
     0
102
RTVSPost2010PropOp36
 70
     1
102
RTVSPost2010Prop37
 90
       50
102
RTVSPost2010PropOp37
 70
     1
102
RTVSPost2010Prop38
140
0.0
102
RTVSPost2010PropOp38
 70
     1
102
RTVSPost2010Prop39
140
1.0
102
RTVSPost2010PropOp39
 70
     1
102
RTVSPost2010Prop40
 90
        0
102
RTVSPost2010PropOp40
 70
     1
102
RTVSPost2010Prop41ColorIndex
 90
       18
102
RTVSPost2010Prop41ColorRGB
 90
        0
102
RTVSPost2010PropOp41
 70
     1
102
RTVSPost2010Prop42
 90
       50
102
RTVSPost2010PropOp42
 70
     1
102
RTVSPost2010Prop43
 90
        3
102
RTVSPost2010PropOp43
 70
     1
102
RTVSPost2010Prop44ColorIndex
 90
        5
102
RTVSPost2010Prop44ColorRGB
 90
      255
102
RTVSPost2010PropOp44
 70
     1
102
RTVSPost2010Prop45
280
     0
102
RTVSPost2010PropOp45
 70
     1
102
RTVSPost2010Prop46
 90
       50
102
RTVSPost2010PropOp46
 70
     1
102
RTVSPost2010Prop47
 90
       50
102
RTVSPost2010PropOp47
 70
     1
102
RTVSPost2010Prop48
 90
       50
102
RTVSPost2010PropOp48
 70
     1
102
RTVSPost2010Prop49
280
     0
102
RTVSPost2010PropOp49
 70
     1
102
RTVSPost2010Prop50
 90
       50
102
RTVSPost2010PropOp50
 70
     1
102
RTVSPost2010Prop51ColorIndex
 90
      256
102
RTVSPost2010Prop51ColorRGB
 90
-16777216
102
RTVSPost2010PropOp51
 70
     0
102
RTVSPost2010Prop52
140
1.0
102
RTVSPost2010PropOp52
 70
     0
102
RTVSPost2010Prop53
 90
        2
102
RTVSPost2010PropOp53
 70
     1
102
RTVSPost2010Prop54
  1
strokes_ogs.tif
102
RTVSPost2010PropOp54
 70
     1
102
RTVSPost2010Prop55
280
     0
102
RTVSPost2010PropOp55
 70
     1
102
RTVSPost2010Prop56
140
1.0
102
RTVSPost2010PropOp56
 70
     1
102
RTVSPost2010Prop57
140
1.0
102
RTVSPost2010PropOp57
 70
     1
102
RTVSPropertyOp0
 70
     1
102
RTVSPropertyOp1
 70
     1
102
RTVSPropertyOp2
 70
     1
102
RTVSPropertyOp3
 70
     1
102
RTVSPropertyOp4
 70
     1
102
RTVSPropertyOp5
 70
     1
102
RTVSPropertyOp6
 70
     1
102
RTVSPropertyOp7
 70
     1
102
RTVSPropertyOp8
 70
     1
102
RTVSPropertyOp9
 70
     1
102
RTVSPropertyOp10
 70
     1
102
RTVSPropertyOp11
 70
     1
102
RTVSPropertyOp12
 70
     1
102
RTVSPropertyOp13
 70
     1
102
RTVSPropertyOp14
 70
     1
102
RTVSPropertyOp15
 70
     1
102
RTVSPropertyOp16
 70
     1
102
RTVSPropertyOp17
 70
     1
102
RTVSPropertyOp18
 70
     1
102
RTVSPropertyOp19
 70
     1
102
RTVSPropertyOp20
 70
     1
102
RTVSPropertyOp21
 70
     1
102
RTVSPropertyOp22
 70
     1
102
RTVSPropertyOp23
 70
     1
102
RTVSPropertyOp24
 70
     1
102
RTVSPropertyOp25
 70
     1
102
RTVSPropertyOp26
 70
     1
102
RTVSPropertyOp27
 70
     1
102
RTVSPropertyOp28
 70
     1
102
RTVSPropertyOp29
 70
     1
102
RTVSPropertyOp30
 70
     1
102
RTVSPropertyOp31
 70
     1
102
RTVSPropertyOp32
 70
     1
102
RTVSPropertyOp33
 70
     1
102
RTVSPropertyOp34
 70
     1
102
RTVSPropertyOp35
 70
     1
102
RTVSPropertyOp36
 70
     1
102
RTVSPropertyOp37
 70
     1
102
RTVSPropertyOp38
 70
     1
102
RTVSPropertyOp39
 70
     1
102
RTVSPropertyOp40
 70
     1
102
RTVSPropertyOp41
 70
     1
102
RTVSPropertyOp42
 70
     1
102
RTVSPropertyOp43
 70
     1
102
RTVSPropertyOp44
 70
     1
102
RTVSPropertyOp45
 70
     1
102
RTVSPropertyOp46
 70
     1
102
RTVSPropertyOp47
 70
     1
102
RTVSPropertyOp48
 70
     1
102
RTVSPropertyOp49
 70
     1
102
RTVSPropertyOp50
 70
     1
102
RTVSPropertyOp51
 70
     0
102
RTVSPropertyOp52
 70
     0
102
RTVSPropertyOp53
 70
     1
102
RTVSPropertyOp54
 70
     1
102
RTVSPropertyOp55
 70
     1
102
RTVSPropertyOp56
 70
     1
102
RTVSPropertyOp57
 70
     1
102
RTVSPropertyOp58
 70
     1
102
RTVSPropertyOp59
 70
     1
102
RTVSPropertyOp60
 70
     1
102
RTVSPropertyOp61
 70
     1
102
RTVSPropertyOp62
 70
     1
  0
XRECORD
  5
79EE
102
{ACAD_REACTORS
330
79ED
102
}
330
79ED
100
AcDbXrecord
280
     1
102
RTVSPost2010Prop28
280
     0
102
RTVSPost2010PropOp28
 70
     1
102
RTVSPost2010Prop29
280
     1
102
RTVSPost2010PropOp29
 70
     1
102
RTVSPost2010Prop30
280
     1
102
RTVSPost2010PropOp30
 70
     1
102
RTVSPost2010Prop31
280
     0
102
RTVSPost2010PropOp31
 70
     1
102
RTVSPost2010Prop32
280
     0
102
RTVSPost2010PropOp32
 70
     1
102
RTVSPost2010Prop33
280
     0
102
RTVSPost2010PropOp33
 70
     1
102
RTVSPost2010Prop34
280
     0
102
RTVSPost2010PropOp34
 70
     1
102
RTVSPost2010Prop35
280
     0
102
RTVSPost2010PropOp35
 70
     1
102
RTVSPost2010Prop36
280
     0
102
RTVSPost2010PropOp36
 70
     1
102
RTVSPost2010Prop37
 90
       50
102
RTVSPost2010PropOp37
 70
     1
102
RTVSPost2010Prop38
140
0.0
102
RTVSPost2010PropOp38
 70
     1
102
RTVSPost2010Prop39
140
1.0
102
RTVSPost2010PropOp39
 70
     1
102
RTVSPost2010Prop40
 90
        0
102
RTVSPost2010PropOp40
 70
     1
102
RTVSPost2010Prop41ColorIndex
 90
       18
102
RTVSPost2010Prop41ColorRGB
 90
        0
102
RTVSPost2010PropOp41
 70
     1
102
RTVSPost2010Prop42
 90
       50
102
RTVSPost2010PropOp42
 70
     1
102
RTVSPost2010Prop43
 90
        3
102
RTVSPost2010PropOp43
 70
     1
102
RTVSPost2010Prop44ColorIndex
 90
        5
102
RTVSPost2010Prop44ColorRGB
 90
      255
102
RTVSPost2010PropOp44
 70
     1
102
RTVSPost2010Prop45
280
     0
102
RTVSPost2010PropOp45
 70
     1
102
RTVSPost2010Prop46
 90
       50
102
RTVSPost2010PropOp46
 70
     1
102
RTVSPost2010Prop47
 90
       50
102
RTVSPost2010PropOp47
 70
     1
102
RTVSPost2010Prop48
 90
       50
102
RTVSPost2010PropOp48
 70
     1
102
RTVSPost2010Prop49
280
     0
102
RTVSPost2010PropOp49
 70
     1
102
RTVSPost2010Prop50
 90
       50
102
RTVSPost2010PropOp50
 70
     1
102
RTVSPost2010Prop51ColorIndex
 90
      256
102
RTVSPost2010Prop51ColorRGB
 90
-16777216
102
RTVSPost2010PropOp51
 70
     0
102
RTVSPost2010Prop52
140
1.0
102
RTVSPost2010PropOp52
 70
     0
102
RTVSPost2010Prop53
 90
        2
102
RTVSPost2010PropOp53
 70
     1
102
RTVSPost2010Prop54
  1
strokes_ogs.tif
102
RTVSPost2010PropOp54
 70
     1
102
RTVSPost2010Prop55
280
     0
102
RTVSPost2010PropOp55
 70
     1
102
RTVSPost2010Prop56
140
1.0
102
RTVSPost2010PropOp56
 70
     1
102
RTVSPost2010Prop57
140
1.0
102
RTVSPost2010PropOp57
 70
     1
102
RTVSPropertyOp0
 70
     1
102
RTVSPropertyOp1
 70
     1
102
RTVSPropertyOp2
 70
     1
102
RTVSPropertyOp3
 70
     1
102
RTVSPropertyOp4
 70
     1
102
RTVSPropertyOp5
 70
     1
102
RTVSPropertyOp6
 70
     1
102
RTVSPropertyOp7
 70
     1
102
RTVSPropertyOp8
 70
     1
102
RTVSPropertyOp9
 70
     1
102
RTVSPropertyOp10
 70
     1
102
RTVSPropertyOp11
 70
     1
102
RTVSPropertyOp12
 70
     1
102
RTVSPropertyOp13
 70
     1
102
RTVSPropertyOp14
 70
     1
102
RTVSPropertyOp15
 70
     1
102
RTVSPropertyOp16
 70
     1
102
RTVSPropertyOp17
 70
     1
102
RTVSPropertyOp18
 70
     1
102
RTVSPropertyOp19
 70
     1
102
RTVSPropertyOp20
 70
     1
102
RTVSPropertyOp21
 70
     1
102
RTVSPropertyOp22
 70
     1
102
RTVSPropertyOp23
 70
     1
102
RTVSPropertyOp24
 70
     1
102
RTVSPropertyOp25
 70
     1
102
RTVSPropertyOp26
 70
     1
102
RTVSPropertyOp27
 70
     1
102
RTVSPropertyOp28
 70
     1
102
RTVSPropertyOp29
 70
     1
102
RTVSPropertyOp30
 70
     1
102
RTVSPropertyOp31
 70
     1
102
RTVSPropertyOp32
 70
     1
102
RTVSPropertyOp33
 70
     1
102
RTVSPropertyOp34
 70
     1
102
RTVSPropertyOp35
 70
     1
102
RTVSPropertyOp36
 70
     1
102
RTVSPropertyOp37
 70
     1
102
RTVSPropertyOp38
 70
     1
102
RTVSPropertyOp39
 70
     1
102
RTVSPropertyOp40
 70
     1
102
RTVSPropertyOp41
 70
     1
102
RTVSPropertyOp42
 70
     1
102
RTVSPropertyOp43
 70
     1
102
RTVSPropertyOp44
 70
     1
102
RTVSPropertyOp45
 70
     1
102
RTVSPropertyOp46
 70
     1
102
RTVSPropertyOp47
 70
     1
102
RTVSPropertyOp48
 70
     1
102
RTVSPropertyOp49
 70
     1
102
RTVSPropertyOp50
 70
     1
102
RTVSPropertyOp51
 70
     0
102
RTVSPropertyOp52
 70
     0
102
RTVSPropertyOp53
 70
     1
102
RTVSPropertyOp54
 70
     1
102
RTVSPropertyOp55
 70
     1
102
RTVSPropertyOp56
 70
     1
102
RTVSPropertyOp57
 70
     1
102
RTVSPropertyOp58
 70
     1
102
RTVSPropertyOp59
 70
     1
102
RTVSPropertyOp60
 70
     1
102
RTVSPropertyOp61
 70
     1
102
RTVSPropertyOp62
 70
     1
  0
XRECORD
  5
35F9
102
{ACAD_REACTORS
330
35F8
102
}
330
35F8
100
AcDbXrecord
280
     1
330
2F64
  0
ENDSEC
  0
EOF
