  0
SECTION
  2
HEADER
  9
$ACADVER
  1
AC1018
  9
$ACADMAINTVER
 70
   104
  9
$DWGCODEPAGE
  3
ANSI_1252
  9
$LASTSAVEDBY
  1
Dennis
  9
$INSBASE
 10
0.0
 20
0.0
 30
0.0
  9
$EXTMIN
 10
8262.161184993606
 20
-958.3172562031704
 30
0.0
  9
$EXTMAX
 10
10268.52534156427
 20
-547.2781376777475
 30
0.0
  9
$LIMMIN
 10
0.0
 20
0.0
  9
$LIMMAX
 10
12.0
 20
9.0
  9
$ORTHOMODE
 70
     0
  9
$REGENMODE
 70
     1
  9
$FILLMODE
 70
     1
  9
$QTEXTMODE
 70
     0
  9
$MIRRTEXT
 70
     0
  9
$LTSCALE
 40
1.0
  9
$ATTMODE
 70
     1
  9
$TEXTSIZE
 40
2.5
  9
$TRACEWID
 40
0.05
  9
$TEXTSTYLE
  7
1
  9
$CLAYER
  8
TEXT
  9
$CELTYPE
  6
ByLayer
  9
$CECOLOR
 62
   256
  9
$CELTSCALE
 40
1.0
  9
$DISPSILH
 70
     0
  9
$DIMSCALE
 40
0.0
  9
$DIMASZ
 40
3.0
  9
$DIMEXO
 40
1.0
  9
$DIMDLI
 40
1.0
  9
$DIMRND
 40
0.0
  9
$DIMDLE
 40
0.0
  9
$DIMEXE
 40
1.0
  9
$DIMTP
 40
0.0
  9
$DIMTM
 40
0.0
  9
$DIMTXT
 40
2.5
  9
$DIMCEN
 40
0.09
  9
$DIMTSZ
 40
0.0
  9
$DIMTOL
 70
     0
  9
$DIMLIM
 70
     0
  9
$DIMTIH
 70
     0
  9
$DIMTOH
 70
     0
  9
$DIMSE1
 70
     0
  9
$DIMSE2
 70
     0
  9
$DIMTAD
 70
     1
  9
$DIMZIN
 70
     0
  9
$DIMBLK
  1

  9
$DIMASO
 70
     1
  9
$DIMSHO
 70
     1
  9
$DIMPOST
  1

  9
$DIMAPOST
  1

  9
$DIMALT
 70
     0
  9
$DIMALTD
 70
     2
  9
$DIMALTF
 40
25.4
  9
$DIMLFAC
 40
1.0
  9
$DIMTOFL
 70
     0
  9
$DIMTVP
 40
0.0
  9
$DIMTIX
 70
     0
  9
$DIMSOXD
 70
     0
  9
$DIMSAH
 70
     0
  9
$DIMBLK1
  1

  9
$DIMBLK2
  1

  9
$DIMSTYLE
  2
1
  9
$DIMCLRD
 70
   256
  9
$DIMCLRE
 70
   256
  9
$DIMCLRT
 70
   256
  9
$DIMTFAC
 40
1.0
  9
$DIMGAP
 40
1.0
  9
$DIMJUST
 70
     0
  9
$DIMSD1
 70
     0
  9
$DIMSD2
 70
     0
  9
$DIMTOLJ
 70
     1
  9
$DIMTZIN
 70
     0
  9
$DIMALTZ
 70
     0
  9
$DIMALTTZ
 70
     0
  9
$DIMUPT
 70
     0
  9
$DIMDEC
 70
     0
  9
$DIMTDEC
 70
     0
  9
$DIMALTU
 70
     2
  9
$DIMALTTD
 70
     2
  9
$DIMTXSTY
  7
1
  9
$DIMAUNIT
 70
     0
  9
$DIMADEC
 70
     0
  9
$DIMALTRND
 40
0.0
  9
$DIMAZIN
 70
     0
  9
$DIMDSEP
 70
    46
  9
$DIMATFIT
 70
     3
  9
$DIMFRAC
 70
     0
  9
$DIMLDRBLK
  1

  9
$DIMLUNIT
 70
     2
  9
$DIMLWD
 70
    -2
  9
$DIMLWE
 70
    -2
  9
$DIMTMOVE
 70
     0
  9
$LUNITS
 70
     2
  9
$LUPREC
 70
     4
  9
$SKETCHINC
 40
0.1
  9
$FILLETRAD
 40
0.0
  9
$AUNITS
 70
     0
  9
$AUPREC
 70
     0
  9
$MENU
  1
.
  9
$ELEVATION
 40
0.0
  9
$PELEVATION
 40
0.0
  9
$THICKNESS
 40
0.0
  9
$LIMCHECK
 70
     0
  9
$CHAMFERA
 40
0.0
  9
$CHAMFERB
 40
0.0
  9
$CHAMFERC
 40
0.0
  9
$CHAMFERD
 40
0.0
  9
$SKPOLY
 70
     0
  9
$TDCREATE
 40
2455236.346948056
  9
$TDUCREATE
 40
2455235.846948056
  9
$TDUPDATE
 40
2456549.664409884
  9
$TDUUPDATE
 40
2456549.164409885
  9
$TDINDWG
 40
0.9928026273
  9
$TDUSRTIMER
 40
0.9928026273
  9
$USRTIMER
 70
     1
  9
$ANGBASE
 50
0.0
  9
$ANGDIR
 70
     0
  9
$PDMODE
 70
     0
  9
$PDSIZE
 40
0.0
  9
$PLINEWID
 40
0.0
  9
$SPLFRAME
 70
     0
  9
$SPLINETYPE
 70
     6
  9
$SPLINESEGS
 70
     8
  9
$HANDSEED
  5
1AE25
  9
$SURFTAB1
 70
     6
  9
$SURFTAB2
 70
     6
  9
$SURFTYPE
 70
     6
  9
$SURFU
 70
     6
  9
$SURFV
 70
     6
  9
$UCSBASE
  2

  9
$UCSNAME
  2

  9
$UCSORG
 10
0.0
 20
0.0
 30
0.0
  9
$UCSXDIR
 10
1.0
 20
0.0
 30
0.0
  9
$UCSYDIR
 10
0.0
 20
1.0
 30
0.0
  9
$UCSORTHOREF
  2

  9
$UCSORTHOVIEW
 70
     0
  9
$UCSORGTOP
 10
0.0
 20
0.0
 30
0.0
  9
$UCSORGBOTTOM
 10
0.0
 20
0.0
 30
0.0
  9
$UCSORGLEFT
 10
0.0
 20
0.0
 30
0.0
  9
$UCSORGRIGHT
 10
0.0
 20
0.0
 30
0.0
  9
$UCSORGFRONT
 10
0.0
 20
0.0
 30
0.0
  9
$UCSORGBACK
 10
0.0
 20
0.0
 30
0.0
  9
$PUCSBASE
  2

  9
$PUCSNAME
  2

  9
$PUCSORG
 10
0.0
 20
0.0
 30
0.0
  9
$PUCSXDIR
 10
1.0
 20
0.0
 30
0.0
  9
$PUCSYDIR
 10
0.0
 20
1.0
 30
0.0
  9
$PUCSORTHOREF
  2

  9
$PUCSORTHOVIEW
 70
     0
  9
$PUCSORGTOP
 10
0.0
 20
0.0
 30
0.0
  9
$PUCSORGBOTTOM
 10
0.0
 20
0.0
 30
0.0
  9
$PUCSORGLEFT
 10
0.0
 20
0.0
 30
0.0
  9
$PUCSORGRIGHT
 10
0.0
 20
0.0
 30
0.0
  9
$PUCSORGFRONT
 10
0.0
 20
0.0
 30
0.0
  9
$PUCSORGBACK
 10
0.0
 20
0.0
 30
0.0
  9
$USERI1
 70
     0
  9
$USERI2
 70
     0
  9
$USERI3
 70
     0
  9
$USERI4
 70
     0
  9
$USERI5
 70
     0
  9
$USERR1
 40
0.0
  9
$USERR2
 40
0.0
  9
$USERR3
 40
0.0
  9
$USERR4
 40
0.0
  9
$USERR5
 40
0.0
  9
$WORLDVIEW
 70
     1
  9
$SHADEDGE
 70
     3
  9
$SHADEDIF
 70
    70
  9
$TILEMODE
 70
     0
  9
$MAXACTVP
 70
    64
  9
$PINSBASE
 10
0.0
 20
0.0
 30
0.0
  9
$PLIMCHECK
 70
     0
  9
$PEXTMIN
 10
8.176555417592453
 20
6.832420799032661
 30
-0.0000000000112498
  9
$PEXTMAX
 10
198.3783772200425
 20
283.4641610999487
 30
0.0000000000002956
  9
$PLIMMIN
 10
-3.174999952316284
 20
-3.174999952316284
  9
$PLIMMAX
 10
206.7983276844024
 20
293.8568298816681
  9
$UNITMODE
 70
     0
  9
$VISRETAIN
 70
     1
  9
$PLINEGEN
 70
     0
  9
$PSLTSCALE
 70
     0
  9
$TREEDEPTH
 70
  3020
  9
$CMLSTYLE
  2
Standard
  9
$CMLJUST
 70
     0
  9
$CMLSCALE
 40
1.0
  9
$PROXYGRAPHICS
 70
     1
  9
$MEASUREMENT
 70
     0
  9
$CELWEIGHT
370
    -1
  9
$ENDCAPS
280
     0
  9
$JOINSTYLE
280
     0
  9
$LWDISPLAY
290
     1
  9
$INSUNITS
 70
     4
  9
$HYPERLINKBASE
  1

  9
$STYLESHEET
  1
Hebel monochrome.ctb
  9
$XEDIT
290
     1
  9
$CEPSNTYPE
380
     0
  9
$PSTYLEMODE
290
     1
  9
$FINGERPRINTGUID
  2
{E831410F-CB9D-4B8B-A7BA-77BB2A44821D}
  9
$VERSIONGUID
  2
{111CCA3E-6DED-4AE9-8AD0-015EFC412FAD}
  9
$EXTNAMES
290
     1
  9
$PSVPSCALE
 40
0.0
  9
$OLESTARTUP
290
     0
  9
$SORTENTS
280
   127
  9
$INDEXCTL
280
     0
  9
$HIDETEXT
280
     1
  9
$XCLIPFRAME
290
     0
  9
$HALOGAP
280
     0
  9
$OBSCOLOR
 70
   257
  9
$OBSLTYPE
280
     0
  9
$INTERSECTIONDISPLAY
280
     0
  9
$INTERSECTIONCOLOR
 70
   257
  9
$DIMASSOC
280
     2
  9
$PROJECTNAME
  1

  0
ENDSEC
  0
SECTION
  2
CLASSES
  0
CLASS
  1
ACDBDICTIONARYWDFLT
  2
AcDbDictionaryWithDefault
  3
ObjectDBX Classes
 90
        0
 91
        1
280
     0
281
     0
  0
CLASS
  1
DICTIONARYVAR
  2
AcDbDictionaryVar
  3
ObjectDBX Classes
 90
        0
 91
       11
280
     0
281
     0
  0
CLASS
  1
TABLESTYLE
  2
AcDbTableStyle
  3
ObjectDBX Classes
 90
     4095
 91
        1
280
     0
281
     0
  0
CLASS
  1
MATERIAL
  2
AcDbMaterial
  3
ObjectDBX Classes
 90
     1153
 91
        3
280
     0
281
     0
  0
CLASS
  1
VISUALSTYLE
  2
AcDbVisualStyle
  3
ObjectDBX Classes
 90
     4095
 91
       26
280
     0
281
     0
  0
CLASS
  1
SCALE
  2
AcDbScale
  3
ObjectDBX Classes
 90
     1153
 91
       33
280
     0
281
     0
  0
CLASS
  1
MLEADERSTYLE
  2
AcDbMLeaderStyle
  3
ACDB_MLEADERSTYLE_CLASS
 90
     4095
 91
        1
280
     0
281
     0
  0
CLASS
  1
CELLSTYLEMAP
  2
AcDbCellStyleMap
  3
ObjectDBX Classes
 90
     1152
 91
        4
280
     0
281
     0
  0
CLASS
  1
EXACXREFPANELOBJECT
  2
ExAcXREFPanelObject
  3
EXAC_ESW
 90
     1025
 91
        0
280
     0
281
     0
  0
CLASS
  1
NPOCOLLECTION
  2
AcDbImpNonPersistentObjectsCollection
  3
ObjectDBX Classes
 90
     1153
 91
        0
280
     0
281
     0
  0
CLASS
  1
LAYER_INDEX
  2
AcDbLayerIndex
  3
ObjectDBX Classes
 90
        0
 91
        0
280
     0
281
     0
  0
CLASS
  1
SPATIAL_INDEX
  2
AcDbSpatialIndex
  3
ObjectDBX Classes
 90
        0
 91
        0
280
     0
281
     0
  0
CLASS
  1
IDBUFFER
  2
AcDbIdBuffer
  3
ObjectDBX Classes
 90
        0
 91
        0
280
     0
281
     0
  0
CLASS
  1
AEC_REFEDIT_STATUS_TRACKER
  2
AecDbRefEditStatusTracker
  3
AecArchBase50|Product Desc: Autodesk Architectural Desktop 2007 |Company: Autodesk,Inc. |WEB Address: www.autodesk.com
 90
      129
 91
        0
280
     0
281
     0
  0
CLASS
  1
SORTENTSTABLE
  2
AcDbSortentsTable
  3
ObjectDBX Classes
 90
        0
 91
        4
280
     0
281
     0
  0
CLASS
  1
DIMASSOC
  2
AcDbDimAssoc
  3
"AcDbDimAssoc|Product Desc:     AcDim ARX App For Dimension|Company:          Autodesk, Inc.|WEB Address:      www.autodesk.com"
 90
        0
 91
        0
280
     0
281
     0
  0
CLASS
  1
ACDB_ALDIMOBJECTCONTEXTDATA_CLASS
  2
AcDbAlignedDimensionObjectContextData
  3
ObjectDBX Classes
 90
     1153
 91
        0
280
     0
281
     0
  0
CLASS
  1
IMAGE
  2
AcDbRasterImage
  3
ISM
 90
     2175
 91
        1
280
     0
281
     1
  0
CLASS
  1
IMAGEDEF_REACTOR
  2
AcDbRasterImageDefReactor
  3
ISM
 90
        1
 91
        1
280
     0
281
     0
  0
CLASS
  1
IMAGEDEF
  2
AcDbRasterImageDef
  3
ISM
 90
        0
 91
        3
280
     0
281
     0
  0
CLASS
  1
RASTERVARIABLES
  2
AcDbRasterVariables
  3
ISM
 90
        0
 91
        1
280
     0
281
     0
  0
CLASS
  1
ACDB_LEADEROBJECTCONTEXTDATA_CLASS
  2
AcDbLeaderObjectContextData
  3
ObjectDBX Classes
 90
     1153
 91
       10
280
     0
281
     0
  0
CLASS
  1
ACDB_MTEXTOBJECTCONTEXTDATA_CLASS
  2
AcDbMTextObjectContextData
  3
ObjectDBX Classes
 90
     1153
 91
        2
280
     0
281
     0
  0
CLASS
  1
PLOTSETTINGS
  2
AcDbPlotSettings
  3
ObjectDBX Classes
 90
        0
 91
        1
280
     0
281
     0
  0
CLASS
  1
ACAD_EVALUATION_GRAPH
  2
AcDbEvalGraph
  3
ObjectDBX Classes
 90
     1153
 91
        0
280
     0
281
     0
  0
CLASS
  1
BLOCKROTATIONPARAMETER
  2
AcDbBlockRotationParameter
  3
ObjectDBX Classes
 90
     1153
 91
        0
280
     0
281
     0
  0
CLASS
  1
BLOCKROTATIONGRIP
  2
AcDbBlockRotationGrip
  3
ObjectDBX Classes
 90
     1153
 91
        0
280
     0
281
     0
  0
CLASS
  1
BLOCKGRIPLOCATIONCOMPONENT
  2
AcDbBlockGripExpr
  3
ObjectDBX Classes
 90
     1153
 91
        0
280
     0
281
     0
  0
CLASS
  1
BLOCKLINEARPARAMETER
  2
AcDbBlockLinearParameter
  3
ObjectDBX Classes
 90
     1153
 91
        0
280
     0
281
     0
  0
CLASS
  1
BLOCKLINEARGRIP
  2
AcDbBlockLinearGrip
  3
ObjectDBX Classes
 90
     1153
 91
        0
280
     0
281
     0
  0
CLASS
  1
BLOCKFLIPPARAMETER
  2
AcDbBlockFlipParameter
  3
ObjectDBX Classes
 90
     1153
 91
        0
280
     0
281
     0
  0
CLASS
  1
BLOCKFLIPGRIP
  2
AcDbBlockFlipGrip
  3
ObjectDBX Classes
 90
     1153
 91
        0
280
     0
281
     0
  0
CLASS
  1
BLOCKSTRETCHACTION
  2
AcDbBlockStretchAction
  3
ObjectDBX Classes
 90
     1153
 91
        0
280
     0
281
     0
  0
CLASS
  1
BLOCKVISIBILITYPARAMETER
  2
AcDbBlockVisibilityParameter
  3
ObjectDBX Classes
 90
     1153
 91
        0
280
     0
281
     0
  0
CLASS
  1
BLOCKVISIBILITYGRIP
  2
AcDbBlockVisibilityGrip
  3
ObjectDBX Classes
 90
     1153
 91
        0
280
     0
281
     0
  0
CLASS
  1
BLOCKSCALEACTION
  2
AcDbBlockScaleAction
  3
ObjectDBX Classes
 90
     1153
 91
        0
280
     0
281
     0
  0
CLASS
  1
BLOCKROTATEACTION
  2
AcDbBlockRotateAction
  3
ObjectDBX Classes
 90
     1153
 91
        0
280
     0
281
     0
  0
CLASS
  1
BLOCKFLIPACTION
  2
AcDbBlockFlipAction
  3
ObjectDBX Classes
 90
     1153
 91
        0
280
     0
281
     0
  0
CLASS
  1
ACDB_DYNAMICBLOCKPURGEPREVENTER_VERSION
  2
AcDbDynamicBlockPurgePreventer
  3
ObjectDBX Classes
 90
     1153
 91
        0
280
     0
281
     0
  0
CLASS
  1
ACDB_BLKREFOBJECTCONTEXTDATA_CLASS
  2
AcDbBlkRefObjectContextData
  3
ObjectDBX Classes
 90
     1153
 91
        0
280
     0
281
     0
  0
CLASS
  1
ACDBSECTIONVIEWSTYLE
  2
AcDbSectionViewStyle
  3
ObjectDBX Classes
 90
     1025
 91
        1
280
     0
281
     0
  0
CLASS
  1
ACDBDETAILVIEWSTYLE
  2
AcDbDetailViewStyle
  3
ObjectDBX Classes
 90
     1025
 91
        1
280
     0
281
     0
  0
ENDSEC
  0
SECTION
  2
TABLES
  0
TABLE
  2
VPORT
  5
8
102
{ACAD_XDICTIONARY
360
11BA6
102
}
330
0
100
AcDbSymbolTable
 70
     1
  0
VPORT
  5
94
330
8
100
AcDbSymbolTableRecord
100
AcDbViewportTableRecord
  2
*Active
 70
     0
 10
0.0
 20
0.0
 11
1.0
 21
1.0
 12
9202.099744973054
 22
-919.4075969731938
 13
0.0
 23
0.0
 14
0.5
 24
0.5
 15
0.5
 25
0.5
 16
0.0
 26
0.0
 36
1.0
 17
0.0
 27
0.0
 37
0.0
 40
1703.439628349744
 41
1.546575342465753
 42
50.0
 43
0.0
 44
0.0
 50
0.0
 51
0.0
 71
     0
 72
  1000
 73
     1
 74
     3
 75
     0
 76
     0
 77
     0
 78
     0
281
     0
 65
     1
110
0.0
120
0.0
130
0.0
111
1.0
121
0.0
131
0.0
112
0.0
122
1.0
132
0.0
 79
     0
146
0.0
  0
ENDTAB
  0
TABLE
  2
LTYPE
  5
5
330
0
100
AcDbSymbolTable
 70
     4
  0
LTYPE
  5
14
330
5
100
AcDbSymbolTableRecord
100
AcDbLinetypeTableRecord
  2
ByBlock
 70
     0
  3

 72
    65
 73
     0
 40
0.0
  0
LTYPE
  5
15
330
5
100
AcDbSymbolTableRecord
100
AcDbLinetypeTableRecord
  2
ByLayer
 70
     0
  3

 72
    65
 73
     0
 40
0.0
  0
LTYPE
  5
16
330
5
100
AcDbSymbolTableRecord
100
AcDbLinetypeTableRecord
  2
Continuous
 70
     0
  3
Solid line
 72
    65
 73
     0
 40
0.0
  0
LTYPE
  5
1A181
330
5
100
AcDbSymbolTableRecord
100
AcDbLinetypeTableRecord
  2
CENTER
 70
     0
  3
___ _ ___ _ ___ _ ___ _ ___ _ ___ _ ___ _ ___ _
 72
    65
 73
     4
 40
0.95
 49
0.625
 74
     0
 49
-0.125
 74
     0
 49
0.075
 74
     0
 49
-0.125
 74
     0
  0
LTYPE
  5
1A2ED
330
5
100
AcDbSymbolTableRecord
100
AcDbLinetypeTableRecord
  2
BATTING
 70
     0
  3
Batting SSSSSSSSSSSSSSSSSSSSSSSSSSSSSSSSSSSSSSSSSSSSSSS
 72
    65
 73
     4
 40
0.4001000000000001
 49
0.0001
 74
     0
 49
-0.1
 74
     4
 75
   134
340
12C0D
 46
0.1
 50
0.0
 44
-0.1
 45
0.0
 49
-0.2
 74
     4
 75
   134
340
12C0D
 46
0.1
 50
180.0
 44
0.1
 45
0.0
 49
-0.1
 74
     0
  0
LTYPE
  5
1AAD7
330
5
100
AcDbSymbolTableRecord
100
AcDbLinetypeTableRecord
  2
PHANTOM2
 70
     0
  3
Phantom (.5x) ___ _ _ ___ _ _ ___ _ _ ___ _ _
 72
    65
 73
     6
 40
1.25
 49
0.625
 74
     0
 49
-0.125
 74
     0
 49
0.125
 74
     0
 49
-0.125
 74
     0
 49
0.125
 74
     0
 49
-0.125
 74
     0
  0
ENDTAB
  0
TABLE
  2
LAYER
  5
2
102
{ACAD_XDICTIONARY
360
1D5
102
}
330
0
100
AcDbSymbolTable
 70
    20
  0
LAYER
  5
10
102
{ACAD_XDICTIONARY
360
E6
102
}
330
2
100
AcDbSymbolTableRecord
100
AcDbLayerTableRecord
  2
0
 70
     0
 62
     7
  6
Continuous
370
    -3
390
F
  0
LAYER
  5
171
330
2
100
AcDbSymbolTableRecord
100
AcDbLayerTableRecord
  2
Hebel
 70
     0
 62
     7
  6
Continuous
370
    50
390
F
1001
AcAecLayerStandard
1000

1000

  0
LAYER
  5
173
330
2
100
AcDbSymbolTableRecord
100
AcDbLayerTableRecord
  2
Timber
 70
     0
 62
    34
  6
Continuous
370
    35
390
F
1001
AcAecLayerStandard
1000

1000

  0
LAYER
  5
175
330
2
100
AcDbSymbolTableRecord
100
AcDbLayerTableRecord
  2
Hatch
 70
     0
 62
     2
  6
Continuous
370
    20
390
F
  0
LAYER
  5
176
330
2
100
AcDbSymbolTableRecord
100
AcDbLayerTableRecord
  2
DEFPOINTS
 70
     0
 62
   210
  6
Continuous
290
     0
370
    -3
390
F
  0
LAYER
  5
15F8
330
2
100
AcDbSymbolTableRecord
100
AcDbLayerTableRecord
  2
Border
 70
     0
 62
     7
  6
Continuous
370
    50
390
F
1001
AcAecLayerStandard
1000

1000

  0
LAYER
  5
162D
102
{ACAD_XDICTIONARY
360
162E
102
}
330
2
100
AcDbSymbolTableRecord
100
AcDbLayerTableRecord
  2
3
 70
     0
 62
     2
  6
Continuous
370
    -3
390
F
1001
RAK
1000
{ACET-LAYISO
1070
     0
1070
     2
1000
CONTINUOUS
1070
     1
1071
       -3
1071
        1
1005
0
1000
ACET-LAYISO}
  0
LAYER
  5
162F
102
{ACAD_XDICTIONARY
360
1630
102
}
330
2
100
AcDbSymbolTableRecord
100
AcDbLayerTableRecord
  2
Title block
 70
     0
 62
     7
  6
Continuous
370
    80
390
F
  0
LAYER
  5
19F1
330
2
100
AcDbSymbolTableRecord
100
AcDbLayerTableRecord
  2
Timber Hatch
 70
     0
 62
    33
  6
Continuous
370
    20
390
F
1001
AcAecLayerStandard
1000

1000

  0
LAYER
  5
1DCB
102
{ACAD_XDICTIONARY
360
1DCC
102
}
330
2
100
AcDbSymbolTableRecord
100
AcDbLayerTableRecord
  2
TEXT
 70
     0
 62
     7
  6
Continuous
370
    -3
390
F
  0
LAYER
  5
207D
102
{ACAD_XDICTIONARY
360
207E
102
}
330
2
100
AcDbSymbolTableRecord
100
AcDbLayerTableRecord
  2
Fastenings and sealants
 70
     0
 62
     4
  6
Continuous
370
    -3
390
F
  0
LAYER
  5
198D9
330
2
100
AcDbSymbolTableRecord
100
AcDbLayerTableRecord
  2
Concrete
 70
     0
 62
     8
  6
Continuous
370
    35
390
F
1001
AcAecLayerStandard
1000

1000

  0
LAYER
  5
198DA
330
2
100
AcDbSymbolTableRecord
100
AcDbLayerTableRecord
  2
Lining
 70
     0
 62
     3
  6
Continuous
370
    -3
390
F
1001
AcAecLayerStandard
1000

1000

  0
LAYER
  5
1A2EE
102
{ACAD_XDICTIONARY
360
1A2EF
102
}
330
2
100
AcDbSymbolTableRecord
100
AcDbLayerTableRecord
  2
Miscellaneous
 70
     0
 62
     2
  6
Continuous
370
    -3
390
F
  0
LAYER
  5
1A40D
102
{ACAD_XDICTIONARY
360
1A40E
102
}
330
2
100
AcDbSymbolTableRecord
100
AcDbLayerTableRecord
  2
Linings
 70
     0
 62
     3
  6
Continuous
370
    25
390
F
1001
AcAecLayerStandard
1000

1000

  0
LAYER
  5
1AD0F
102
{ACAD_XDICTIONARY
360
1AD10
102
}
330
2
100
AcDbSymbolTableRecord
100
AcDbLayerTableRecord
  2
Dims
 70
     0
 62
     7
  6
Continuous
370
    -3
390
F
  0
LAYER
  5
1ADD3
102
{ACAD_XDICTIONARY
360
1ADD4
102
}
330
2
100
AcDbSymbolTableRecord
100
AcDbLayerTableRecord
  2
Hebel @ 1
 70
     0
 62
     7
  6
Continuous
370
    50
390
F
1001
AcAecLayerStandard
1000

1000

1001
AcadAnnotativeDecomposition
1000
AnnotativeData
1002
{
1070
     1
1070
     1
1002
}
  0
LAYER
  5
1ADD6
102
{ACAD_XDICTIONARY
360
1ADD7
102
}
330
2
100
AcDbSymbolTableRecord
100
AcDbLayerTableRecord
  2
TEXT @ 1
 70
     0
 62
     7
  6
Continuous
370
    -3
390
F
1001
AcadAnnotativeDecomposition
1000
AnnotativeData
1002
{
1070
     1
1070
     1
1002
}
  0
ENDTAB
  0
TABLE
  2
STYLE
  5
3
330
0
100
AcDbSymbolTable
 70
     8
  0
STYLE
  5
11
330
3
100
AcDbSymbolTableRecord
100
AcDbTextStyleTableRecord
  2
Standard
 70
     0
 40
0.0
 41
1.0
 50
0.0
 71
     0
 42
0.2
  3
swiss.ttf
  4

1001
ACAD
1000
Swis721 BT
1071
       34
  0
STYLE
  5
243
330
3
100
AcDbSymbolTableRecord
100
AcDbTextStyleTableRecord
  2
1
 70
     0
 40
2.5
 41
1.0
 50
0.0
 71
     0
 42
2.5
  3
swissi.ttf
  4

1001
ACAD
1000
Swis721 BT
1071
 16777250
  0
STYLE
  5
1631
330
3
100
AcDbSymbolTableRecord
100
AcDbTextStyleTableRecord
  2
ROMANS
 70
     0
 40
2.5
 41
1.0
 50
0.0
 71
     0
 42
2.5
  3
romans.shx
  4

  0
STYLE
  5
1632
330
3
100
AcDbSymbolTableRecord
100
AcDbTextStyleTableRecord
  2
Title block
 70
     0
 40
2.5
 41
1.0
 50
0.0
 71
     0
 42
2.5
  3
times.ttf
  4

1001
ACAD
1000
Times New Roman
1071
       18
  0
STYLE
  5
12C0D
330
3
100
AcDbSymbolTableRecord
100
AcDbTextStyleTableRecord
  2

 70
     1
 40
0.0
 41
1.0
 50
0.0
 71
     0
 42
2.5
  3
ltypeshp.shx
  4

  0
STYLE
  5
1AAFE
330
3
100
AcDbSymbolTableRecord
100
AcDbTextStyleTableRecord
  2
Brochure50
 70
     0
 40
50.0
 41
1.0
 50
4.0
 71
     0
 42
50.0
  3
CALIST.TTF
  4

1001
ACAD
1000
Calisto MT
1071
       18
  0
STYLE
  5
1AAFF
330
3
100
AcDbSymbolTableRecord
100
AcDbTextStyleTableRecord
  2
Titles
 70
     0
 40
4.0
 41
1.0
 50
0.0
 71
     0
 42
4.0
  3
timesbd.ttf
  4

1001
ACAD
1000
Times New Roman
1071
 33554450
  0
ENDTAB
  0
TABLE
  2
VIEW
  5
6
330
0
100
AcDbSymbolTable
 70
     1
  0
ENDTAB
  0
TABLE
  2
UCS
  5
7
330
0
100
AcDbSymbolTable
 70
     0
  0
ENDTAB
  0
TABLE
  2
APPID
  5
9
330
0
100
AcDbSymbolTable
 70
    32
  0
APPID
  5
12
330
9
100
AcDbSymbolTableRecord
100
AcDbRegAppTableRecord
  2
ACAD
 70
     0
  0
APPID
  5
DD
330
9
100
AcDbSymbolTableRecord
100
AcDbRegAppTableRecord
  2
AcadAnnoPO
 70
     0
  0
APPID
  5
DE
330
9
100
AcDbSymbolTableRecord
100
AcDbRegAppTableRecord
  2
AcadAnnotative
 70
     0
  0
APPID
  5
DF
330
9
100
AcDbSymbolTableRecord
100
AcDbRegAppTableRecord
  2
ACAD_DSTYLE_DIMJAG
 70
     0
  0
APPID
  5
E0
330
9
100
AcDbSymbolTableRecord
100
AcDbRegAppTableRecord
  2
ACAD_DSTYLE_DIMTALN
 70
     0
  0
APPID
  5
107
330
9
100
AcDbSymbolTableRecord
100
AcDbRegAppTableRecord
  2
ACAD_MLEADERVER
 70
     0
  0
APPID
  5
172
330
9
100
AcDbSymbolTableRecord
100
AcDbRegAppTableRecord
  2
AcAecLayerStandard
 70
     0
  0
APPID
  5
178
330
9
100
AcDbSymbolTableRecord
100
AcDbRegAppTableRecord
  2
PROGE_PRINT_SETTINGS
 70
     0
  0
APPID
  5
18C
330
9
100
AcDbSymbolTableRecord
100
AcDbRegAppTableRecord
  2
ACAD_EXEMPT_FROM_CAD_STANDARDS
 70
     0
  0
APPID
  5
1BA
330
9
100
AcDbSymbolTableRecord
100
AcDbRegAppTableRecord
  2
ACAD_PSEXT
 70
     0
  0
APPID
  5
241
330
9
100
AcDbSymbolTableRecord
100
AcDbRegAppTableRecord
  2
ACAD_DSTYLE_DIMBREAK
 70
     0
  0
APPID
  5
245
330
9
100
AcDbSymbolTableRecord
100
AcDbRegAppTableRecord
  2
ACAD_DIMASSOC_CALC_DIMLFAC
 70
     0
  0
APPID
  5
246
330
9
100
AcDbSymbolTableRecord
100
AcDbRegAppTableRecord
  2
ACAD_DIMASSOC_DIMLFAC
 70
     0
  0
APPID
  5
247
330
9
100
AcDbSymbolTableRecord
100
AcDbRegAppTableRecord
  2
ACAD_DIMASSOC_OVERRIDDEN_DIMLFAC
 70
     0
  0
APPID
  5
111D
330
9
100
AcDbSymbolTableRecord
100
AcDbRegAppTableRecord
  2
RAK
 70
     0
  0
APPID
  5
111E
330
9
100
AcDbSymbolTableRecord
100
AcDbRegAppTableRecord
  2
DCO15
 70
     0
  0
APPID
  5
111F
330
9
100
AcDbSymbolTableRecord
100
AcDbRegAppTableRecord
  2
ACAD_DSTYLE_DIMTEXT_FILL
 70
     0
  0
APPID
  5
1120
330
9
100
AcDbSymbolTableRecord
100
AcDbRegAppTableRecord
  2
ACAD_DSTYLE_DIMEXT_LENGTH
 70
     0
  0
APPID
  5
1121
330
9
100
AcDbSymbolTableRecord
100
AcDbRegAppTableRecord
  2
ACAD_DSTYLE_DIMEXT_ENABLED
 70
     0
  0
APPID
  5
1122
330
9
100
AcDbSymbolTableRecord
100
AcDbRegAppTableRecord
  2
ACAD_DSTYLE_DIM_LINETYPE
 70
     0
  0
APPID
  5
1123
330
9
100
AcDbSymbolTableRecord
100
AcDbRegAppTableRecord
  2
ACAD_DSTYLE_DIM_EXT1_LINETYPE
 70
     0
  0
APPID
  5
1124
330
9
100
AcDbSymbolTableRecord
100
AcDbRegAppTableRecord
  2
ACAD_DSTYLE_DIM_EXT2_LINETYPE
 70
     0
  0
APPID
  5
1125
330
9
100
AcDbSymbolTableRecord
100
AcDbRegAppTableRecord
  2
ACAD_DSTYLE_DIMJOGGED_JOGANGLE_SYMBOL
 70
     0
  0
APPID
  5
1126
330
9
100
AcDbSymbolTableRecord
100
AcDbRegAppTableRecord
  2
ACAD_DSTYLE_DIMARC_LENGTH_SYMBOL
 70
     0
  0
APPID
  5
1127
330
9
100
AcDbSymbolTableRecord
100
AcDbRegAppTableRecord
  2
AcDbDynamicBlockGUID
 70
     0
  0
APPID
  5
1128
330
9
100
AcDbSymbolTableRecord
100
AcDbRegAppTableRecord
  2
AcDbBlockRepETag
 70
     0
  0
APPID
  5
1129
330
9
100
AcDbSymbolTableRecord
100
AcDbRegAppTableRecord
  2
ACAUTHENVIRON
 70
     0
  0
APPID
  5
112A
330
9
100
AcDbSymbolTableRecord
100
AcDbRegAppTableRecord
  2
AcDbDynamicBlockTrueName
 70
     0
  0
APPID
  5
1634
330
9
100
AcDbSymbolTableRecord
100
AcDbRegAppTableRecord
  2
PCAD_LAYOUT
 70
     0
  0
APPID
  5
1635
330
9
100
AcDbSymbolTableRecord
100
AcDbRegAppTableRecord
  2
AcDbAttr
 70
     0
  0
APPID
  5
11BA3
330
9
100
AcDbSymbolTableRecord
100
AcDbRegAppTableRecord
  2
AcadAnnotativeDecomposition
 70
     0
  0
APPID
  5
1AB00
330
9
100
AcDbSymbolTableRecord
100
AcDbRegAppTableRecord
  2
ACAD_NAV_VCDISPLAY
 70
     0
  0
ENDTAB
  0
TABLE
  2
DIMSTYLE
  5
A
330
0
100
AcDbSymbolTable
 70
     5
100
AcDbDimStyleTable
 71
     2
340
242
340
27
  0
DIMSTYLE
105
27
330
A
100
AcDbSymbolTableRecord
100
AcDbDimStyleTableRecord
  2
Standard
 70
     0
 40
0.0
 41
3.0
 42
1.0
 43
1.0
 44
1.0
 73
     0
 74
     0
 77
     1
140
2.5
147
1.0
176
   256
177
   256
178
   256
271
     0
272
     0
340
11
1001
ACAD_DSTYLE_DIMJAG
1070
   388
1040
1.5
1001
ACAD_DSTYLE_DIMTALN
1070
   392
1070
     0
  0
DIMSTYLE
105
242
330
A
100
AcDbSymbolTableRecord
100
AcDbDimStyleTableRecord
  2
1
 70
     0
 40
0.0
 41
3.0
 42
1.0
 43
1.0
 44
1.0
 73
     0
 74
     0
 77
     1
140
2.5
147
1.0
176
   256
177
   256
178
   256
271
     0
272
     0
340
243
1001
ACAD_DSTYLE_DIMBREAK
1070
   391
1040
0.125
1001
AcadAnnotative
1000
AnnotativeData
1002
{
1070
     1
1070
     1
1002
}
1001
ACAD_DSTYLE_DIMJAG
1070
   388
1040
1.5
1001
ACAD_DSTYLE_DIMTALN
1070
   392
1070
     0
  0
DIMSTYLE
105
1AD11
330
A
100
AcDbSymbolTableRecord
100
AcDbDimStyleTableRecord
  2
ARROWS
 70
     0
 41
6.599999999999999
 42
1.5
 43
8.0
 44
1.0
 46
1.0
 73
     0
 74
     0
140
2.0
141
5.0
143
0.0394
145
1.0
146
0.625
147
1.5
171
     4
176
     1
177
     1
178
     1
271
     3
272
     3
274
     4
279
     2
340
1631
  0
DIMSTYLE
105
1AD12
330
A
100
AcDbSymbolTableRecord
100
AcDbDimStyleTableRecord
  2
Hebel 1
 70
     0
 41
2.0
 42
10.0
 43
10.0
 44
10.0
 46
10.0
 73
     0
 74
     0
 77
     1
 78
     8
140
2.5
141
2.5
143
0.03937007874016
147
10.0
171
     3
172
     1
271
     0
272
     0
274
     3
279
     1
283
     0
284
     8
340
1AAFE
342
1AAF8
1001
ACAD_DSTYLE_DIMEXT_LENGTH
1070
   378
1040
10.0
1001
ACAD_DSTYLE_DIMJOGGED_JOGANGLE_SYMBOL
1070
   384
1040
1.570796326794896
  0
ENDTAB
  0
TABLE
  2
BLOCK_RECORD
  5
1
330
0
100
AcDbSymbolTable
 70
     8
  0
BLOCK_RECORD
  5
1F
102
{ACAD_XDICTIONARY
360
15D
102
}
330
1
100
AcDbSymbolTableRecord
100
AcDbBlockTableRecord
  2
*Model_Space
340
22
  0
BLOCK_RECORD
  5
1E4C
102
{ACAD_XDICTIONARY
360
19104
102
}
330
1
100
AcDbSymbolTableRecord
100
AcDbBlockTableRecord
  2
*Paper_Space
340
1E9F
  0
BLOCK_RECORD
  5
1636
102
{ACAD_XDICTIONARY
360
164D
102
}
330
1
100
AcDbSymbolTableRecord
100
AcDbBlockTableRecord
  2
A4 Title Block
340
0
102
{BLKREFS
331
1E60
102
}
1001
ACAD
1000
DesignCenter Data
1002
{
1070
     1
1070
     4
1002
}
  0
BLOCK_RECORD
  5
1FA2
330
1
100
AcDbSymbolTableRecord
100
AcDbBlockTableRecord
  2
14-10x90 Head  Batten
340
0
102
{BLKREFS
331
1A678
102
}
1001
ACAD
1000
DesignCenter Data
1002
{
1070
     1
1070
     4
1002
}
  0
BLOCK_RECORD
  5
12BA3
330
1
100
AcDbSymbolTableRecord
100
AcDbBlockTableRecord
  2
100 x 50 dry
340
0
102
{BLKREFS
331
1A647
102
}
  0
BLOCK_RECORD
  5
1A405
330
1
100
AcDbSymbolTableRecord
100
AcDbBlockTableRecord
  2
60 X 12 SCKIRTING
340
0
310
2800000020000000200000000100080000000000000400000000000000000000000000000000000000000000000080000080000000808000800000008000800080800000C0C0C000C0DCC000F0CAA6000020400000206000002080000020A0000020C0000020E00000400000004020000040400000406000004080000040A0
310
000040C0000040E00000600000006020000060400000606000006080000060A0000060C0000060E00000800000008020000080400000806000008080000080A0000080C0000080E00000A0000000A0200000A0400000A0600000A0800000A0A00000A0C00000A0E00000C0000000C0200000C0400000C0600000C0800000C0
310
A00000C0C00000C0E00000E0000000E0200000E0400000E0600000E0800000E0A00000E0C00000E0E00040000000400020004000400040006000400080004000A0004000C0004000E00040200000402020004020400040206000402080004020A0004020C0004020E000404000004040200040404000404060004040800040
310
40A0004040C0004040E00040600000406020004060400040606000406080004060A0004060C0004060E00040800000408020004080400040806000408080004080A0004080C0004080E00040A0000040A0200040A0400040A0600040A0800040A0A00040A0C00040A0E00040C0000040C0200040C0400040C0600040C08000
310
40C0A00040C0C00040C0E00040E0000040E0200040E0400040E0600040E0800040E0A00040E0C00040E0E00080000000800020008000400080006000800080008000A0008000C0008000E00080200000802020008020400080206000802080008020A0008020C0008020E00080400000804020008040400080406000804080
310
008040A0008040C0008040E00080600000806020008060400080606000806080008060A0008060C0008060E00080800000808020008080400080806000808080008080A0008080C0008080E00080A0000080A0200080A0400080A0600080A0800080A0A00080A0C00080A0E00080C0000080C0200080C0400080C0600080C0
310
800080C0A00080C0C00080C0E00080E0000080E0200080E0400080E0600080E0800080E0A00080E0C00080E0E000C0000000C0002000C0004000C0006000C0008000C000A000C000C000C000E000C0200000C0202000C0204000C0206000C0208000C020A000C020C000C020E000C0400000C0402000C0404000C0406000C0
310
408000C040A000C040C000C040E000C0600000C0602000C0604000C0606000C0608000C060A000C060C000C060E000C0800000C0802000C0804000C0806000C0808000C080A000C080C000C080E000C0A00000C0A02000C0A04000C0A06000C0A08000C0A0A000C0A0C000C0A0E000C0C00000C0C02000C0C04000C0C06000
310
C0C08000C0C0A000F0FBFF00A4A0A000808080000000FF0000FF000000FFFF00FF000000FF00FF00FFFF0000FFFFFF00000000000000000000000000000000000000000000000000000000000000000000000000000000000000000000FAFAFAFAFAFA0000000000000000000000000000000000000000000000000000FB00
310
000000FA0000000000000000000000000000000000000000000000000000FAFB000000FA0000000000000000000000000000000000000000000000000000FAFB000000FA0000000000000000000000000000000000000000000000000000FA00FB0000FA0000000000000000000000000000000000000000000000000000FA
310
0000FB00FA0000000000000000000000000000000000000000000000000000FA000000FBFA0000000000000000000000000000000000000000000000000000FA000000FBFA0000000000000000000000000000000000000000000000000000FB00000000FB0000000000000000000000000000000000000000000000000000
310
FAFB000000FA0000000000000000000000000000000000000000000000000000FAFB000000FA000000000000000000000000000000000000000000000000000000FAFB0000FA000000000000000000000000000000000000000000000000000000FA00FB00FA00000000000000000000000000000000000000000000000000
310
0000FA0000FBFA000000000000000000000000000000000000000000000000000000FA0000FBFA000000000000000000000000000000000000000000000000000000FA000000FB000000000000000000000000000000000000000000000000000000FA000000FA000000000000000000000000000000000000000000000000
310
000000FB000000FA000000000000000000000000000000000000000000000000000000FB000000FA0000000000000000000000000000000000000000000000000000FAFAFB0000FA0000000000000000000000000000000000000000000000000000FA00FB0000FA0000000000000000000000000000000000000000000000
310
000000FA00FB0000FA0000000000000000000000000000000000000000000000000000FA00FB0000FA0000000000000000000000000000000000000000000000000000FB0000FB00FA0000000000000000000000000000000000000000000000000000FB0000FB00FA00000000000000000000000000000000000000000000
310
00000000FAFB00FB00FA0000000000000000000000000000000000000000000000000000FAFB0000FBFA0000000000000000000000000000000000000000000000000000FA00FBFAFB000000000000000000000000000000000000000000000000000000FAFAFB000000000000000000000000000000000000000000000000
310
0000000000FA0000000000000000000000000000000000000000000000000000000000000000000000000000000000000000000000000000
102
{BLKREFS
331
1A682
102
}
1001
ACAD
1000
DesignCenter Data
1002
{
1070
     1
1070
     4
1002
}
  0
BLOCK_RECORD
  5
1AAF8
330
1
100
AcDbSymbolTableRecord
100
AcDbBlockTableRecord
  2
_ArchTick
340
0
  0
BLOCK_RECORD
  5
1AAFB
330
1
100
AcDbSymbolTableRecord
100
AcDbBlockTableRecord
  2
_Dot
340
0
  0
ENDTAB
  0
ENDSEC
  0
SECTION
  2
BLOCKS
  0
BLOCK
  5
20
330
1F
100
AcDbEntity
  8
0
100
AcDbBlockBegin
  2
*Model_Space
 70
     0
 10
0.0
 20
0.0
 30
0.0
  3
*Model_Space
  1

  0
ENDBLK
  5
21
330
1F
100
AcDbEntity
  8
0
100
AcDbBlockEnd
  0
BLOCK
  5
1E4D
330
1E4C
100
AcDbEntity
 67
     1
  8
0
100
AcDbBlockBegin
  2
*Paper_Space
 70
     0
 10
0.0
 20
0.0
 30
0.0
  3
*Paper_Space
  1

  0
ENDBLK
  5
1E9E
330
1E4C
100
AcDbEntity
 67
     1
  8
0
100
AcDbBlockEnd
  0
BLOCK
  5
164F
330
1636
100
AcDbEntity
  8
0
100
AcDbBlockBegin
  2
A4 Title Block
 70
     2
 10
0.0
 20
0.0
 30
0.0
  3
A4 Title Block
  1

  0
TEXT
  5
1AC16
330
1636
100
AcDbEntity
  8
3
 62
     7
100
AcDbText
 10
-853.4347976406543
 20
37.0581002795501
 30
0.0
 40
8.0
  1

 41
0.85
  7
ROMANS
100
AcDbText
  0
LINE
  5
1AC17
330
1636
100
AcDbEntity
  8
Title block
100
AcDbLine
 10
-53.39424020223919
 20
255.4041454248354
 30
0.0
 11
-53.39424020223919
 21
-21.19891004925512
 31
0.0
  0
LINE
  5
1AC18
330
1636
100
AcDbEntity
  8
Title block
100
AcDbLine
 10
-53.39424020223919
 20
-21.19891004925512
 30
0.0
 11
136.6057597977608
 21
-21.19891004925512
 31
0.0
  0
LINE
  5
1AC19
330
1636
100
AcDbEntity
  8
Title block
100
AcDbLine
 10
136.6057597977608
 20
-21.19891004925512
 30
0.0
 11
136.6057597977608
 21
255.4041454248354
 31
0.0
  0
LINE
  5
1AC1A
330
1636
100
AcDbEntity
  8
Title block
100
AcDbLine
 10
136.6057597977608
 20
255.4041454248354
 30
0.0
 11
-53.39424020223919
 21
255.4041454248354
 31
0.0
  0
LINE
  5
1AC1B
330
1636
100
AcDbEntity
  8
Title block
100
AcDbLine
 10
5.322295774367375
 20
-4.874222230698382
 30
0.0
 11
136.7843384162145
 21
-4.874222230698268
 31
0.0
  0
LINE
  5
1AC1C
330
1636
100
AcDbEntity
  8
Title block
100
AcDbLine
 10
5.322295774367375
 20
-13.90906182024323
 30
0.0
 11
136.7843384162147
 21
-13.90906182024311
 31
0.0
  0
TEXT
  5
1AC1D
330
1636
100
AcDbEntity
  8
0
100
AcDbText
 10
9.675893772968493
 20
-10.49702363502333
 30
0.0
 40
2.5
  1
Date:
  7
Title block
100
AcDbText
  0
TEXT
  5
1AC1E
330
1636
100
AcDbEntity
  8
0
100
AcDbText
 10
91.38994071143883
 20
-10.43619006531175
 30
0.0
 40
2.5
  1
Detail No.
  7
Title block
100
AcDbText
  0
TEXT
  5
1AC1F
330
1636
100
AcDbEntity
  8
0
100
AcDbText
 10
9.502250865730047
 20
7.648243604712661
 30
0.0
 40
2.5
  1
Title:
  7
Title block
100
AcDbText
  0
LWPOLYLINE
  5
1AC20
330
1636
100
AcDbEntity
  8
Title block
100
AcDbPolyline
 90
        2
 70
     0
 43
0.0
 10
-53.39424020223919
 20
12.10448104516263
 10
136.6057597977608
 20
12.10448104516263
  0
MTEXT
  5
1AC21
102
{ACAD_XDICTIONARY
360
1AC22
102
}
330
1636
100
AcDbEntity
  8
Title block
100
AcDbMText
 10
14.79050876047949
 20
-16.12152541929011
 30
0.0
 40
2.0
 41
162.2032764939204
 71
     1
 72
     1
  1
This drawing must be read in conjunction with all the Supercrete\U+2122 Soundfloor Design Guide
  7
Title block
 73
     1
 44
1.0
  0
LWPOLYLINE
  5
1AC23
330
1636
100
AcDbEntity
  8
Title block
100
AcDbPolyline
 90
        2
 70
     0
 43
0.0
 10
46.71209860759859
 20
-4.874222230698379
 10
46.71209860759859
 20
-13.90906182024323
  0
LWPOLYLINE
  5
1AC24
330
1636
100
AcDbEntity
  8
Title block
100
AcDbPolyline
 90
        2
 70
     0
 43
0.0
 10
89.74925677747592
 20
-4.874222230698309
 10
89.74925677747592
 20
-13.90906182024316
  0
TEXT
  5
1AC25
330
1636
100
AcDbEntity
  8
0
100
AcDbText
 10
51.06569660619993
 20
-10.49702363502333
 30
0.0
 40
2.5
  1
Scale:
  7
Title block
100
AcDbText
  0
ATTDEF
  5
1AC26
330
1636
100
AcDbEntity
  8
Title block
100
AcDbText
 10
39.57990030128394
 20
4.955571898516836
 30
0.0
 40
4.0
  1

100
AcDbAttributeDefinition
  3
Title
  2
TITLE
 70
     0
1001
AcDbAttr
1070
     0
1070
     1
  0
ATTDEF
  5
1AC27
330
1636
100
AcDbEntity
  8
Title block
100
AcDbText
 10
20.96937096573947
 20
-10.66735272847677
 30
0.0
 40
2.5
  1

100
AcDbAttributeDefinition
  3
Date
  2
DATE
 70
     0
1001
AcDbAttr
1070
     0
1070
     1
  0
ATTDEF
  5
1AC28
330
1636
100
AcDbEntity
  8
Title block
100
AcDbText
 10
63.23629700150786
 20
-10.66735272847677
 30
0.0
 40
2.5
  1

100
AcDbAttributeDefinition
  3
Scale
  2
SCALE
 70
     0
1001
AcDbAttr
1070
     0
1070
     1
  0
ATTDEF
  5
1AC29
330
1636
100
AcDbEntity
  8
Title block
100
AcDbText
 10
111.1388136280311
 20
-10.33601335752655
 30
0.0
 40
2.5
  1

100
AcDbAttributeDefinition
  3
Drg No
  2
DRGNO
 70
     0
1001
AcDbAttr
1070
     0
1070
     1
  0
ATTDEF
  5
1AC2A
330
1636
100
AcDbEntity
  8
Title block
100
AcDbText
 10
39.57990030128394
 20
-1.899762361248804
 30
0.0
 40
4.0
  1

100
AcDbAttributeDefinition
  3
Title2
  2
TITLE2
 70
     0
1001
AcDbAttr
1070
     0
1070
     1
  0
LINE
  5
1AC2B
330
1636
100
AcDbEntity
  8
Title block
100
AcDbLine
 10
5.322295774367375
 20
12.10448104516263
 30
0.0
 11
5.322295774367376
 21
-21.19891004925512
 31
0.0
  0
MTEXT
  5
1AC2C
102
{ACAD_XDICTIONARY
360
1AC2D
102
}
330
1636
100
AcDbEntity
  8
TEXT
100
AcDbMText
 10
-52.13922145196975
 20
-3.055359643668765
 30
0.0
 40
3.0
 41
55.49050343911358
 71
     1
 72
     5
  1
\pi12.178;SOUNDFLOOR \P\pi9.755;CONSTRUCTION
  7
Titles
 73
     1
 44
1.0
1001
ACAD
1000
ACAD_MTEXT_COLUMN_INFO_BEGIN
1070
    75
1070
     2
1070
    79
1070
     0
1070
    76
1070
     1
1070
    78
1070
     0
1070
    48
1040
55.49050343911358
1070
    49
1040
12.5
1070
    50
1070
     1
1040
0.0
1000
ACAD_MTEXT_COLUMN_INFO_END
  0
IMAGE
  5
1AC2E
330
1636
100
AcDbEntity
  8
0
 92
      140
310
8C0000000100000084000000060000000500000060B1837676B24AC0509BAD3DFAFFF1BF000000000000000060B1837676B24AC0010D208A7E3528400000000000000000F02F4AE7074A1540010D208A7E3528400000000000000000F02F4AE7074A1540509BAD3DFAFFF1BF000000000000000060B1837676B24AC0509BAD
310
3DFAFFF1BF0000000000000000
100
AcDbRasterImage
 90
        0
 10
-53.39424020223919
 20
-1.124994507723119
 30
0.0
 11
0.0429528427041745
 21
0.0
 31
0.0
 12
0.0
 22
0.0429528427041745
 32
0.0
 13
1367.0
 23
308.0
340
1AB1C
 70
     7
280
     0
281
    50
282
    50
283
     0
360
1AC2F
 71
     1
 91
        2
 14
-0.5
 24
-0.5
 14
1366.5
 24
307.5
  0
ENDBLK
  5
1650
330
1636
100
AcDbEntity
  8
0
100
AcDbBlockEnd
  0
BLOCK
  5
1FA3
330
1FA2
100
AcDbEntity
  8
0
100
AcDbBlockBegin
  2
14-10x90 Head  Batten
 70
     0
 10
0.0
 20
0.0
 30
0.0
  3
14-10x90 Head  Batten
  1

  0
LINE
  5
1FA4
330
1FA2
100
AcDbEntity
  8
0
100
AcDbLine
 10
265.5469583759614
 20
121.6209612232983
 30
300.0
 11
218.6303275044291
 21
121.620961223299
 31
300.0
  0
LINE
  5
1FA5
330
1FA2
100
AcDbEntity
  8
0
100
AcDbLine
 10
265.5469583759603
 20
123.3322979734345
 30
300.0
 11
218.2051948088704
 21
123.3322979734345
 31
300.0
  0
LINE
  5
1FA6
330
1FA2
100
AcDbEntity
  8
0
100
AcDbLine
 10
265.5469583759608
 20
121.620961223298
 30
300.0
 11
265.5469583759603
 21
123.3322979734345
 31
300.0
  0
LINE
  5
1FA7
330
1FA2
100
AcDbEntity
  8
0
100
AcDbLine
 10
268.1912900008927
 20
125.9766295983669
 30
300.0
 11
268.1912900008927
 21
118.9766295983669
 31
300.0
  0
LINE
  5
1FA8
330
1FA2
100
AcDbEntity
  8
0
100
AcDbLine
 10
268.1912900008927
 20
118.9766295983669
 30
300.0
 11
265.5469583759614
 21
121.6209612232983
 31
300.0
  0
LINE
  5
1FA9
330
1FA2
100
AcDbEntity
  8
0
100
AcDbLine
 10
268.1912900008927
 20
125.9766295983669
 30
300.0
 11
265.5469583759603
 21
123.3322979734345
 31
300.0
  0
LINE
  5
1FAA
330
1FA2
100
AcDbEntity
  8
0
100
AcDbLine
 10
208.0179974744688
 20
121.6209612232993
 30
300.0
 11
207.096184134284
 21
121.6209612232993
 31
300.0
  0
LINE
  5
1FAB
330
1FA2
100
AcDbEntity
  8
0
100
AcDbLine
 10
207.58277287979
 20
123.3322979734345
 30
300.0
 11
206.6710514387253
 21
123.3322979734345
 31
300.0
  0
LINE
  5
1FAC
330
1FA2
100
AcDbEntity
  8
0
100
AcDbLine
 10
195.1844392959927
 20
121.6016021363326
 30
300.0
 11
195.6993562198393
 21
121.123822291103
 31
300.0
  0
LINE
  5
1FAD
330
1FA2
100
AcDbEntity
  8
0
100
AcDbLine
 10
195.6993562198393
 20
121.123822291103
 30
300.0
 11
195.6993562198393
 21
121.6209612232993
 31
300.0
  0
LINE
  5
1FAE
330
1FA2
100
AcDbEntity
  8
0
100
AcDbLine
 10
193.7769954281419
 20
121.6016021363326
 30
300.0
 11
194.2919123519867
 21
121.123822291103
 31
300.0
  0
LINE
  5
1FAF
330
1FA2
100
AcDbEntity
  8
0
100
AcDbLine
 10
194.2919123519867
 20
121.123822291103
 30
300.0
 11
194.2919123519867
 21
121.6209612232993
 31
300.0
  0
LINE
  5
1FB0
330
1FA2
100
AcDbEntity
  8
0
100
AcDbLine
 10
195.2874226807624
 20
123.3167106270126
 30
300.0
 11
194.9098169366105
 21
123.7626384825604
 31
300.0
  0
LINE
  5
1FB1
330
1FA2
100
AcDbEntity
  8
0
100
AcDbLine
 10
194.9098169366105
 20
123.7626384825604
 30
300.0
 11
194.7381779619944
 21
123.3167106270126
 31
300.0
  0
LINE
  5
1FB2
330
1FA2
100
AcDbEntity
  8
0
100
AcDbLine
 10
193.8799788129098
 20
123.3167106270126
 30
300.0
 11
193.5023730687561
 21
123.7626384825604
 31
300.0
  0
LINE
  5
1FB3
330
1FA2
100
AcDbEntity
  8
0
100
AcDbLine
 10
193.5023730687561
 20
123.7626384825604
 30
300.0
 11
193.3307340941418
 21
123.3167106270126
 31
300.0
  0
LINE
  5
1FB4
330
1FA2
100
AcDbEntity
  8
0
100
AcDbLine
 10
194.2919123519867
 20
121.6209612232993
 30
300.0
 11
193.8799788129098
 21
123.3167106270126
 31
300.0
  0
LINE
  5
1FB5
330
1FA2
100
AcDbEntity
  8
0
100
AcDbLine
 10
194.7381779619944
 20
123.3167106270126
 30
300.0
 11
195.1844392959927
 21
121.6016021363326
 31
300.0
  0
LINE
  5
1FB6
330
1FA2
100
AcDbEntity
  8
0
100
AcDbLine
 10
193.3307340941418
 20
123.3167106270126
 30
300.0
 11
193.7769954281419
 21
121.6016021363326
 31
300.0
  0
LINE
  5
1FB7
330
1FA2
100
AcDbEntity
  8
0
100
AcDbLine
 10
195.6993562198393
 20
121.6209612232993
 30
300.0
 11
195.2874226807624
 21
123.3167106270126
 31
300.0
  0
LINE
  5
1FB8
330
1FA2
100
AcDbEntity
  8
0
100
AcDbLine
 10
217.3258712973537
 20
121.5523557772945
 30
300.0
 11
216.9139377582768
 21
123.2481051810088
 31
300.0
  0
LINE
  5
1FB9
330
1FA2
100
AcDbEntity
  8
0
100
AcDbLine
 10
218.6303275044291
 20
121.6209612232993
 30
300.0
 11
218.2183939653522
 21
123.3167106270126
 31
300.0
  0
LINE
  5
1FBA
330
1FA2
100
AcDbEntity
  8
0
100
AcDbLine
 10
217.6691492465842
 20
123.3167106270126
 30
300.0
 11
218.1154105805825
 21
121.6016021363326
 31
300.0
  0
LINE
  5
1FBB
330
1FA2
100
AcDbEntity
  8
0
100
AcDbLine
 10
213.0692204508913
 20
121.6209612232993
 30
300.0
 11
212.6572869118125
 21
123.3167106270126
 31
300.0
  0
LINE
  5
1FBC
330
1FA2
100
AcDbEntity
  8
0
100
AcDbLine
 10
215.9184317055104
 20
121.6209612232993
 30
300.0
 11
215.5064981664335
 21
123.3167106270126
 31
300.0
  0
LINE
  5
1FBD
330
1FA2
100
AcDbEntity
  8
0
100
AcDbLine
 10
213.5498095798128
 20
123.3167106270126
 30
300.0
 11
213.996070913813
 21
121.6016021363326
 31
300.0
  0
LINE
  5
1FBE
330
1FA2
100
AcDbEntity
  8
0
100
AcDbLine
 10
214.9572534476654
 20
123.3167106270126
 30
300.0
 11
215.4035147816638
 21
121.6016021363326
 31
300.0
  0
LINE
  5
1FBF
330
1FA2
100
AcDbEntity
  8
0
100
AcDbLine
 10
214.5109878376578
 20
121.6209612232993
 30
300.0
 11
214.0990542985809
 21
123.3167106270126
 31
300.0
  0
LINE
  5
1FC0
330
1FA2
100
AcDbEntity
  8
0
100
AcDbLine
 10
216.3646930395088
 20
123.2481051810088
 30
300.0
 11
216.8109543735071
 21
121.5329966903288
 31
300.0
  0
LINE
  5
1FC1
330
1FA2
100
AcDbEntity
  8
0
100
AcDbLine
 10
211.5931252692015
 20
121.6209612232993
 30
300.0
 11
211.1811917301228
 21
123.3167106270126
 31
300.0
  0
LINE
  5
1FC2
330
1FA2
100
AcDbEntity
  8
0
100
AcDbLine
 10
210.6319470113548
 20
123.3167106270126
 30
300.0
 11
211.0782083453549
 21
121.6016021363326
 31
300.0
  0
LINE
  5
1FC3
330
1FA2
100
AcDbEntity
  8
0
100
AcDbLine
 10
210.0827022925867
 20
121.6209612232993
 30
300.0
 11
209.6707687535116
 21
123.3167106270126
 31
300.0
  0
LINE
  5
1FC4
330
1FA2
100
AcDbEntity
  8
0
100
AcDbLine
 10
212.1080421930445
 20
123.3167106270126
 30
300.0
 11
212.5543035270446
 21
121.6016021363326
 31
300.0
  0
LINE
  5
1FC5
330
1FA2
100
AcDbEntity
  8
0
100
AcDbLine
 10
216.8109543735071
 20
121.5329966903288
 30
300.0
 11
217.3258712973537
 21
121.0552168450987
 31
300.0
  0
LINE
  5
1FC6
330
1FA2
100
AcDbEntity
  8
0
100
AcDbLine
 10
217.6751488631661
 20
123.3322979734345
 30
300.0
 11
216.8426444276618
 21
123.3322979734345
 31
300.0
  0
LINE
  5
1FC7
330
1FA2
100
AcDbEntity
  8
0
100
AcDbLine
 10
216.9139377582768
 20
123.2481051810088
 30
300.0
 11
216.5363320141249
 21
123.6940330365565
 31
300.0
  0
LINE
  5
1FC8
330
1FA2
100
AcDbEntity
  8
0
100
AcDbLine
 10
217.3258712973537
 20
121.0552168450987
 30
300.0
 11
217.3258712973537
 21
121.5523557772945
 31
300.0
  0
LINE
  5
1FC9
330
1FA2
100
AcDbEntity
  8
0
100
AcDbLine
 10
218.1154105805825
 20
121.6016021363326
 30
300.0
 11
218.6303275044291
 21
121.123822291103
 31
300.0
  0
LINE
  5
1FCA
330
1FA2
100
AcDbEntity
  8
0
100
AcDbLine
 10
218.6303275044291
 20
121.123822291103
 30
300.0
 11
218.6303275044291
 21
121.6209612232993
 31
300.0
  0
LINE
  5
1FCB
330
1FA2
100
AcDbEntity
  8
0
100
AcDbLine
 10
218.1103734578472
 20
121.6209612232993
 30
300.0
 11
217.309205577695
 21
121.6209612232993
 31
300.0
  0
LINE
  5
1FCC
330
1FA2
100
AcDbEntity
  8
0
100
AcDbLine
 10
217.8407882212003
 20
123.7626384825604
 30
300.0
 11
217.6691492465842
 21
123.3167106270126
 31
300.0
  0
LINE
  5
1FCD
330
1FA2
100
AcDbEntity
  8
0
100
AcDbLine
 10
218.2183939653522
 20
123.3167106270126
 30
300.0
 11
217.8407882212003
 21
123.7626384825604
 31
300.0
  0
LINE
  5
1FCE
330
1FA2
100
AcDbEntity
  8
0
100
AcDbLine
 10
212.5543035270446
 20
121.6016021363326
 30
300.0
 11
213.0692204508913
 21
121.123822291103
 31
300.0
  0
LINE
  5
1FCF
330
1FA2
100
AcDbEntity
  8
0
100
AcDbLine
 10
213.5558091963947
 20
123.3322979734345
 30
300.0
 11
212.6440877553312
 21
123.3322979734345
 31
300.0
  0
LINE
  5
1FD0
330
1FA2
100
AcDbEntity
  8
0
100
AcDbLine
 10
213.0692204508913
 20
121.123822291103
 30
300.0
 11
213.0692204508913
 21
121.6209612232993
 31
300.0
  0
LINE
  5
1FD1
330
1FA2
100
AcDbEntity
  8
0
100
AcDbLine
 10
214.5109878376578
 20
121.123822291103
 30
300.0
 11
214.5109878376578
 21
121.6209612232993
 31
300.0
  0
LINE
  5
1FD2
330
1FA2
100
AcDbEntity
  8
0
100
AcDbLine
 10
213.996070913813
 20
121.6016021363326
 30
300.0
 11
214.5109878376578
 21
121.123822291103
 31
300.0
  0
LINE
  5
1FD3
330
1FA2
100
AcDbEntity
  8
0
100
AcDbLine
 10
215.9184317055104
 20
121.123822291103
 30
300.0
 11
215.9184317055104
 21
121.6209612232993
 31
300.0
  0
LINE
  5
1FD4
330
1FA2
100
AcDbEntity
  8
0
100
AcDbLine
 10
215.4035147816638
 20
121.6016021363326
 30
300.0
 11
215.9184317055104
 21
121.123822291103
 31
300.0
  0
LINE
  5
1FD5
330
1FA2
100
AcDbEntity
  8
0
100
AcDbLine
 10
215.3984776589285
 20
121.6209612232993
 30
300.0
 11
214.5109878376578
 21
121.6209612232993
 31
300.0
  0
LINE
  5
1FD6
330
1FA2
100
AcDbEntity
  8
0
100
AcDbLine
 10
213.7214485544272
 20
123.7626384825604
 30
300.0
 11
213.5498095798128
 21
123.3167106270126
 31
300.0
  0
LINE
  5
1FD7
330
1FA2
100
AcDbEntity
  8
0
100
AcDbLine
 10
214.0990542985809
 20
123.3167106270126
 30
300.0
 11
213.7214485544272
 21
123.7626384825604
 31
300.0
  0
LINE
  5
1FD8
330
1FA2
100
AcDbEntity
  8
0
100
AcDbLine
 10
215.1288924222816
 20
123.7626384825604
 30
300.0
 11
214.9572534476654
 21
123.3167106270126
 31
300.0
  0
LINE
  5
1FD9
330
1FA2
100
AcDbEntity
  8
0
100
AcDbLine
 10
215.5064981664335
 20
123.3167106270126
 30
300.0
 11
215.1288924222816
 21
123.7626384825604
 31
300.0
  0
LINE
  5
1FDA
330
1FA2
100
AcDbEntity
  8
0
100
AcDbLine
 10
214.9632530642474
 20
123.3322979734345
 30
300.0
 11
214.0858551420996
 21
123.3322979734345
 31
300.0
  0
LINE
  5
1FDB
330
1FA2
100
AcDbEntity
  8
0
100
AcDbLine
 10
216.397099098879
 20
123.3322979734345
 30
300.0
 11
215.4932990099522
 21
123.3322979734345
 31
300.0
  0
LINE
  5
1FDC
330
1FA2
100
AcDbEntity
  8
0
100
AcDbLine
 10
213.9910337910759
 20
121.6209612232993
 30
300.0
 11
213.0692204508913
 21
121.6209612232993
 31
300.0
  0
LINE
  5
1FDD
330
1FA2
100
AcDbEntity
  8
0
100
AcDbLine
 10
216.5363320141249
 20
123.6940330365565
 30
300.0
 11
216.3646930395088
 21
123.2481051810088
 31
300.0
  0
LINE
  5
1FDE
330
1FA2
100
AcDbEntity
  8
0
100
AcDbLine
 10
216.7880665095389
 20
121.6209612232993
 30
300.0
 11
215.9184317055104
 21
121.6209612232993
 31
300.0
  0
LINE
  5
1FDF
330
1FA2
100
AcDbEntity
  8
0
100
AcDbLine
 10
209.5627482460048
 20
121.6209612232993
 30
300.0
 11
208.5379515210524
 21
121.6209612232993
 31
300.0
  0
LINE
  5
1FE0
330
1FA2
100
AcDbEntity
  8
0
100
AcDbLine
 10
208.5379515210505
 20
121.123822291103
 30
300.0
 11
208.5379515210505
 21
121.6209612232993
 31
300.0
  0
LINE
  5
1FE1
330
1FA2
100
AcDbEntity
  8
0
100
AcDbLine
 10
210.8035859859709
 20
123.7626384825604
 30
300.0
 11
210.6319470113548
 21
123.3167106270126
 31
300.0
  0
LINE
  5
1FE2
330
1FA2
100
AcDbEntity
  8
0
100
AcDbLine
 10
211.5931252692015
 20
121.123822291103
 30
300.0
 11
211.5931252692015
 21
121.6209612232993
 31
300.0
  0
LINE
  5
1FE3
330
1FA2
100
AcDbEntity
  8
0
100
AcDbLine
 10
211.0782083453549
 20
121.6016021363326
 30
300.0
 11
211.5931252692015
 21
121.123822291103
 31
300.0
  0
LINE
  5
1FE4
330
1FA2
100
AcDbEntity
  8
0
100
AcDbLine
 10
212.1140418096282
 20
123.3322979734345
 30
300.0
 11
211.1679925736415
 21
123.3322979734345
 31
300.0
  0
LINE
  5
1FE5
330
1FA2
100
AcDbEntity
  8
0
100
AcDbLine
 10
212.2796811676606
 20
123.7626384825604
 30
300.0
 11
212.1080421930445
 21
123.3167106270126
 31
300.0
  0
LINE
  5
1FE6
330
1FA2
100
AcDbEntity
  8
0
100
AcDbLine
 10
211.1811917301228
 20
123.3167106270126
 30
300.0
 11
210.8035859859709
 21
123.7626384825604
 31
300.0
  0
LINE
  5
1FE7
330
1FA2
100
AcDbEntity
  8
0
100
AcDbLine
 10
210.0827022925867
 20
121.123822291103
 30
300.0
 11
210.0827022925867
 21
121.6209612232993
 31
300.0
  0
LINE
  5
1FE8
330
1FA2
100
AcDbEntity
  8
0
100
AcDbLine
 10
209.5677853687419
 20
121.6016021363326
 30
300.0
 11
210.0827022925867
 21
121.123822291103
 31
300.0
  0
LINE
  5
1FE9
330
1FA2
100
AcDbEntity
  8
0
100
AcDbLine
 10
209.2931630093579
 20
123.7626384825604
 30
300.0
 11
209.1215240347436
 21
123.3167106270126
 31
300.0
  0
LINE
  5
1FEA
330
1FA2
100
AcDbEntity
  8
0
100
AcDbLine
 10
209.6707687535116
 20
123.3167106270126
 30
300.0
 11
209.2931630093579
 21
123.7626384825604
 31
300.0
  0
LINE
  5
1FEB
330
1FA2
100
AcDbEntity
  8
0
100
AcDbLine
 10
209.1215240347436
 20
123.3167106270126
 30
300.0
 11
209.5677853687419
 21
121.6016021363326
 31
300.0
  0
LINE
  5
1FEC
330
1FA2
100
AcDbEntity
  8
0
100
AcDbLine
 10
210.6379466279385
 20
123.3322979734345
 30
300.0
 11
209.6575695970304
 21
123.3322979734345
 31
300.0
  0
LINE
  5
1FED
330
1FA2
100
AcDbEntity
  8
0
100
AcDbLine
 10
211.0731712226178
 20
121.6209612232993
 30
300.0
 11
210.0827022925885
 21
121.6209612232993
 31
300.0
  0
LINE
  5
1FEE
330
1FA2
100
AcDbEntity
  8
0
100
AcDbLine
 10
207.7484122378217
 20
123.7626384825604
 30
300.0
 11
207.5767732632074
 21
123.3167106270126
 31
300.0
  0
LINE
  5
1FEF
330
1FA2
100
AcDbEntity
  8
0
100
AcDbLine
 10
208.1260179819754
 20
123.3167106270126
 30
300.0
 11
207.7484122378217
 21
123.7626384825604
 31
300.0
  0
LINE
  5
1FF0
330
1FA2
100
AcDbEntity
  8
0
100
AcDbLine
 10
207.5767732632074
 20
123.3167106270126
 30
300.0
 11
208.0230345972057
 21
121.6016021363326
 31
300.0
  0
LINE
  5
1FF1
330
1FA2
100
AcDbEntity
  8
0
100
AcDbLine
 10
209.1275236513255
 20
123.3322979734345
 30
300.0
 11
208.1128188254923
 21
123.3322979734345
 31
300.0
  0
LINE
  5
1FF2
330
1FA2
100
AcDbEntity
  8
0
100
AcDbLine
 10
208.5379515210505
 20
121.6209612232993
 30
300.0
 11
208.1260179819754
 21
123.3167106270126
 31
300.0
  0
LINE
  5
1FF3
330
1FA2
100
AcDbEntity
  8
0
100
AcDbLine
 10
208.0230345972057
 20
121.6016021363326
 30
300.0
 11
208.5379515210505
 21
121.123822291103
 31
300.0
  0
LINE
  5
1FF4
330
1FA2
100
AcDbEntity
  8
0
100
AcDbLine
 10
212.5492664043075
 20
121.6209612232993
 30
300.0
 11
211.5931252692015
 21
121.6209612232993
 31
300.0
  0
LINE
  5
1FF5
330
1FA2
100
AcDbEntity
  8
0
100
AcDbLine
 10
212.6572869118125
 20
123.3167106270126
 30
300.0
 11
212.2796811676606
 21
123.7626384825604
 31
300.0
  0
LINE
  5
1FF6
330
1FA2
100
AcDbEntity
  8
0
100
AcDbLine
 10
201.1231435416674
 20
123.3167106270126
 30
300.0
 11
200.7455377975155
 21
123.7626384825604
 31
300.0
  0
LINE
  5
1FF7
330
1FA2
100
AcDbEntity
  8
0
100
AcDbLine
 10
201.0151230341624
 20
121.6209612232993
 30
300.0
 11
200.0589818990564
 21
121.6209612232993
 31
300.0
  0
LINE
  5
1FF8
330
1FA2
100
AcDbEntity
  8
0
100
AcDbLine
 10
196.4888912270606
 20
121.6016021363326
 30
300.0
 11
197.0038081509054
 21
121.123822291103
 31
300.0
  0
LINE
  5
1FF9
330
1FA2
100
AcDbEntity
  8
0
100
AcDbLine
 10
197.0038081509054
 20
121.6209612232993
 30
300.0
 11
196.5918746118303
 21
123.3167106270126
 31
300.0
  0
LINE
  5
1FFA
330
1FA2
100
AcDbEntity
  8
0
100
AcDbLine
 10
197.5933802811804
 20
123.3322979734345
 30
300.0
 11
196.5786754553472
 21
123.3322979734345
 31
300.0
  0
LINE
  5
1FFB
330
1FA2
100
AcDbEntity
  8
0
100
AcDbLine
 10
196.0426298930623
 20
123.3167106270126
 30
300.0
 11
196.4888912270606
 21
121.6016021363326
 31
300.0
  0
LINE
  5
1FFC
330
1FA2
100
AcDbEntity
  8
0
100
AcDbLine
 10
196.5918746118303
 20
123.3167106270126
 30
300.0
 11
196.2142688676766
 21
123.7626384825604
 31
300.0
  0
LINE
  5
1FFD
330
1FA2
100
AcDbEntity
  8
0
100
AcDbLine
 10
196.2142688676766
 20
123.7626384825604
 30
300.0
 11
196.0426298930623
 21
123.3167106270126
 31
300.0
  0
LINE
  5
1FFE
330
1FA2
100
AcDbEntity
  8
0
100
AcDbLine
 10
199.5390278524727
 20
121.6209612232993
 30
300.0
 11
198.5485589224434
 21
121.6209612232993
 31
300.0
  0
LINE
  5
1FFF
330
1FA2
100
AcDbEntity
  8
0
100
AcDbLine
 10
199.1038032577933
 20
123.3322979734345
 30
300.0
 11
198.1234262268852
 21
123.3322979734345
 31
300.0
  0
LINE
  5
2000
330
1FA2
100
AcDbEntity
  8
0
100
AcDbLine
 10
197.5873806645985
 20
123.3167106270126
 30
300.0
 11
198.0336419985968
 21
121.6016021363326
 31
300.0
  0
LINE
  5
2001
330
1FA2
100
AcDbEntity
  8
0
100
AcDbLine
 10
198.1366253833665
 20
123.3167106270126
 30
300.0
 11
197.7590196392128
 21
123.7626384825604
 31
300.0
  0
LINE
  5
2002
330
1FA2
100
AcDbEntity
  8
0
100
AcDbLine
 10
197.7590196392128
 20
123.7626384825604
 30
300.0
 11
197.5873806645985
 21
123.3167106270126
 31
300.0
  0
LINE
  5
2003
330
1FA2
100
AcDbEntity
  8
0
100
AcDbLine
 10
198.0336419985968
 20
121.6016021363326
 30
300.0
 11
198.5485589224416
 21
121.123822291103
 31
300.0
  0
LINE
  5
2004
330
1FA2
100
AcDbEntity
  8
0
100
AcDbLine
 10
198.5485589224416
 20
121.123822291103
 30
300.0
 11
198.5485589224416
 21
121.6209612232993
 31
300.0
  0
LINE
  5
2005
330
1FA2
100
AcDbEntity
  8
0
100
AcDbLine
 10
199.6470483599777
 20
123.3167106270126
 30
300.0
 11
199.2694426158258
 21
123.7626384825604
 31
300.0
  0
LINE
  5
2006
330
1FA2
100
AcDbEntity
  8
0
100
AcDbLine
 10
200.7455377975155
 20
123.7626384825604
 30
300.0
 11
200.5738988228994
 21
123.3167106270126
 31
300.0
  0
LINE
  5
2007
330
1FA2
100
AcDbEntity
  8
0
100
AcDbLine
 10
200.5798984394831
 20
123.3322979734345
 30
300.0
 11
199.6338492034964
 21
123.3322979734345
 31
300.0
  0
LINE
  5
2008
330
1FA2
100
AcDbEntity
  8
0
100
AcDbLine
 10
199.5440649752098
 20
121.6016021363326
 30
300.0
 11
200.0589818990564
 21
121.123822291103
 31
300.0
  0
LINE
  5
2009
330
1FA2
100
AcDbEntity
  8
0
100
AcDbLine
 10
200.0589818990564
 20
121.123822291103
 30
300.0
 11
200.0589818990564
 21
121.6209612232993
 31
300.0
  0
LINE
  5
200A
330
1FA2
100
AcDbEntity
  8
0
100
AcDbLine
 10
199.2694426158258
 20
123.7626384825604
 30
300.0
 11
199.0978036412096
 21
123.3167106270126
 31
300.0
  0
LINE
  5
200B
330
1FA2
100
AcDbEntity
  8
0
100
AcDbLine
 10
197.0038081509054
 20
121.123822291103
 30
300.0
 11
197.0038081509054
 21
121.6209612232993
 31
300.0
  0
LINE
  5
200C
330
1FA2
100
AcDbEntity
  8
0
100
AcDbLine
 10
198.0286048758597
 20
121.6209612232993
 30
300.0
 11
197.0038081509072
 21
121.6209612232993
 31
300.0
  0
LINE
  5
200D
330
1FA2
100
AcDbEntity
  8
0
100
AcDbLine
 10
205.2539231393938
 20
121.6209612232993
 30
300.0
 11
204.3842883353653
 21
121.6209612232993
 31
300.0
  0
LINE
  5
200E
330
1FA2
100
AcDbEntity
  8
0
100
AcDbLine
 10
205.0021886439798
 20
123.6940330365565
 30
300.0
 11
204.8305496693636
 21
123.2481051810088
 31
300.0
  0
LINE
  5
200F
330
1FA2
100
AcDbEntity
  8
0
100
AcDbLine
 10
202.4568904209308
 20
121.6209612232993
 30
300.0
 11
201.5350770807462
 21
121.6209612232993
 31
300.0
  0
LINE
  5
2010
330
1FA2
100
AcDbEntity
  8
0
100
AcDbLine
 10
204.8629557287339
 20
123.3322979734345
 30
300.0
 11
203.9591556398071
 21
123.3322979734345
 31
300.0
  0
LINE
  5
2011
330
1FA2
100
AcDbEntity
  8
0
100
AcDbLine
 10
203.4291096941023
 20
123.3322979734345
 30
300.0
 11
202.5517117719545
 21
123.3322979734345
 31
300.0
  0
LINE
  5
2012
330
1FA2
100
AcDbEntity
  8
0
100
AcDbLine
 10
203.9723547962884
 20
123.3167106270126
 30
300.0
 11
203.5947490521365
 21
123.7626384825604
 31
300.0
  0
LINE
  5
2013
330
1FA2
100
AcDbEntity
  8
0
100
AcDbLine
 10
203.5947490521365
 20
123.7626384825604
 30
300.0
 11
203.4231100775204
 21
123.3167106270126
 31
300.0
  0
LINE
  5
2014
330
1FA2
100
AcDbEntity
  8
0
100
AcDbLine
 10
202.5649109284358
 20
123.3167106270126
 30
300.0
 11
202.187305184282
 21
123.7626384825604
 31
300.0
  0
LINE
  5
2015
330
1FA2
100
AcDbEntity
  8
0
100
AcDbLine
 10
202.187305184282
 20
123.7626384825604
 30
300.0
 11
202.0156662096677
 21
123.3167106270126
 31
300.0
  0
LINE
  5
2016
330
1FA2
100
AcDbEntity
  8
0
100
AcDbLine
 10
203.8643342887834
 20
121.6209612232993
 30
300.0
 11
202.9768444675127
 21
121.6209612232993
 31
300.0
  0
LINE
  5
2017
330
1FA2
100
AcDbEntity
  8
0
100
AcDbLine
 10
203.8693714115187
 20
121.6016021363326
 30
300.0
 11
204.3842883353653
 21
121.123822291103
 31
300.0
  0
LINE
  5
2018
330
1FA2
100
AcDbEntity
  8
0
100
AcDbLine
 10
204.3842883353653
 20
121.123822291103
 30
300.0
 11
204.3842883353653
 21
121.6209612232993
 31
300.0
  0
LINE
  5
2019
330
1FA2
100
AcDbEntity
  8
0
100
AcDbLine
 10
202.4619275436679
 20
121.6016021363326
 30
300.0
 11
202.9768444675127
 21
121.123822291103
 31
300.0
  0
LINE
  5
201A
330
1FA2
100
AcDbEntity
  8
0
100
AcDbLine
 10
202.9768444675127
 20
121.123822291103
 30
300.0
 11
202.9768444675127
 21
121.6209612232993
 31
300.0
  0
LINE
  5
201B
330
1FA2
100
AcDbEntity
  8
0
100
AcDbLine
 10
201.5350770807462
 20
121.123822291103
 30
300.0
 11
201.5350770807462
 21
121.6209612232993
 31
300.0
  0
LINE
  5
201C
330
1FA2
100
AcDbEntity
  8
0
100
AcDbLine
 10
202.0216658262496
 20
123.3322979734345
 30
300.0
 11
201.1099443851861
 21
123.3322979734345
 31
300.0
  0
LINE
  5
201D
330
1FA2
100
AcDbEntity
  8
0
100
AcDbLine
 10
201.0201601568995
 20
121.6016021363326
 30
300.0
 11
201.5350770807462
 21
121.123822291103
 31
300.0
  0
LINE
  5
201E
330
1FA2
100
AcDbEntity
  8
0
100
AcDbLine
 10
206.6842505952071
 20
123.3167106270126
 30
300.0
 11
206.3066448510552
 21
123.7626384825604
 31
300.0
  0
LINE
  5
201F
330
1FA2
100
AcDbEntity
  8
0
100
AcDbLine
 10
206.3066448510552
 20
123.7626384825604
 30
300.0
 11
206.1350058764391
 21
123.3167106270126
 31
300.0
  0
LINE
  5
2020
330
1FA2
100
AcDbEntity
  8
0
100
AcDbLine
 10
206.5762300877021
 20
121.6209612232993
 30
300.0
 11
205.7750622075499
 21
121.6209612232993
 31
300.0
  0
LINE
  5
2021
330
1FA2
100
AcDbEntity
  8
0
100
AcDbLine
 10
207.096184134284
 20
121.123822291103
 30
300.0
 11
207.096184134284
 21
121.6209612232993
 31
300.0
  0
LINE
  5
2022
330
1FA2
100
AcDbEntity
  8
0
100
AcDbLine
 10
206.5812672104374
 20
121.6016021363326
 30
300.0
 11
207.096184134284
 21
121.123822291103
 31
300.0
  0
LINE
  5
2023
330
1FA2
100
AcDbEntity
  8
0
100
AcDbLine
 10
205.7917279272086
 20
121.0552168450987
 30
300.0
 11
205.7917279272086
 21
121.5523557772945
 31
300.0
  0
LINE
  5
2024
330
1FA2
100
AcDbEntity
  8
0
100
AcDbLine
 10
205.3797943881316
 20
123.2481051810088
 30
300.0
 11
205.0021886439798
 21
123.6940330365565
 31
300.0
  0
LINE
  5
2025
330
1FA2
100
AcDbEntity
  8
0
100
AcDbLine
 10
206.141005493021
 20
123.3322979734345
 30
300.0
 11
205.3085010575167
 21
123.3322979734345
 31
300.0
  0
LINE
  5
2026
330
1FA2
100
AcDbEntity
  8
0
100
AcDbLine
 10
205.276811003362
 20
121.5329966903288
 30
300.0
 11
205.7917279272086
 21
121.0552168450987
 31
300.0
  0
LINE
  5
2027
330
1FA2
100
AcDbEntity
  8
0
100
AcDbLine
 10
200.5738988228994
 20
123.3167106270126
 30
300.0
 11
201.0201601568995
 21
121.6016021363326
 31
300.0
  0
LINE
  5
2028
330
1FA2
100
AcDbEntity
  8
0
100
AcDbLine
 10
198.5485589224416
 20
121.6209612232993
 30
300.0
 11
198.1366253833665
 21
123.3167106270126
 31
300.0
  0
LINE
  5
2029
330
1FA2
100
AcDbEntity
  8
0
100
AcDbLine
 10
199.0978036412096
 20
123.3167106270126
 30
300.0
 11
199.5440649752098
 21
121.6016021363326
 31
300.0
  0
LINE
  5
202A
330
1FA2
100
AcDbEntity
  8
0
100
AcDbLine
 10
200.0589818990564
 20
121.6209612232993
 30
300.0
 11
199.6470483599777
 21
123.3167106270126
 31
300.0
  0
LINE
  5
202B
330
1FA2
100
AcDbEntity
  8
0
100
AcDbLine
 10
204.8305496693636
 20
123.2481051810088
 30
300.0
 11
205.276811003362
 21
121.5329966903288
 31
300.0
  0
LINE
  5
202C
330
1FA2
100
AcDbEntity
  8
0
100
AcDbLine
 10
202.9768444675127
 20
121.6209612232993
 30
300.0
 11
202.5649109284358
 21
123.3167106270126
 31
300.0
  0
LINE
  5
202D
330
1FA2
100
AcDbEntity
  8
0
100
AcDbLine
 10
203.4231100775204
 20
123.3167106270126
 30
300.0
 11
203.8693714115187
 21
121.6016021363326
 31
300.0
  0
LINE
  5
202E
330
1FA2
100
AcDbEntity
  8
0
100
AcDbLine
 10
202.0156662096677
 20
123.3167106270126
 30
300.0
 11
202.4619275436679
 21
121.6016021363326
 31
300.0
  0
LINE
  5
202F
330
1FA2
100
AcDbEntity
  8
0
100
AcDbLine
 10
204.3842883353653
 20
121.6209612232993
 30
300.0
 11
203.9723547962884
 21
123.3167106270126
 31
300.0
  0
LINE
  5
2030
330
1FA2
100
AcDbEntity
  8
0
100
AcDbLine
 10
201.5350770807462
 20
121.6209612232993
 30
300.0
 11
201.1231435416674
 21
123.3167106270126
 31
300.0
  0
LINE
  5
2031
330
1FA2
100
AcDbEntity
  8
0
100
AcDbLine
 10
206.1350058764391
 20
123.3167106270126
 30
300.0
 11
206.5812672104374
 21
121.6016021363326
 31
300.0
  0
LINE
  5
2032
330
1FA2
100
AcDbEntity
  8
0
100
AcDbLine
 10
207.096184134284
 20
121.6209612232993
 30
300.0
 11
206.6842505952071
 21
123.3167106270126
 31
300.0
  0
LINE
  5
2033
330
1FA2
100
AcDbEntity
  8
0
100
AcDbLine
 10
205.7917279272086
 20
121.5523557772945
 30
300.0
 11
205.3797943881316
 21
123.2481051810088
 31
300.0
  0
LINE
  5
2034
330
1FA2
100
AcDbEntity
  8
0
100
AcDbLine
 10
194.7441775785771
 20
123.3322979734345
 30
300.0
 11
193.8667796564279
 21
123.3322979734345
 31
300.0
  0
LINE
  5
2035
330
1FA2
100
AcDbEntity
  8
0
100
AcDbLine
 10
195.1794021732558
 20
121.6209612232993
 30
300.0
 11
194.2919123519867
 21
121.6209612232993
 31
300.0
  0
LINE
  5
2036
330
1FA2
100
AcDbEntity
  8
0
100
AcDbLine
 10
189.4860167867544
 20
121.6016021363326
 30
300.0
 11
190.0009337106011
 21
121.123822291103
 31
300.0
  0
LINE
  5
2037
330
1FA2
100
AcDbEntity
  8
0
100
AcDbLine
 10
190.0009337106011
 20
121.6209612232993
 30
300.0
 11
189.5890001715223
 21
123.3167106270126
 31
300.0
  0
LINE
  5
2038
330
1FA2
100
AcDbEntity
  8
0
100
AcDbLine
 10
190.4875224561045
 20
123.3322979734345
 30
300.0
 11
189.575801015041
 21
123.3322979734345
 31
300.0
  0
LINE
  5
2039
330
1FA2
100
AcDbEntity
  8
0
100
AcDbLine
 10
190.0009337106011
 20
121.123822291103
 30
300.0
 11
190.0009337106011
 21
121.6209612232993
 31
300.0
  0
LINE
  5
203A
330
1FA2
100
AcDbEntity
  8
0
100
AcDbLine
 10
191.4427010973676
 20
121.123822291103
 30
300.0
 11
191.4427010973676
 21
121.6209612232993
 31
300.0
  0
LINE
  5
203B
330
1FA2
100
AcDbEntity
  8
0
100
AcDbLine
 10
190.9277841735228
 20
121.6016021363326
 30
300.0
 11
191.4427010973676
 21
121.123822291103
 31
300.0
  0
LINE
  5
203C
330
1FA2
100
AcDbEntity
  8
0
100
AcDbLine
 10
192.8501449652202
 20
121.123822291103
 30
300.0
 11
192.8501449652202
 21
121.6209612232993
 31
300.0
  0
LINE
  5
203D
330
1FA2
100
AcDbEntity
  8
0
100
AcDbLine
 10
192.3352280413736
 20
121.6016021363326
 30
300.0
 11
192.8501449652202
 21
121.123822291103
 31
300.0
  0
LINE
  5
203E
330
1FA2
100
AcDbEntity
  8
0
100
AcDbLine
 10
192.3301909186383
 20
121.6209612232993
 30
300.0
 11
191.4427010973676
 21
121.6209612232993
 31
300.0
  0
LINE
  5
203F
330
1FA2
100
AcDbEntity
  8
0
100
AcDbLine
 10
190.6531618141369
 20
123.7626384825604
 30
300.0
 11
190.4815228395226
 21
123.3167106270126
 31
300.0
  0
LINE
  5
2040
330
1FA2
100
AcDbEntity
  8
0
100
AcDbLine
 10
191.0307675582906
 20
123.3167106270126
 30
300.0
 11
190.6531618141369
 21
123.7626384825604
 31
300.0
  0
LINE
  5
2041
330
1FA2
100
AcDbEntity
  8
0
100
AcDbLine
 10
192.0606056819914
 20
123.7626384825604
 30
300.0
 11
191.8889667073752
 21
123.3167106270126
 31
300.0
  0
LINE
  5
2042
330
1FA2
100
AcDbEntity
  8
0
100
AcDbLine
 10
192.4382114261432
 20
123.3167106270126
 30
300.0
 11
192.0606056819914
 21
123.7626384825604
 31
300.0
  0
LINE
  5
2043
330
1FA2
100
AcDbEntity
  8
0
100
AcDbLine
 10
191.8949663239571
 20
123.3322979734345
 30
300.0
 11
191.0175684018093
 21
123.3322979734345
 31
300.0
  0
LINE
  5
2044
330
1FA2
100
AcDbEntity
  8
0
100
AcDbLine
 10
192.8501449652202
 20
121.6209612232993
 30
300.0
 11
192.4382114261432
 21
123.3167106270126
 31
300.0
  0
LINE
  5
2045
330
1FA2
100
AcDbEntity
  8
0
100
AcDbLine
 10
190.4815228395226
 20
123.3167106270126
 30
300.0
 11
190.9277841735228
 21
121.6016021363326
 31
300.0
  0
LINE
  5
2046
330
1FA2
100
AcDbEntity
  8
0
100
AcDbLine
 10
191.8889667073752
 20
123.3167106270126
 30
300.0
 11
192.3352280413736
 21
121.6016021363326
 31
300.0
  0
LINE
  5
2047
330
1FA2
100
AcDbEntity
  8
0
100
AcDbLine
 10
191.4427010973676
 20
121.6209612232993
 30
300.0
 11
191.0307675582906
 21
123.3167106270126
 31
300.0
  0
LINE
  5
2048
330
1FA2
100
AcDbEntity
  8
0
100
AcDbLine
 10
193.3288123585888
 20
123.3322979734345
 30
300.0
 11
192.425012269662
 21
123.3322979734345
 31
300.0
  0
LINE
  5
2049
330
1FA2
100
AcDbEntity
  8
0
100
AcDbLine
 10
190.9227470507856
 20
121.6209612232993
 30
300.0
 11
190.0009337106011
 21
121.6209612232993
 31
300.0
  0
LINE
  5
204A
330
1FA2
100
AcDbEntity
  8
0
100
AcDbLine
 10
193.7719583054049
 20
121.6209612232993
 30
300.0
 11
192.8501449652202
 21
121.6209612232993
 31
300.0
  0
LINE
  5
204B
330
1FA2
100
AcDbEntity
  8
0
100
AcDbLine
 10
186.4944615057146
 20
121.6209612232993
 30
300.0
 11
185.4696647807621
 21
121.6209612232993
 31
300.0
  0
LINE
  5
204C
330
1FA2
100
AcDbEntity
  8
0
100
AcDbLine
 10
185.4696647807603
 20
121.123822291103
 30
300.0
 11
185.4696647807603
 21
121.6209612232993
 31
300.0
  0
LINE
  5
204D
330
1FA2
100
AcDbEntity
  8
0
100
AcDbLine
 10
187.7352992456807
 20
123.7626384825604
 30
300.0
 11
187.5636602710645
 21
123.3167106270126
 31
300.0
  0
LINE
  5
204E
330
1FA2
100
AcDbEntity
  8
0
100
AcDbLine
 10
188.5248385289113
 20
121.123822291103
 30
300.0
 11
188.5248385289113
 21
121.6209612232993
 31
300.0
  0
LINE
  5
204F
330
1FA2
100
AcDbEntity
  8
0
100
AcDbLine
 10
188.0099216050647
 20
121.6016021363326
 30
300.0
 11
188.5248385289113
 21
121.123822291103
 31
300.0
  0
LINE
  5
2050
330
1FA2
100
AcDbEntity
  8
0
100
AcDbLine
 10
189.045755069338
 20
123.3322979734345
 30
300.0
 11
188.0997058333513
 21
123.3322979734345
 31
300.0
  0
LINE
  5
2051
330
1FA2
100
AcDbEntity
  8
0
100
AcDbLine
 10
189.2113944273704
 20
123.7626384825604
 30
300.0
 11
189.0397554527543
 21
123.3167106270126
 31
300.0
  0
LINE
  5
2052
330
1FA2
100
AcDbEntity
  8
0
100
AcDbLine
 10
188.5248385289113
 20
121.6209612232993
 30
300.0
 11
188.1129049898325
 21
123.3167106270126
 31
300.0
  0
LINE
  5
2053
330
1FA2
100
AcDbEntity
  8
0
100
AcDbLine
 10
187.5636602710645
 20
123.3167106270126
 30
300.0
 11
188.0099216050647
 21
121.6016021363326
 31
300.0
  0
LINE
  5
2054
330
1FA2
100
AcDbEntity
  8
0
100
AcDbLine
 10
188.1129049898325
 20
123.3167106270126
 30
300.0
 11
187.7352992456807
 21
123.7626384825604
 31
300.0
  0
LINE
  5
2055
330
1FA2
100
AcDbEntity
  8
0
100
AcDbLine
 10
187.0144155522965
 20
121.123822291103
 30
300.0
 11
187.0144155522965
 21
121.6209612232993
 31
300.0
  0
LINE
  5
2056
330
1FA2
100
AcDbEntity
  8
0
100
AcDbLine
 10
186.4994986284517
 20
121.6016021363326
 30
300.0
 11
187.0144155522965
 21
121.123822291103
 31
300.0
  0
LINE
  5
2057
330
1FA2
100
AcDbEntity
  8
0
100
AcDbLine
 10
186.2248762690677
 20
123.7626384825604
 30
300.0
 11
186.0532372944534
 21
123.3167106270126
 31
300.0
  0
LINE
  5
2058
330
1FA2
100
AcDbEntity
  8
0
100
AcDbLine
 10
186.6024820132214
 20
123.3167106270126
 30
300.0
 11
186.2248762690677
 21
123.7626384825604
 31
300.0
  0
LINE
  5
2059
330
1FA2
100
AcDbEntity
  8
0
100
AcDbLine
 10
186.0532372944534
 20
123.3167106270126
 30
300.0
 11
186.4994986284517
 21
121.6016021363326
 31
300.0
  0
LINE
  5
205A
330
1FA2
100
AcDbEntity
  8
0
100
AcDbLine
 10
187.0144155522965
 20
121.6209612232993
 30
300.0
 11
186.6024820132214
 21
123.3167106270126
 31
300.0
  0
LINE
  5
205B
330
1FA2
100
AcDbEntity
  8
0
100
AcDbLine
 10
187.5696598876482
 20
123.3322979734345
 30
300.0
 11
186.5892828567401
 21
123.3322979734345
 31
300.0
  0
LINE
  5
205C
330
1FA2
100
AcDbEntity
  8
0
100
AcDbLine
 10
188.0048844823276
 20
121.6209612232993
 30
300.0
 11
187.0144155522983
 21
121.6209612232993
 31
300.0
  0
LINE
  5
205D
330
1FA2
100
AcDbEntity
  8
0
100
AcDbLine
 10
182.0318481657221
 20
121.6209612232993
 30
300.0
 11
181.4022914432997
 21
121.6209612232993
 31
300.0
  0
LINE
  5
205E
330
1FA2
100
AcDbEntity
  8
0
100
AcDbLine
 10
181.596623571041
 20
123.3322979734345
 30
300.0
 11
181.4022914432997
 21
123.3322979734345
 31
300.0
  0
LINE
  5
205F
330
1FA2
100
AcDbEntity
  8
0
100
AcDbLine
 10
181.7622629290734
 20
123.7626384825604
 30
300.0
 11
181.5906239544591
 21
123.3167106270126
 31
300.0
  0
LINE
  5
2060
330
1FA2
100
AcDbEntity
  8
0
100
AcDbLine
 10
181.5906239544591
 20
123.3167106270126
 30
300.0
 11
182.0368852884593
 21
121.6016021363326
 31
300.0
  0
LINE
  5
2061
330
1FA2
100
AcDbEntity
  8
0
100
AcDbLine
 10
182.551802212304
 20
121.123822291103
 30
300.0
 11
182.551802212304
 21
121.6209612232993
 31
300.0
  0
LINE
  5
2062
330
1FA2
100
AcDbEntity
  8
0
100
AcDbLine
 10
182.0368852884593
 20
121.6016021363326
 30
300.0
 11
182.551802212304
 21
121.123822291103
 31
300.0
  0
LINE
  5
2063
330
1FA2
100
AcDbEntity
  8
0
100
AcDbLine
 10
182.1398686732271
 20
123.3167106270126
 30
300.0
 11
181.7622629290734
 21
123.7626384825604
 31
300.0
  0
LINE
  5
2064
330
1FA2
100
AcDbEntity
  8
0
100
AcDbLine
 10
182.551802212304
 20
121.6209612232993
 30
300.0
 11
182.1398686732271
 21
123.3167106270126
 31
300.0
  0
LINE
  5
2065
330
1FA2
100
AcDbEntity
  8
0
100
AcDbLine
 10
184.0278973939938
 20
121.123822291103
 30
300.0
 11
184.0278973939938
 21
121.6209612232993
 31
300.0
  0
LINE
  5
2066
330
1FA2
100
AcDbEntity
  8
0
100
AcDbLine
 10
183.512980470149
 20
121.6016021363326
 30
300.0
 11
184.0278973939938
 21
121.123822291103
 31
300.0
  0
LINE
  5
2067
330
1FA2
100
AcDbEntity
  8
0
100
AcDbLine
 10
184.9497107341784
 20
121.6209612232993
 30
300.0
 11
184.0278973939938
 21
121.6209612232993
 31
300.0
  0
LINE
  5
2068
330
1FA2
100
AcDbEntity
  8
0
100
AcDbLine
 10
183.2383581107632
 20
123.7626384825604
 30
300.0
 11
183.0667191361488
 21
123.3167106270126
 31
300.0
  0
LINE
  5
2069
330
1FA2
100
AcDbEntity
  8
0
100
AcDbLine
 10
183.6159638549169
 20
123.3167106270126
 30
300.0
 11
183.2383581107632
 21
123.7626384825604
 31
300.0
  0
LINE
  5
206A
330
1FA2
100
AcDbEntity
  8
0
100
AcDbLine
 10
184.6801254975315
 20
123.7626384825604
 30
300.0
 11
184.5084865229172
 21
123.3167106270126
 31
300.0
  0
LINE
  5
206B
330
1FA2
100
AcDbEntity
  8
0
100
AcDbLine
 10
185.0577312416852
 20
123.3167106270126
 30
300.0
 11
184.6801254975315
 21
123.7626384825604
 31
300.0
  0
LINE
  5
206C
330
1FA2
100
AcDbEntity
  8
0
100
AcDbLine
 10
184.5144861394991
 20
123.3322979734345
 30
300.0
 11
183.6027646984356
 21
123.3322979734345
 31
300.0
  0
LINE
  5
206D
330
1FA2
100
AcDbEntity
  8
0
100
AcDbLine
 10
184.5084865229172
 20
123.3167106270126
 30
300.0
 11
184.9547478569155
 21
121.6016021363326
 31
300.0
  0
LINE
  5
206E
330
1FA2
100
AcDbEntity
  8
0
100
AcDbLine
 10
183.0667191361488
 20
123.3167106270126
 30
300.0
 11
183.512980470149
 21
121.6016021363326
 31
300.0
  0
LINE
  5
206F
330
1FA2
100
AcDbEntity
  8
0
100
AcDbLine
 10
184.0278973939938
 20
121.6209612232993
 30
300.0
 11
183.6159638549169
 21
123.3167106270126
 31
300.0
  0
LINE
  5
2070
330
1FA2
100
AcDbEntity
  8
0
100
AcDbLine
 10
183.0727187527307
 20
123.3322979734345
 30
300.0
 11
182.1266695167459
 21
123.3322979734345
 31
300.0
  0
LINE
  5
2071
330
1FA2
100
AcDbEntity
  8
0
100
AcDbLine
 10
183.5079433474119
 20
121.6209612232993
 30
300.0
 11
182.551802212304
 21
121.6209612232993
 31
300.0
  0
LINE
  5
2072
330
1FA2
100
AcDbEntity
  8
0
100
AcDbLine
 10
186.0592369110353
 20
123.3322979734345
 30
300.0
 11
185.0445320852021
 21
123.3322979734345
 31
300.0
  0
LINE
  5
2073
330
1FA2
100
AcDbEntity
  8
0
100
AcDbLine
 10
185.4696647807603
 20
121.6209612232993
 30
300.0
 11
185.0577312416852
 21
123.3167106270126
 31
300.0
  0
LINE
  5
2074
330
1FA2
100
AcDbEntity
  8
0
100
AcDbLine
 10
184.9547478569155
 20
121.6016021363326
 30
300.0
 11
185.4696647807603
 21
121.123822291103
 31
300.0
  0
LINE
  5
2075
330
1FA2
100
AcDbEntity
  8
0
100
AcDbLine
 10
178.1912900008927
 20
122.4766295983669
 30
300.0
 11
181.4022914432997
 21
123.3322979734345
 31
300.0
  0
LINE
  5
2076
330
1FA2
100
AcDbEntity
  8
0
100
AcDbLine
 10
178.1912900008927
 20
122.4766295983669
 30
300.0
 11
181.4022914432997
 21
121.6209612232993
 31
300.0
  0
LINE
  5
2077
330
1FA2
100
AcDbEntity
  8
0
100
AcDbLine
 10
189.4809796640173
 20
121.6209612232993
 30
300.0
 11
188.5248385289113
 21
121.6209612232993
 31
300.0
  0
LINE
  5
2078
330
1FA2
100
AcDbEntity
  8
0
100
AcDbLine
 10
189.5890001715223
 20
123.3167106270126
 30
300.0
 11
189.2113944273704
 21
123.7626384825604
 31
300.0
  0
LINE
  5
2079
330
1FA2
100
AcDbEntity
  8
0
100
AcDbLine
 10
189.0397554527543
 20
123.3167106270126
 30
300.0
 11
189.4860167867544
 21
121.6016021363326
 31
300.0
  0
LINE
  5
207A
330
1FA2
100
AcDbEntity
  8
0
100
AcDbLine
 10
196.4838541043236
 20
121.6209612232993
 30
300.0
 11
195.6993562198393
 21
121.6209612232993
 31
300.0
  0
LINE
  5
207B
330
1FA2
100
AcDbEntity
  8
0
100
AcDbLine
 10
196.0486295096449
 20
123.3322979734345
 30
300.0
 11
195.2742235242806
 21
123.3322979734345
 31
300.0
  0
ENDBLK
  5
207C
330
1FA2
100
AcDbEntity
  8
0
100
AcDbBlockEnd
  0
BLOCK
  5
12BA7
330
12BA3
100
AcDbEntity
  8
0
100
AcDbBlockBegin
  2
100 x 50 dry
 70
     0
 10
0.0
 20
0.0
 30
0.0
  3
100 x 50 dry
  1

  0
LWPOLYLINE
  5
12BA4
330
12BA3
100
AcDbEntity
  8
0
100
AcDbPolyline
 90
        4
 70
     1
 43
0.5
 10
0.0
 20
0.0
 10
45.0
 20
0.0
 10
45.0
 20
90.0
 10
0.0
 20
90.0
  0
LINE
  5
12BA5
330
12BA3
100
AcDbEntity
  8
Hatch
100
AcDbLine
 10
45.0
 20
90.0
 30
0.0
 11
0.0
 21
0.0
 31
0.0
  0
LINE
  5
12BA6
330
12BA3
100
AcDbEntity
  8
Hatch
100
AcDbLine
 10
0.0
 20
90.0
 30
0.0
 11
45.0
 21
0.0
 31
0.0
  0
ENDBLK
  5
12BA8
330
12BA3
100
AcDbEntity
  8
0
100
AcDbBlockEnd
  0
BLOCK
  5
1A406
330
1A405
100
AcDbEntity
  8
0
100
AcDbBlockBegin
  2
60 X 12 SCKIRTING
 70
     0
 10
0.0
 20
0.0
 30
0.0
  3
60 X 12 SCKIRTING
  1

  0
LWPOLYLINE
  5
1A407
330
1A405
100
AcDbEntity
  8
Linings
100
AcDbPolyline
 90
        9
 70
     1
 43
0.0
 10
0.0
 20
0.0
 10
0.0
 20
20.0
 10
2.0
 20
20.0
 10
2.0
 20
40.0
 10
0.0
 20
40.0
 10
0.0
 20
60.0
 10
12.0
 20
55.0
 10
12.0
 20
0.0
 10
0.0
 20
0.0
  0
ARC
  5
1A408
330
1A405
100
AcDbEntity
  8
Hatch
100
AcDbCircle
 10
-8.148053755467117
 20
59.16794025118633
 30
0.0
 40
13.2620362436214
100
AcDbArc
 50
307.9075623697226
 51
354.4907509645044
  0
ARC
  5
1A409
330
1A405
100
AcDbEntity
  8
Hatch
100
AcDbCircle
 10
-14.99246435323675
 20
53.25718992014344
 30
0.0
 40
25.01205065568972
100
AcDbArc
 50
312.7945180618874
 51
6.025542387422886
  0
ARC
  5
1A40A
330
1A405
100
AcDbEntity
  8
Hatch
100
AcDbCircle
 10
-17.56093216208046
 20
41.20276409618327
 30
0.0
 40
30.97720193353718
100
AcDbArc
 50
304.5342370709883
 51
342.6076514972183
  0
ARC
  5
1A40B
330
1A405
100
AcDbEntity
  8
Hatch
100
AcDbCircle
 10
-13.10062361393193
 20
24.90445973020587
 30
0.0
 40
26.7405271375881
100
AcDbArc
 50
299.3350889649905
 51
339.8299644835106
  0
ENDBLK
  5
1A40C
330
1A405
100
AcDbEntity
  8
0
100
AcDbBlockEnd
  0
BLOCK
  5
1AAF9
330
1AAF8
100
AcDbEntity
  8
0
100
AcDbBlockBegin
  2
_ArchTick
 70
     0
 10
0.0
 20
0.0
 30
0.0
  3
_ArchTick
  1

  0
ENDBLK
  5
1AAFA
330
1AAF8
100
AcDbEntity
  8
0
100
AcDbBlockEnd
  0
BLOCK
  5
1AAFC
330
1AAFB
100
AcDbEntity
  8
0
100
AcDbBlockBegin
  2
_Dot
 70
     0
 10
0.0
 20
0.0
 30
0.0
  3
_Dot
  1

  0
ENDBLK
  5
1AAFD
330
1AAFB
100
AcDbEntity
  8
0
100
AcDbBlockEnd
  0
ENDSEC
  0
SECTION
  2
ENTITIES
  0
LINE
  5
19AFA
330
1F
100
AcDbEntity
  8
DEFPOINTS
100
AcDbLine
 10
9957.140639084544
 20
-766.3413366437944
 30
0.0
 11
10268.52534156427
 21
-766.3413366437944
 31
0.0
  0
HATCH
  5
1A5C9
330
1F
100
AcDbEntity
  8
Lining
 62
     9
100
AcDbHatch
 10
0.0
 20
0.0
 30
0.0
210
0.0
220
0.0
230
1.0
  2
SOLID
 70
     1
 71
     0
 91
        1
 92
        1
 93
        4
 72
     1
 10
9680.945864523426
 20
-554.5954926417343
 11
9670.945864523426
 21
-555.0123112479631
 72
     1
 10
9670.945864523426
 20
-555.0123112479631
 11
9670.945864523426
 21
-700.8232649588226
 72
     1
 10
9670.945864523426
 20
-700.8232649588226
 11
9680.945864523426
 21
-700.8232649588226
 72
     1
 10
9680.945864523424
 20
-700.8232649588226
 11
9680.945864523424
 21
-554.5954926417343
 97
        0
 75
     0
 76
     1
 98
        1
 10
9675.574148291383
 20
-571.7709912712216
450
        0
451
        0
460
0.0
461
0.0
452
        1
462
1.0
453
        2
463
0.0
 63
     5
421
      255
463
1.0
 63
     7
421
 16777215
470
LINEAR
1001
ACAD
1010
2518.762147479292
1020
-12411.81061511161
1030
0.0
  0
LWPOLYLINE
  5
1A5CB
330
1F
100
AcDbEntity
  8
Timber
100
AcDbPolyline
 90
        4
 70
     1
 43
0.5
 10
9637.945864523427
 20
-946.3413366437944
 10
9682.945864523427
 20
-946.3413366437944
 10
9682.945864523427
 20
-766.3413366437944
 10
9637.945864523427
 20
-766.3413366437944
  0
HATCH
  5
1A5D6
330
1F
100
AcDbEntity
  8
Concrete
100
AcDbHatch
 10
0.0
 20
0.0
 30
0.0
210
0.0
220
0.0
230
1.0
  2
AR-SAND
 70
     0
 71
     0
 91
        1
 92
        1
 93
        4
 72
     1
 10
9210.945864523424
 20
-750.3413366437926
 11
9210.945864523424
 21
-766.3413366437907
 72
     1
 10
9210.945864523427
 20
-766.3413366437907
 11
9682.945864523427
 21
-766.3413366437944
 72
     1
 10
9682.945864523427
 20
-766.3413366437944
 11
9682.945864523427
 21
-750.3413366437926
 72
     1
 10
9682.945864523425
 20
-750.3413366437926
 11
9210.945864523424
 21
-750.3413366437926
 97
        0
 75
     0
 76
     1
 52
0.0
 41
3.0
 77
     0
 78
     4
 53
37.5
 43
9207.945864523424
 44
-766.3413366437944
 45
-0.1889800743288245
 46
5.780471307039475
 79
     6
 49
0.0
 49
-4.56
 49
0.0
 49
-5.099999999999999
 49
0.0
 49
-4.875
 53
7.499999999999999
 43
9207.945864523424
 44
-766.3413366437944
 45
5.309330115803181
 46
8.466438195689221
 79
     6
 49
0.0
 49
-2.459999999999999
 49
0.0
 49
-4.11
 49
0.0
 49
-1.575
 53
327.5
 43
9204.255864523423
 44
-766.3413366437944
 45
9.342425585254485
 46
0.0169771606108935
 79
     6
 49
0.0
 49
-1.5
 49
0.0
 49
-5.4
 49
0.0
 49
-7.05
 53
317.5
 43
9204.255864523423
 44
-766.3413366437944
 45
9.01837981371688
 46
2.633026694802747
 79
     6
 49
0.0
 49
-0.75
 49
0.0
 49
-3.54
 49
0.0
 49
-4.05
 98
        1
 10
9451.182749538324
 20
-756.4454257241905
1001
ACAD
1010
2055.762147479292
1020
-12471.32868679658
1030
0.0
  0
LINE
  5
1A5D7
102
{ACAD_REACTORS
330
1A937
102
}
330
1F
100
AcDbEntity
  8
Hebel
100
AcDbLine
 10
9682.945864523427
 20
-766.3413366437944
 30
0.0
 11
9682.945864523427
 21
-691.3413366437944
 31
0.0
  0
LINE
  5
1A5D8
102
{ACAD_REACTORS
330
1A937
102
}
330
1F
100
AcDbEntity
  8
Hebel
100
AcDbLine
 10
10077.1306007403
 20
-766.3413366437944
 30
0.0
 11
9682.945864523427
 21
-766.3413366437944
 31
0.0
  0
LINE
  5
1A5D9
102
{ACAD_REACTORS
330
1A937
102
}
330
1F
100
AcDbEntity
  8
Hebel
100
AcDbLine
 10
10077.1306007403
 20
-691.341336643797
 30
0.0
 11
9682.945864523427
 21
-691.3413366437944
 31
0.0
  0
LWPOLYLINE
  5
1A5DB
102
{ACAD_REACTORS
330
1A937
102
}
330
1F
100
AcDbEntity
  8
Timber
100
AcDbPolyline
 90
        4
 70
     1
 43
0.5
 10
9682.945864523427
 20
-946.3413366437944
 10
9727.945864523427
 20
-946.3413366437944
 10
9727.945864523427
 20
-766.3413366437944
 10
9682.945864523427
 20
-766.3413366437944
  0
HATCH
  5
1A5E5
330
1F
100
AcDbEntity
  8
Concrete
100
AcDbHatch
 10
0.0
 20
0.0
 30
0.0
210
0.0
220
0.0
230
1.0
  2
AR-SAND
 70
     0
 71
     0
 91
        1
 92
        1
 93
        4
 72
     1
 10
9154.945864523426
 20
-766.3413366437926
 11
9154.945864523426
 21
-750.3413366437889
 72
     1
 10
9154.945864523426
 20
-750.3413366437889
 11
8682.945864523427
 21
-750.3413366437926
 72
     1
 10
8682.945864523427
 20
-750.3413366437926
 11
8682.945864523427
 21
-766.3413366437926
 72
     1
 10
8682.945864523427
 20
-766.3413366437926
 11
9154.945864523426
 21
-766.3413366437926
 97
        0
 75
     0
 76
     1
 52
0.0
 41
3.0
 77
     0
 78
     4
 53
37.5
 43
8682.945864523427
 44
-766.3413366437944
 45
-0.1889800743288245
 46
5.780471307039475
 79
     6
 49
0.0
 49
-4.56
 49
0.0
 49
-5.099999999999999
 49
0.0
 49
-4.875
 53
7.499999999999999
 43
8682.945864523427
 44
-766.3413366437944
 45
5.309330115803181
 46
8.466438195689221
 79
     6
 49
0.0
 49
-2.459999999999999
 49
0.0
 49
-4.11
 49
0.0
 49
-1.575
 53
327.5
 43
8679.255864523426
 44
-766.3413366437944
 45
9.342425585254485
 46
0.0169771606108935
 79
     6
 49
0.0
 49
-1.5
 49
0.0
 49
-5.4
 49
0.0
 49
-7.05
 53
317.5
 43
8679.255864523426
 44
-766.3413366437944
 45
9.01837981371688
 46
2.633026694802747
 79
     6
 49
0.0
 49
-0.75
 49
0.0
 49
-3.54
 49
0.0
 49
-4.05
 98
        1
 10
9027.62639820421
 20
-755.1664017144994
1001
ACAD
1010
1530.762147479292
1020
-12471.32868679658
1030
0.0
  0
LINE
  5
1A5E6
330
1F
100
AcDbEntity
  8
Concrete
100
AcDbLine
 10
8682.945864523427
 20
-766.3413366437944
 30
0.0
 11
9154.945864523426
 21
-766.3413366437944
 31
0.0
  0
LINE
  5
1A5E7
330
1F
100
AcDbEntity
  8
Concrete
100
AcDbLine
 10
9210.945864523427
 20
-766.3413366437944
 30
0.0
 11
9682.945864523427
 21
-766.3413366437944
 31
0.0
  0
LINE
  5
1A5E8
330
1F
100
AcDbEntity
  8
Concrete
100
AcDbLine
 10
8682.945864523427
 20
-750.3413366437944
 30
0.0
 11
9154.945864523426
 21
-750.3413366437926
 31
0.0
  0
LINE
  5
1A5E9
330
1F
100
AcDbEntity
  8
Concrete
100
AcDbLine
 10
9210.945864523427
 20
-750.3413366437926
 30
0.0
 11
9682.945864523427
 21
-750.3413366437944
 31
0.0
  0
HATCH
  5
1A5EA
330
1F
100
AcDbEntity
  8
Concrete
100
AcDbHatch
 10
0.0
 20
0.0
 30
0.0
210
0.0
220
0.0
230
1.0
  2
AR-CONC
 70
     0
 71
     0
 91
        1
 92
        7
 72
     1
 73
     1
 93
        9
 10
9157.945864523426
 20
-724.9049600205889
 42
0.0
 10
8683.945864523426
 20
-716.6312592446138
 42
0.0
 10
8683.945864523426
 20
-738.5913441145476
 42
0.4142135623730951
 10
8684.695864523426
 20
-739.3413441145476
 42
0.0
 10
8687.945860788047
 20
-739.3413441145476
 42
-0.4142135623731839
 10
8693.945857052669
 20
-745.3413403791728
 42
0.0
 10
8693.945857052669
 20
-748.5913366437944
 42
0.4142135623730966
 10
8694.69585705267
 20
-749.3413366437944
 42
0.0
 10
9157.945864523426
 20
-749.341336643789
 42
0.0
 97
        0
 75
     0
 76
     1
 52
0.0
 41
5.0
 77
     0
 78
    13
 53
50.0
 43
8683.945864523426
 44
-749.3413366437944
 45
35.86300913003768
 46
-3.137606749129755
 79
     2
 49
3.75
 49
-41.25
 53
355.0
 43
8683.945864523426
 44
-749.3413366437944
 45
-6.93756668065
 46
37.6096066850006
 79
     2
 49
3.0
 49
-33.0
 53
100.4514
 43
8686.934448523425
 44
-749.6028036437946
 45
28.92546908570108
 46
34.47197710304768
 79
     2
 49
3.187009499999999
 49
-35.05710559999999
 53
46.1842
 43
8683.945864523426
 44
-739.3413366437944
 45
53.36205243128222
 46
-8.275950716450903
 79
     2
 49
5.625
 49
-61.875
 53
96.6356
 43
8688.392701773427
 44
-740.0310019937951
 45
46.73313527743516
 46
48.70589354502208
 79
     2
 49
4.780514399999999
 49
-52.58565
 53
351.1842000000001
 43
8683.945864523426
 44
-739.3413366437944
 45
46.73309725668135
 46
48.70593004626623
 79
     2
 49
4.5
 49
-49.5
 53
21.0
 43
8688.945864523427
 44
-741.8413366437944
 45
29.84535260592308
 46
-20.13094453326694
 79
     2
 49
3.75
 49
-41.25
 53
326.0
 43
8688.945864523427
 44
-741.8413366437944
 45
12.16576659607908
 46
36.25750225234265
 79
     2
 49
3.0
 49
-33.0
 53
71.45140000000001
 43
8691.432976173427
 44
-743.5189169437944
 45
42.01113142907449
 46
16.12652483549762
 79
     2
 49
3.1870095
 49
-35.0571056
 53
37.5
 43
8683.945864523426
 44
-749.3413366437944
 45
0.6079927658645335
 46
16.64469269156557
 79
     6
 49
0.0
 49
-32.6
 49
0.0
 49
-33.5
 49
0.0
 49
-33.125
 53
7.499999999999999
 43
8683.945864523426
 44
-749.3413366437944
 45
13.15347687210743
 46
19.72058559411801
 79
     6
 49
0.0
 49
-19.1
 49
0.0
 49
-31.85
 49
0.0
 49
-12.625
 53
327.5
 43
8672.795864523425
 44
-749.3413366437944
 45
26.69112180862045
 46
-1.127743586718989
 79
     6
 49
0.0
 49
-12.5
 49
0.0
 49
-39.0
 49
0.0
 49
-51.75
 53
317.5
 43
8667.795864523425
 44
-749.3413366437944
 45
29.15930846711931
 46
5.005249116615882
 79
     6
 49
0.0
 49
-16.25
 49
0.0
 49
-25.9
 49
0.0
 49
-36.75
 47
1.279024448006342
 98
        1
 10
8995.635720079119
 20
-738.5390895885048
1001
ACAD
1010
1531.762147479292
1020
-12454.32868679658
1030
0.0
  0
HATCH
  5
1A5EB
330
1F
100
AcDbEntity
  8
Miscellaneous
 62
    21
100
AcDbHatch
 10
0.0
 20
0.0
 30
0.0
210
0.0
220
0.0
230
1.0
  2
SOLID
 70
     1
 71
     0
 91
        1
 92
        7
 72
     0
 73
     1
 93
        4
 10
8834.027733235506
 20
-713.2500340392689
 10
8684.050578962049
 20
-710.6321730736762
 10
8683.945864523426
 20
-716.6312592446138
 10
8833.923018796884
 20
-719.2491202102046
 97
        0
 75
     0
 76
     1
 47
0.5539517824613553
 98
        1
 10
8819.47008227395
 20
-714.8882460779332
450
        0
451
        0
460
0.0
461
0.0
452
        1
462
1.0
453
        2
463
0.0
 63
     8
421
  8421504
463
1.0
 63
     7
421
 16777215
470
CYLINDER
1001
ACAD
1010
1531.762147479292
1020
-12424.23647036299
1030
0.0
  0
LINE
  5
1A5EC
330
1F
100
AcDbEntity
  8
Miscellaneous
 62
     7
100
AcDbLine
 10
8683.945864523426
 20
-716.631259244612
 30
0.0
 11
8833.923018796884
 21
-719.2491202102046
 31
0.0
  0
HATCH
  5
1A5ED
330
1F
100
AcDbEntity
  8
Miscellaneous
 62
    21
100
AcDbHatch
 10
0.0
 20
0.0
 30
0.0
210
0.0
220
0.0
230
1.0
  2
SOLID
 70
     1
 71
     0
 91
        1
 92
        7
 72
     0
 73
     1
 93
        4
 10
8987.004430594437
 20
-715.9202522241703
 10
8837.027276320975
 20
-713.3023912585777
 10
8836.922561882353
 20
-719.301477429517
 10
8986.899716155811
 20
-721.9193383951078
 97
        0
 75
     0
 76
     1
 47
0.5539517824613553
 98
        1
 10
8936.963145259422
 20
-719.8738147129461
450
        0
451
        0
460
0.0
461
0.0
452
        1
462
1.0
453
        2
463
0.0
 63
     8
421
  8421504
463
1.0
 63
     7
421
 16777215
470
CYLINDER
1001
ACAD
1010
1684.73884483822
1020
-12426.90668854789
1030
0.0
  0
LINE
  5
1A5EE
330
1F
100
AcDbEntity
  8
Miscellaneous
 62
     7
100
AcDbLine
 10
8836.922561882353
 20
-719.3014774295152
 30
0.0
 11
8986.899716155811
 21
-721.9193383951096
 31
0.0
  0
HATCH
  5
1A5EF
330
1F
100
AcDbEntity
  8
Miscellaneous
 62
    21
100
AcDbHatch
 10
0.0
 20
0.0
 30
0.0
210
0.0
220
0.0
230
1.0
  2
SOLID
 70
     1
 71
     0
 91
        1
 92
        7
 72
     0
 73
     1
 93
        4
 10
9139.981127953364
 20
-718.5904704090789
 10
8990.003973679904
 20
-715.9726094434845
 10
8989.899259241282
 20
-721.971695614422
 10
9139.876413514739
 20
-724.5895565800147
 97
        0
 75
     0
 76
     1
 47
0.5539517824613553
 98
        1
 10
9072.19101547237
 20
-719.8738147129461
450
        0
451
        0
460
0.0
461
0.0
452
        1
462
1.0
453
        2
463
0.0
 63
     8
421
  8421504
463
1.0
 63
     7
421
 16777215
470
CYLINDER
1001
ACAD
1010
1837.715542197148
1020
-12429.5769067328
1030
0.0
  0
LINE
  5
1A5F0
330
1F
100
AcDbEntity
  8
Miscellaneous
 62
     7
100
AcDbLine
 10
8989.899259241282
 20
-721.971695614422
 30
0.0
 11
9139.876413514739
 21
-724.5895565800147
 31
0.0
  0
HATCH
  5
1A5F1
330
1F
100
AcDbEntity
  8
Miscellaneous
 62
    21
100
AcDbHatch
 10
0.0
 20
0.0
 30
0.0
210
0.0
220
0.0
230
1.0
  2
SOLID
 70
     1
 71
     0
 91
        1
 92
        7
 72
     0
 73
     1
 93
        4
 10
9154.945864523424
 20
-718.8516808575368
 10
9142.980671038833
 20
-718.6428276283895
 10
9142.875956600208
 20
-724.6419137993289
 10
9154.945864523426
 20
-724.8525948258011
 97
        0
 75
     0
 76
     1
 47
0.5539517824613553
 98
        1
 10
9149.7807854604
 20
-721.5356709246171
450
        0
451
        0
460
0.0
461
0.0
452
        1
462
1.0
453
        2
463
0.0
 63
     8
421
  8421504
463
1.0
 63
     7
421
 16777215
470
CYLINDER
1001
ACAD
1010
1990.692239556076
1020
-12429.83994497858
1030
0.0
  0
LINE
  5
1A5F2
330
1F
100
AcDbEntity
  8
Miscellaneous
 62
     7
100
AcDbLine
 10
9142.875956600208
 20
-724.6419137993271
 30
0.0
 11
9154.945864523426
 21
-724.8525948258047
 31
0.0
  0
LINE
  5
1A5F3
330
1F
100
AcDbEntity
  8
Miscellaneous
 62
     7
100
AcDbLine
 10
8684.050578962049
 20
-710.6321730736745
 30
0.0
 11
8834.027733235506
 21
-713.2500340392689
 31
0.0
  0
LINE
  5
1A5F4
330
1F
100
AcDbEntity
  8
Miscellaneous
 62
     7
100
AcDbLine
 10
8837.027276320979
 20
-713.3023912585795
 30
0.0
 11
8987.004430594437
 21
-715.9202522241721
 31
0.0
  0
LINE
  5
1A5F5
330
1F
100
AcDbEntity
  8
Miscellaneous
 62
     7
100
AcDbLine
 10
8990.003973679904
 20
-715.9726094434845
 30
0.0
 11
9139.981127953364
 21
-718.5904704090772
 31
0.0
  0
LINE
  5
1A5F6
330
1F
100
AcDbEntity
  8
Miscellaneous
 62
     7
100
AcDbLine
 10
9142.980671038833
 20
-718.6428276283895
 30
0.0
 11
9154.945864523424
 21
-718.8516808575386
 31
0.0
  0
LWPOLYLINE
  5
1A5F8
330
1F
100
AcDbEntity
  8
Timber
100
AcDbPolyline
 90
        4
 70
     1
 43
0.5
 10
8727.945864523427
 20
-946.3413366437944
 10
8682.945864523427
 20
-946.3413366437944
 10
8682.945864523427
 20
-766.3413366437944
 10
8727.945864523427
 20
-766.3413366437944
  0
LINE
  5
1A603
102
{ACAD_REACTORS
330
1A6A7
102
}
330
1F
100
AcDbEntity
  8
Hebel
100
AcDbLine
 10
8682.945864523427
 20
-766.3413366437944
 30
0.0
 11
8682.945864523427
 21
-691.3413366437944
 31
0.0
  0
LINE
  5
1A604
330
1F
100
AcDbEntity
  8
Lining
 62
     1
370
    70
100
AcDbLine
 10
8683.945864523426
 20
-738.5913441145476
 30
0.0
 11
8683.945864523426
 21
-691.0913366437944
 31
0.0
  0
ARC
  5
1A605
330
1F
100
AcDbEntity
  8
Lining
 62
     1
370
    70
100
AcDbCircle
 10
8683.195864523426
 20
-691.0913366437944
 30
0.0
 40
0.75
100
AcDbArc
 50
0.0
 51
90.0
  0
ARC
  5
1A606
330
1F
100
AcDbEntity
  8
Lining
 62
     1
370
    70
100
AcDbCircle
 10
8684.695864523426
 20
-738.5913441145476
 30
0.0
 40
0.75
100
AcDbArc
 50
180.0
 51
270.0
  0
LINE
  5
1A607
102
{ACAD_REACTORS
330
1A6A7
102
}
330
1F
100
AcDbEntity
  8
Hebel
100
AcDbLine
 10
8262.161184993606
 20
-766.3413366437944
 30
0.0
 11
8682.945864523427
 21
-766.3413366437944
 31
0.0
  0
LINE
  5
1A608
102
{ACAD_REACTORS
330
1A6A7
102
}
330
1F
100
AcDbEntity
  8
Hebel
100
AcDbLine
 10
8262.161184993606
 20
-691.3413366437972
 30
0.0
 11
8682.945864523427
 21
-691.3413366437944
 31
0.0
  0
LINE
  5
1A609
330
1F
100
AcDbEntity
  8
Lining
 62
     1
370
    70
100
AcDbLine
 10
8632.945864523426
 20
-690.3413366437944
 30
0.0
 11
8683.195864523426
 21
-690.3413366437944
 31
0.0
  0
LINE
  5
1A60A
330
1F
100
AcDbEntity
  8
Miscellaneous
 62
     5
370
    50
100
AcDbLine
 10
8632.945864523426
 20
-689.3413366437926
 30
0.0
 11
8682.945864523427
 21
-689.3413366437944
 31
0.0
  0
LINE
  5
1A60B
102
{ACAD_REACTORS
330
1A6A2
330
1A6A7
330
1A7B1
102
}
330
1F
100
AcDbEntity
  8
DEFPOINTS
100
AcDbLine
 10
8262.161184993606
 20
-670.3413366437962
 30
0.0
 11
8262.161184993606
 21
-766.3413366437944
 31
0.0
  0
LWPOLYLINE
  5
1A60D
330
1F
100
AcDbEntity
  8
Timber
100
AcDbPolyline
 90
        4
 70
     1
 43
0.5
 10
8682.945864523427
 20
-946.3413366437944
 10
8637.945864523427
 20
-946.3413366437944
 10
8637.945864523427
 20
-766.3413366437944
 10
8682.945864523427
 20
-766.3413366437944
  0
HATCH
  5
1A617
330
1F
100
AcDbEntity
  8
Fastenings and sealants
100
AcDbHatch
 10
0.0
 20
0.0
 30
0.0
210
0.0
220
0.0
230
1.0
  2
ANSI31
 70
     0
 71
     0
 91
        1
 92
        7
 72
     1
 73
     1
 93
        2
 10
8692.945857052668
 20
-745.3413403791728
 42
1.0
 10
8682.945864523423
 20
-745.3413403791728
 42
1.0
 97
        0
 75
     0
 76
     1
 52
90.0
 41
10.0
 77
     0
 78
     1
 53
135.0
 43
8682.945864523423
 44
-745.3413403791728
 45
-0.8838834764831844
 46
-0.8838834764831842
 79
     0
 47
0.1087817272527654
 98
        1
 10
8691.048491528713
 20
-746.136708062424
1001
ACAD
1010
-525.1880141481877
1020
-12426.89292368621
1030
0.0
  0
CIRCLE
  5
1A618
330
1F
100
AcDbEntity
  8
Fastenings and sealants
100
AcDbCircle
 10
8687.945860788047
 20
-745.3413403791728
 30
0.0
 40
4.99999626462299
  0
HATCH
  5
1A619
330
1F
100
AcDbEntity
  8
Fastenings and sealants
100
AcDbHatch
 10
0.0
 20
0.0
 30
0.0
210
0.0
220
0.0
230
1.0
  2
ANSI31
 70
     0
 71
     0
 91
        1
 92
        7
 72
     1
 73
     1
 93
        2
 10
9672.94587199418
 20
-745.3413403791728
 42
-1.0
 10
9682.945864523427
 20
-745.3413403791728
 42
-1.0
 97
        0
 75
     0
 76
     1
 52
90.0
 41
10.0
 77
     0
 78
     1
 53
45.0
 43
9682.945864523427
 44
-745.3413403791728
 45
0.8838834764831844
 46
-0.8838834764831842
 79
     0
 47
0.1087817272527654
 98
        1
 10
9674.843237518137
 20
-746.136708062424
1001
ACAD
1010
-525.1880141481877
1020
-12426.89292368621
1030
0.0
  0
CIRCLE
  5
1A61A
330
1F
100
AcDbEntity
  8
Fastenings and sealants
100
AcDbCircle
 10
9677.945868258802
 20
-745.3413403791728
 30
0.0
 40
4.99999626462299
  0
HATCH
  5
1A61B
330
1F
100
AcDbEntity
  8
Concrete
100
AcDbHatch
 10
0.0
 20
0.0
 30
0.0
210
0.0
220
0.0
230
1.0
  2
AR-CONC
 70
     0
 71
     0
 91
        1
 92
        1
 93
        9
 72
     1
 10
9210.945864523427
 20
-724.8525948258065
 11
9210.945864523427
 21
-749.3413366437907
 72
     1
 10
9210.945864523427
 20
-749.3413366437907
 11
9671.195871994182
 21
-749.341336643789
 72
     2
 10
9671.195871994179
 20
-748.5913366437889
 40
0.7499999999999999
 50
270.0
 51
359.9999999995831
 73
     1
 72
     1
 10
9671.94587199418
 20
-748.5913366437944
 11
9671.94587199418
 21
-745.3413403791728
 72
     2
 10
9677.945868258804
 20
-745.341340379171
 40
5.999996264623177
 50
179.9999999999826
 51
269.9999999999957
 73
     0
 72
     1
 10
9677.945868258802
 20
-739.3413441145476
 11
9681.195864523424
 21
-739.3413441145476
 72
     2
 10
9681.195864523427
 20
-738.5913441145476
 40
0.75
 50
270.0
 51
360.0
 73
     1
 72
     1
 10
9681.945864523427
 20
-738.5913441145476
 11
9681.945864523427
 21
-716.631259244612
 72
     1
 10
9681.945864523425
 20
-716.631259244612
 11
9210.945864523424
 21
-724.8525948258065
 97
        0
 75
     0
 76
     1
 52
0.0
 41
5.0
 77
     0
 78
    13
 53
50.0
 43
9207.945864523427
 44
-749.3413366437907
 45
35.86300913003768
 46
-3.137606749129755
 79
     2
 49
3.75
 49
-41.25
 53
355.0
 43
9207.945864523427
 44
-749.3413366437907
 45
-6.93756668065
 46
37.6096066850006
 79
     2
 49
3.0
 49
-33.0
 53
100.4514
 43
9210.934448523424
 44
-749.602803643791
 45
28.92546908570108
 46
34.47197710304768
 79
     2
 49
3.187009499999999
 49
-35.05710559999999
 53
46.1842
 43
9207.945864523427
 44
-739.3413366437908
 45
53.36205243128222
 46
-8.275950716450903
 79
     2
 49
5.625
 49
-61.875
 53
96.6356
 43
9212.392701773426
 44
-740.0310019937915
 45
46.73313527743516
 46
48.70589354502208
 79
     2
 49
4.780514399999999
 49
-52.58565
 53
351.1842000000001
 43
9207.945864523427
 44
-739.3413366437908
 45
46.73309725668135
 46
48.70593004626623
 79
     2
 49
4.5
 49
-49.5
 53
21.0
 43
9212.945864523426
 44
-741.8413366437907
 45
29.84535260592308
 46
-20.13094453326694
 79
     2
 49
3.75
 49
-41.25
 53
326.0
 43
9212.945864523426
 44
-741.8413366437907
 45
12.16576659607908
 46
36.25750225234265
 79
     2
 49
3.0
 49
-33.0
 53
71.45140000000001
 43
9215.432976173426
 44
-743.5189169437908
 45
42.01113142907449
 46
16.12652483549762
 79
     2
 49
3.1870095
 49
-35.0571056
 53
37.5
 43
9207.945864523427
 44
-749.3413366437907
 45
0.6079927658645335
 46
16.64469269156557
 79
     6
 49
0.0
 49
-32.6
 49
0.0
 49
-33.5
 49
0.0
 49
-33.125
 53
7.499999999999999
 43
9207.945864523427
 44
-749.3413366437907
 45
13.15347687210743
 46
19.72058559411801
 79
     6
 49
0.0
 49
-19.1
 49
0.0
 49
-31.85
 49
0.0
 49
-12.625
 53
327.5
 43
9196.795864523425
 44
-749.3413366437907
 45
26.69112180862045
 46
-1.127743586718989
 79
     6
 49
0.0
 49
-12.5
 49
0.0
 49
-39.0
 49
0.0
 49
-51.75
 53
317.5
 43
9191.795864523426
 44
-749.3413366437907
 45
29.15930846711931
 46
5.005249116615882
 79
     6
 49
0.0
 49
-16.25
 49
0.0
 49
-25.9
 49
0.0
 49
-36.75
 98
        1
 10
9497.249315226929
 20
-734.702017559428
1001
ACAD
1010
2055.762147479292
1020
-12454.32868679657
1030
0.0
  0
LINE
  5
1A61C
330
1F
100
AcDbEntity
  8
Lining
 62
     1
370
    70
100
AcDbLine
 10
9671.195871994179
 20
-749.341336643789
 30
0.0
 11
9210.695864523426
 21
-749.3413366437907
 31
0.0
  0
LINE
  5
1A61D
330
1F
100
AcDbEntity
  8
Lining
 62
     1
370
    70
100
AcDbLine
 10
9155.195864523426
 20
-749.3413366437907
 30
0.0
 11
8694.69585705267
 21
-749.3413366437944
 31
0.0
  0
ARC
  5
1A61E
330
1F
100
AcDbEntity
  8
Lining
 62
     1
370
    70
100
AcDbCircle
 10
8687.945860788047
 20
-745.3413403791728
 30
0.0
 40
5.99999626462299
100
AcDbArc
 50
0.0
 51
90.0
  0
LINE
  5
1A61F
330
1F
100
AcDbEntity
  8
Lining
 62
     1
370
    70
100
AcDbLine
 10
8693.945857052669
 20
-745.3413403791728
 30
0.0
 11
8693.945857052669
 21
-748.5913366437944
 31
0.0
  0
ARC
  5
1A620
330
1F
100
AcDbEntity
  8
Lining
 62
     1
370
    70
100
AcDbCircle
 10
8694.69585705267
 20
-748.5913366437944
 30
0.0
 40
0.75
100
AcDbArc
 50
180.0
 51
270.0
  0
LINE
  5
1A621
330
1F
100
AcDbEntity
  8
Lining
 62
     1
370
    70
100
AcDbLine
 10
8684.695864523426
 20
-739.3413441145476
 30
0.0
 11
8687.945860788047
 21
-739.3413441145476
 31
0.0
  0
LINE
  5
1A622
330
1F
100
AcDbEntity
  8
Lining
 62
     1
370
    70
100
AcDbLine
 10
9681.945864523427
 20
-738.5913441145476
 30
0.0
 11
9681.945864523427
 21
-646.2411678451408
 31
0.0
  0
ARC
  5
1A623
330
1F
100
AcDbEntity
  8
Lining
 62
     1
370
    70
100
AcDbCircle
 10
9681.195864523427
 20
-738.5913441145476
 30
0.0
 40
0.75
100
AcDbArc
 50
270.0
 51
0.0
  0
ARC
  5
1A624
330
1F
100
AcDbEntity
  8
Lining
 62
     1
370
    70
100
AcDbCircle
 10
9677.945868258802
 20
-745.3413403791728
 30
0.0
 40
5.99999626462299
100
AcDbArc
 50
90.0
 51
180.0
  0
LINE
  5
1A625
330
1F
100
AcDbEntity
  8
Lining
 62
     1
370
    70
100
AcDbLine
 10
9671.94587199418
 20
-745.3413403791728
 30
0.0
 11
9671.94587199418
 21
-748.5913366437944
 31
0.0
  0
ARC
  5
1A626
330
1F
100
AcDbEntity
  8
Lining
 62
     1
370
    70
100
AcDbCircle
 10
9671.195871994179
 20
-748.5913366437944
 30
0.0
 40
0.75
100
AcDbArc
 50
270.0
 51
0.0
  0
LINE
  5
1A627
330
1F
100
AcDbEntity
  8
Lining
 62
     1
370
    70
100
AcDbLine
 10
9681.195864523427
 20
-739.3413441145476
 30
0.0
 11
9677.945868258802
 21
-739.3413441145476
 31
0.0
  0
HATCH
  5
1A628
330
1F
100
AcDbEntity
  8
Concrete
100
AcDbHatch
 10
0.0
 20
0.0
 30
0.0
210
0.0
220
0.0
230
1.0
  2
SOLID
 70
     1
 71
     0
 91
        2
 92
        7
 72
     0
 73
     1
 93
        5
 10
9210.945864523427
 20
-724.8525948258047
 10
9210.945864523427
 20
-718.8516808575404
 10
9182.945864523423
 20
-718.8516808575386
 10
9182.945864523423
 20
-749.3413366437907
 10
9210.945864523427
 20
-749.3413366437907
 97
        0
 92
        7
 72
     0
 73
     1
 93
        5
 10
9182.945864523423
 20
-718.8516808575404
 10
9154.945864523424
 20
-718.8516808575386
 10
9154.945864523426
 20
-724.9049600205889
 10
9154.945864523426
 20
-749.3413366437907
 10
9182.945864523423
 20
-749.3413366437907
 97
        0
 75
     0
 76
     1
 47
0.8913222904841177
 98
        2
 10
9203.537432306097
 20
-737.318293306378
 10
9173.21822533683
 20
-732.8616793434102
450
        1
451
        0
460
0.0
461
0.0
452
        1
462
1.0
453
        2
463
0.0
 63
     8
421
  8421504
463
1.0
 63
     7
421
 16777215
470
CYLINDER
1001
ACAD
1010
2633.161058266719
1020
-12454.32868679658
1030
0.0
  0
LINE
  5
1A629
330
1F
100
AcDbEntity
  8
Concrete
100
AcDbLine
 10
9154.945864523426
 20
-724.9049600205889
 30
0.0
 11
9154.945864523426
 21
-766.3413366437944
 31
0.0
  0
HATCH
  5
1A62A
330
1F
100
AcDbEntity
  8
Lining
100
AcDbHatch
 10
0.0
 20
0.0
 30
0.0
210
0.0
220
0.0
230
1.0
  2
SOLID
 70
     1
 71
     0
 91
        2
 92
        7
 72
     1
 73
     1
 93
        5
 10
9209.945864523426
 20
-750.0913366437908
 42
-0.4142135623730951
 10
9210.695864523426
 20
-749.3413366437907
 42
0.0
 10
9182.945864523423
 20
-749.3413366437907
 42
0.0
 10
9182.945864523423
 20
-946.3413366437944
 42
0.0
 10
9209.945864523426
 20
-946.3413366437944
 42
0.0
 97
        0
 92
        7
 72
     1
 73
     1
 93
        5
 10
9182.945864523423
 20
-749.3413366437907
 42
0.0
 10
9155.195864523426
 20
-749.3413366437907
 42
-0.4142135623730966
 10
9155.945864523426
 20
-750.0913366437908
 42
0.0
 10
9155.945864523426
 20
-946.3413366437944
 42
0.0
 10
9182.945864523423
 20
-946.3413366437944
 42
0.0
 97
        0
 75
     0
 76
     1
 47
0.5051923806151343
 98
        2
 10
9192.173156108685
 20
-806.0207728209261
 10
9174.988551409988
 20
-807.5363502097115
450
        1
451
        0
460
0.0
461
0.0
452
        1
462
1.0
453
        2
463
0.0
 63
     1
421
 16711680
463
1.0
 63
     7
421
 16777215
470
CYLINDER
1001
ACAD
1010
2633.41105826672
1020
-12651.32868679658
1030
0.0
  0
LINE
  5
1A62B
330
1F
100
AcDbEntity
  8
Lining
 62
     1
370
    70
100
AcDbLine
 10
9155.945864523426
 20
-750.0913366437908
 30
0.0
 11
9155.945864523426
 21
-946.3413366437944
 31
0.0
  0
ARC
  5
1A62C
330
1F
100
AcDbEntity
  8
Lining
 62
     1
370
    70
100
AcDbCircle
 10
9155.195864523426
 20
-750.0913366437908
 30
0.0
 40
0.75
100
AcDbArc
 50
0.0
 51
90.0
  0
LINE
  5
1A62D
330
1F
100
AcDbEntity
  8
Concrete
100
AcDbLine
 10
9210.945864523427
 20
-724.8525948258047
 30
0.0
 11
9210.945864523427
 21
-766.3413366437944
 31
0.0
  0
LINE
  5
1A62E
330
1F
100
AcDbEntity
  8
Lining
 62
     1
370
    70
100
AcDbLine
 10
9209.945864523426
 20
-750.0913366437908
 30
0.0
 11
9209.945864523426
 21
-946.3413366437944
 31
0.0
  0
ARC
  5
1A62F
330
1F
100
AcDbEntity
  8
Lining
 62
     1
370
    70
100
AcDbCircle
 10
9210.695864523426
 20
-750.0913366437908
 30
0.0
 40
0.75
100
AcDbArc
 50
90.0
 51
180.0
  0
LWPOLYLINE
  5
1A631
330
1F
100
AcDbEntity
  8
Timber
100
AcDbPolyline
 90
        4
 70
     1
 43
0.5
 10
9210.945864523427
 20
-946.3413366437944
 10
9255.945864523425
 20
-946.3413366437944
 10
9255.945864523425
 20
-766.3413366437944
 10
9210.945864523427
 20
-766.3413366437944
  0
LWPOLYLINE
  5
1A63C
330
1F
100
AcDbEntity
  8
Timber
100
AcDbPolyline
 90
        4
 70
     1
 43
0.5
 10
9109.945864523426
 20
-946.3413366437944
 10
9154.945864523426
 20
-946.3413366437944
 10
9154.945864523426
 20
-766.3413366437944
 10
9109.945864523426
 20
-766.3413366437944
  0
INSERT
  5
1A647
102
{ACAD_REACTORS
330
1A937
102
}
330
1F
100
AcDbEntity
  8
Timber
100
AcDbBlockReference
  2
100 x 50 dry
 10
9772.945864523427
 20
-646.3413366437944
 30
0.0
 41
-1.0
 50
90.0
  0
LINE
  5
1A648
330
1F
100
AcDbEntity
  8
Timber
100
AcDbLine
 10
9772.945864523427
 20
-646.3413366437944
 30
0.0
 11
9772.945864523427
 21
-550.7607614644257
 31
0.0
  0
LINE
  5
1A649
330
1F
100
AcDbEntity
  8
Timber
100
AcDbLine
 10
9682.945864523427
 20
-646.3413366437944
 30
0.0
 11
9682.945864523427
 21
-554.5121289204871
 31
0.0
  0
LINE
  5
1A64A
102
{ACAD_REACTORS
330
1A5C9
330
1A683
102
}
330
1F
100
AcDbEntity
  8
DEFPOINTS
100
AcDbLine
 10
9670.945864523426
 20
-555.0123112479614
 30
0.0
 11
9782.945864523426
 21
-550.3439428581969
 31
0.0
  0
SPLINE
  5
1A64B
330
1F
100
AcDbEntity
  8
Timber Hatch
100
AcDbSpline
210
0.0
220
0.0
230
1.0
 70
     8
 71
     3
 72
    11
 73
     7
 74
     0
 42
0.000000001
 43
0.0000000001
 40
3.712450405477365
 40
3.712450405477365
 40
3.712450405477365
 40
3.712450405477365
 40
28.00650816451932
 40
59.00008038932256
 40
84.85880375036257
 40
97.01767558015392
 40
97.01767558015392
 40
97.01767558015392
 40
97.01767558015392
 10
9700.243870879319
 20
-646.3413366437944
 30
0.0
 10
9697.999390992707
 20
-638.445440002788
 30
0.0
 10
9693.434797864313
 20
-620.4391525335431
 30
0.0
 10
9700.425939687612
 20
-593.0772168392141
 30
0.0
 10
9691.746582134541
 20
-570.604100234852
 30
0.0
 10
9692.948474313523
 20
-558.079482020943
 30
0.0
 10
9693.637643259384
 20
-554.0664756894057
 30
0.0
  0
SPLINE
  5
1A64C
330
1F
100
AcDbEntity
  8
Timber Hatch
100
AcDbSpline
210
0.0
220
0.0
230
1.0
 70
     8
 71
     3
 72
    12
 73
     8
 74
     0
 42
0.000000001
 43
0.0000000001
 40
5.374745953402922
 40
5.374745953402922
 40
5.374745953402922
 40
5.374745953402922
 40
29.56177034903499
 40
48.09699066811049
 40
72.69042160271488
 40
93.75648364025602
 40
99.41107827393084
 40
99.41107827393084
 40
99.41107827393084
 40
99.41107827393084
 10
9715.598306390406
 20
-646.3413366437907
 30
0.0
 10
9713.113889301768
 20
-638.659782151426
 30
0.0
 10
9708.992101215251
 20
-625.021181412807
 30
0.0
 10
9706.577191860132
 20
-602.4530201054185
 30
0.0
 10
9712.200427073312
 20
-581.2448112858619
 30
0.0
 10
9708.042899140203
 20
-564.2039774028526
 30
0.0
 10
9708.264547289465
 20
-555.3297880379869
 30
0.0
 10
9708.383874293035
 20
-553.4518253427486
 30
0.0
  0
SPLINE
  5
1A64D
330
1F
100
AcDbEntity
  8
Timber Hatch
100
AcDbSpline
210
0.0
220
0.0
230
1.0
 70
     8
 71
     3
 72
    12
 73
     8
 74
     0
 42
0.000000001
 43
0.0000000001
 40
4.702319514453479
 40
4.702319514453479
 40
4.702319514453479
 40
4.702319514453479
 40
26.35058185144674
 40
52.88988348220462
 40
72.36438966697822
 40
90.540252681515
 40
101.6755738704433
 40
101.6755738704433
 40
101.6755738704433
 40
101.6755738704433
 10
9727.689868627997
 20
-646.3413366437944
 30
0.0
 10
9725.360007666919
 20
-639.2535986964303
 30
0.0
 10
9721.363109527237
 20
-623.4523759484873
 30
0.0
 10
9736.579524582813
 20
-600.8379186109505
 30
0.0
 10
9717.841738826511
 20
-581.706819443918
 30
0.0
 10
9729.277946877534
 20
-565.8861655273703
 30
0.0
 10
9727.908993569499
 20
-556.3196630403508
 30
0.0
 10
9726.865851007952
 20
-552.6814621652774
 30
0.0
  0
SPLINE
  5
1A64E
330
1F
100
AcDbEntity
  8
Timber Hatch
100
AcDbSpline
210
0.0
220
0.0
230
1.0
 70
     8
 71
     3
 72
    12
 73
     8
 74
     0
 42
0.000000001
 43
0.0000000001
 40
2.614615241131994
 40
2.614615241131994
 40
2.614615241131994
 40
2.614615241131994
 40
27.46667689547404
 40
49.0818741704083
 40
74.12728742035072
 40
91.94960687306739
 40
97.89444819082508
 40
97.89444819082508
 40
97.89444819082508
 40
97.89444819082508
 10
9742.157240717268
 20
-646.3413366437944
 30
0.0
 10
9741.881713327313
 20
-638.0393497648274
 30
0.0
 10
9741.578206680555
 20
-622.5262739825011
 30
0.0
 10
9747.50937123867
 20
-598.9420874664938
 30
0.0
 10
9740.100836385302
 20
-577.3919916748964
 30
0.0
 10
9747.752163957549
 20
-561.3643811894908
 30
0.0
 10
9746.371332275955
 20
-553.7797175166033
 30
0.0
 10
9745.823242997389
 20
-551.8912827946041
 30
0.0
  0
SPLINE
  5
1A64F
330
1F
100
AcDbEntity
  8
Timber Hatch
100
AcDbSpline
210
0.0
220
0.0
230
1.0
 70
     8
 71
     3
 72
    12
 73
     8
 74
     0
 42
0.000000001
 43
0.0000000001
 40
2.124827550925981
 40
2.124827550925981
 40
2.124827550925981
 40
2.124827550925981
 40
25.01051623960835
 40
46.12983004408158
 40
65.51996401113626
 40
87.13516128607052
 40
98.00265392732852
 40
98.00265392732852
 40
98.00265392732852
 40
98.00265392732852
 10
9758.252485268792
 20
-646.3413366437944
 30
0.0
 10
9758.330945528989
 20
-638.7261949875155
 30
0.0
 10
9758.655365897874
 20
-624.0837984514837
 30
0.0
 10
9764.781605298139
 20
-602.9937253585776
 30
0.0
 10
9755.436967088957
 20
-582.93167818877
 30
0.0
 10
9761.554649874007
 20
-565.6241476644863
 30
0.0
 10
9760.66047116954
 20
-554.8841573786558
 30
0.0
 10
9760.091642718776
 20
-551.2965493461033
 30
0.0
  0
LINE
  5
1A650
330
1F
100
AcDbEntity
  8
Lining
100
AcDbLine
 10
9670.945864523426
 20
-700.8232649588244
 30
0.0
 11
9670.945864523426
 21
-555.0123112479614
 31
0.0
  0
LINE
  5
1A651
330
1F
100
AcDbEntity
  8
Lining
100
AcDbLine
 10
9670.945864523426
 20
-700.8232649588226
 30
0.0
 11
9680.945864523426
 21
-700.8232649588226
 31
0.0
  0
LINE
  5
1A652
330
1F
100
AcDbEntity
  8
Lining
100
AcDbLine
 10
9680.945864523426
 20
-700.8232649588244
 30
0.0
 11
9680.945864523426
 21
-689.3413366437944
 31
0.0
  0
LINE
  5
1A653
330
1F
100
AcDbEntity
  8
Miscellaneous
 62
     7
100
AcDbLine
 10
8683.945864523426
 20
-716.631259244612
 30
0.0
 11
8684.050578962049
 21
-710.6321730736745
 31
0.0
  0
LINE
  5
1A654
330
1F
100
AcDbEntity
  8
Miscellaneous
 62
     7
100
AcDbLine
 10
8833.923018796884
 20
-719.24912021021
 30
0.0
 11
8834.027733235506
 21
-713.2500340392725
 31
0.0
  0
LINE
  5
1A655
330
1F
100
AcDbEntity
  8
Miscellaneous
 62
     7
100
AcDbLine
 10
8836.922561882353
 20
-719.3014774295225
 30
0.0
 11
8837.027276320975
 21
-713.302391258585
 31
0.0
  0
LINE
  5
1A656
330
1F
100
AcDbEntity
  8
Miscellaneous
 62
     7
100
AcDbLine
 10
8986.899716155811
 20
-721.9193383951151
 30
0.0
 11
8987.004430594437
 21
-715.9202522241776
 31
0.0
  0
LINE
  5
1A657
330
1F
100
AcDbEntity
  8
Miscellaneous
 62
     7
100
AcDbLine
 10
8989.899259241282
 20
-721.9716956144274
 30
0.0
 11
8990.003973679904
 21
-715.9726094434899
 31
0.0
  0
LINE
  5
1A658
330
1F
100
AcDbEntity
  8
Miscellaneous
 62
     7
100
AcDbLine
 10
9139.876413514739
 20
-724.5895565800201
 30
0.0
 11
9139.981127953364
 21
-718.5904704090826
 31
0.0
  0
LINE
  5
1A659
330
1F
100
AcDbEntity
  8
Miscellaneous
 62
     7
100
AcDbLine
 10
9142.875956600208
 20
-724.6419137993325
 30
0.0
 11
9142.980671038833
 21
-718.642827628395
 31
0.0
  0
LINE
  5
1A65A
330
1F
100
AcDbEntity
  8
Miscellaneous
 62
     7
100
AcDbLine
 10
9154.945864523426
 20
-724.9049600205889
 30
0.0
 11
9154.945864523424
 21
-718.8516808575386
 31
0.0
  0
ARC
  5
1A65B
330
1F
100
AcDbEntity
  8
Concrete
100
AcDbCircle
 10
9141.520779243609
 20
-716.3319398143085
 30
0.0
 40
2.73340200904623
100
AcDbArc
 50
235.7175554922775
 51
302.2824445074812
  0
ARC
  5
1A65C
330
1F
100
AcDbEntity
  8
Concrete
100
AcDbCircle
 10
8988.544081884674
 20
-713.6617216294089
 30
0.0
 40
2.73340200904623
100
AcDbArc
 50
235.7175554922775
 51
302.2824445074812
  0
ARC
  5
1A65D
330
1F
100
AcDbEntity
  8
Concrete
100
AcDbCircle
 10
8835.567384525743
 20
-710.9915034445038
 30
0.0
 40
2.73340200904623
100
AcDbArc
 50
235.7175554922775
 51
302.2824445074812
  0
HATCH
  5
1A65E
330
1F
100
AcDbEntity
  8
Miscellaneous
 62
    21
100
AcDbHatch
 10
0.0
 20
0.0
 30
0.0
210
0.0
220
0.0
230
1.0
  2
SOLID
 70
     1
 71
     0
 91
        1
 92
        7
 72
     0
 73
     1
 93
        4
 10
9681.841150084801
 20
-710.6321730736726
 10
9531.863995811342
 20
-713.2500340392689
 10
9531.968710249968
 20
-719.2491202102046
 10
9681.945864523427
 20
-716.631259244612
 97
        0
 75
     0
 76
     1
 47
0.6976067950596081
 98
        1
 10
9602.170704905203
 20
-714.9708620244146
450
        0
451
        0
460
0.0
461
0.0
452
        1
462
1.0
453
        2
463
0.0
 63
     8
421
  8421504
463
1.0
 63
     7
421
 16777215
470
CYLINDER
1001
ACAD
1010
2379.68027876721
1020
-12424.23647036299
1030
0.0
  0
LINE
  5
1A65F
330
1F
100
AcDbEntity
  8
Miscellaneous
 62
     7
100
AcDbLine
 10
9681.945864523427
 20
-716.631259244612
 30
0.0
 11
9531.968710249968
 21
-719.2491202102046
 31
0.0
  0
HATCH
  5
1A660
330
1F
100
AcDbEntity
  8
Miscellaneous
 62
    21
100
AcDbHatch
 10
0.0
 20
0.0
 30
0.0
210
0.0
220
0.0
230
1.0
  2
SOLID
 70
     1
 71
     0
 91
        1
 92
        7
 72
     0
 73
     1
 93
        4
 10
9528.864452725873
 20
-713.3023912585795
 10
9378.887298452415
 20
-715.9202522241703
 10
9378.992012891037
 20
-721.9193383951096
 10
9528.969167164497
 20
-719.301477429517
 97
        0
 75
     0
 76
     1
 47
0.6976067950596081
 98
        1
 10
9457.698129403597
 20
-719.1565139070316
450
        0
451
        0
460
0.0
461
0.0
452
        1
462
1.0
453
        2
463
0.0
 63
     8
421
  8421504
463
1.0
 63
     7
421
 16777215
470
CYLINDER
1001
ACAD
1010
2226.703581408282
1020
-12426.90668854789
1030
0.0
  0
LINE
  5
1A661
330
1F
100
AcDbEntity
  8
Miscellaneous
 62
     7
100
AcDbLine
 10
9528.969167164497
 20
-719.3014774295152
 30
0.0
 11
9378.992012891037
 21
-721.9193383951096
 31
0.0
  0
HATCH
  5
1A662
330
1F
100
AcDbEntity
  8
Miscellaneous
 62
    21
100
AcDbHatch
 10
0.0
 20
0.0
 30
0.0
210
0.0
220
0.0
230
1.0
  2
SOLID
 70
     1
 71
     0
 91
        1
 92
        7
 72
     0
 73
     1
 93
        4
 10
9375.887755366946
 20
-715.9726094434863
 10
9225.910601093488
 20
-718.5904704090753
 10
9226.015315532112
 20
-724.5895565800147
 10
9375.99246980557
 20
-721.9716956144202
 97
        0
 75
     0
 76
     1
 47
0.6976067950596081
 98
        1
 10
9353.007872136233
 20
-719.8541023051275
450
        0
451
        0
460
0.0
461
0.0
452
        1
462
1.0
453
        2
463
0.0
 63
     8
421
  8421504
463
1.0
 63
     7
421
 16777215
470
CYLINDER
1001
ACAD
1010
2073.726884049355
1020
-12429.5769067328
1030
0.0
  0
LINE
  5
1A663
330
1F
100
AcDbEntity
  8
Miscellaneous
 62
     7
100
AcDbLine
 10
9375.99246980557
 20
-721.971695614422
 30
0.0
 11
9226.015315532112
 21
-724.5895565800147
 31
0.0
  0
HATCH
  5
1A664
330
1F
100
AcDbEntity
  8
Miscellaneous
 62
    21
100
AcDbHatch
 10
0.0
 20
0.0
 30
0.0
210
0.0
220
0.0
230
1.0
  2
SOLID
 70
     1
 71
     0
 91
        1
 92
        7
 72
     0
 73
     1
 93
        4
 10
9222.911058008017
 20
-718.6428276283895
 10
9210.945864523427
 20
-718.8516808575404
 10
9210.945864523427
 20
-724.8525948258029
 10
9223.015772446641
 20
-724.6419137993289
 97
        0
 75
     0
 76
     1
 47
0.6976067950596081
 98
        1
 10
9219.004313055618
 20
-720.5517210767339
450
        0
451
        0
460
0.0
461
0.0
452
        1
462
1.0
453
        2
463
0.0
 63
     8
421
  8421504
463
1.0
 63
     7
421
 16777215
470
CYLINDER
1001
ACAD
1010
2058.762147479292
1020
-12429.83994497859
1030
0.0
  0
LINE
  5
1A665
330
1F
100
AcDbEntity
  8
Miscellaneous
 62
     7
100
AcDbLine
 10
9223.015772446641
 20
-724.6419137993271
 30
0.0
 11
9210.945864523427
 21
-724.8525948258047
 31
0.0
  0
LINE
  5
1A666
330
1F
100
AcDbEntity
  8
Miscellaneous
 62
     7
100
AcDbLine
 10
9681.841150084801
 20
-710.6321730736745
 30
0.0
 11
9531.863995811342
 21
-713.2500340392689
 31
0.0
  0
LINE
  5
1A667
330
1F
100
AcDbEntity
  8
Miscellaneous
 62
     7
100
AcDbLine
 10
9528.864452725873
 20
-713.3023912585795
 30
0.0
 11
9378.887298452415
 21
-715.9202522241721
 31
0.0
  0
LINE
  5
1A668
330
1F
100
AcDbEntity
  8
Miscellaneous
 62
     7
100
AcDbLine
 10
9375.887755366944
 20
-715.9726094434845
 30
0.0
 11
9225.910601093486
 21
-718.5904704090772
 31
0.0
  0
LINE
  5
1A669
330
1F
100
AcDbEntity
  8
Miscellaneous
 62
     7
100
AcDbLine
 10
9222.911058008017
 20
-718.6428276283895
 30
0.0
 11
9210.945864523427
 21
-718.8516808575404
 31
0.0
  0
LINE
  5
1A66A
330
1F
100
AcDbEntity
  8
Miscellaneous
 62
     7
100
AcDbLine
 10
9681.945864523427
 20
-716.631259244612
 30
0.0
 11
9681.841150084801
 21
-710.6321730736745
 31
0.0
  0
LINE
  5
1A66B
330
1F
100
AcDbEntity
  8
Miscellaneous
 62
     7
100
AcDbLine
 10
9531.968710249968
 20
-719.24912021021
 30
0.0
 11
9531.863995811342
 21
-713.2500340392725
 31
0.0
  0
LINE
  5
1A66C
330
1F
100
AcDbEntity
  8
Miscellaneous
 62
     7
100
AcDbLine
 10
9528.969167164497
 20
-719.3014774295225
 30
0.0
 11
9528.864452725873
 21
-713.302391258585
 31
0.0
  0
LINE
  5
1A66D
330
1F
100
AcDbEntity
  8
Miscellaneous
 62
     7
100
AcDbLine
 10
9378.992012891037
 20
-721.9193383951151
 30
0.0
 11
9378.887298452415
 21
-715.9202522241776
 31
0.0
  0
LINE
  5
1A66E
330
1F
100
AcDbEntity
  8
Miscellaneous
 62
     7
100
AcDbLine
 10
9375.99246980557
 20
-721.9716956144274
 30
0.0
 11
9375.887755366946
 21
-715.9726094434899
 31
0.0
  0
LINE
  5
1A66F
330
1F
100
AcDbEntity
  8
Miscellaneous
 62
     7
100
AcDbLine
 10
9226.015315532112
 20
-724.5895565800201
 30
0.0
 11
9225.910601093488
 21
-718.5904704090826
 31
0.0
  0
LINE
  5
1A670
330
1F
100
AcDbEntity
  8
Miscellaneous
 62
     7
100
AcDbLine
 10
9223.015772446641
 20
-724.6419137993325
 30
0.0
 11
9222.911058008017
 21
-718.642827628395
 31
0.0
  0
ARC
  5
1A671
330
1F
100
AcDbEntity
  8
Concrete
100
AcDbCircle
 10
9224.370949803242
 20
-716.3319398143085
 30
0.0
 40
2.73340200904623
100
AcDbArc
 50
237.7175554925188
 51
304.2824445077224
  0
ARC
  5
1A672
330
1F
100
AcDbEntity
  8
Concrete
100
AcDbCircle
 10
9377.347647162178
 20
-713.6617216294089
 30
0.0
 40
2.73340200904623
100
AcDbArc
 50
237.7175554925188
 51
304.2824445077224
  0
ARC
  5
1A673
330
1F
100
AcDbEntity
  8
Concrete
100
AcDbCircle
 10
9530.324344521106
 20
-710.9915034445038
 30
0.0
 40
2.73340200904623
100
AcDbArc
 50
237.7175554925188
 51
304.2824445077224
  0
LINE
  5
1A674
330
1F
100
AcDbEntity
  8
Miscellaneous
 62
     7
100
AcDbLine
 10
9210.945864523427
 20
-724.9049600205889
 30
0.0
 11
9210.945864523427
 21
-718.8516808575404
 31
0.0
  0
LINE
  5
1A675
330
1F
100
AcDbEntity
  8
Miscellaneous
 62
     7
100
AcDbLine
 10
9154.945864523424
 20
-718.8516808575386
 30
0.0
 11
9210.945864523427
 21
-718.8516808575404
 31
0.0
  0
LINE
  5
1A676
330
1F
100
AcDbEntity
  8
Lining
 62
     1
370
    70
100
AcDbLine
 10
9155.945864523426
 20
-946.3413366437944
 30
0.0
 11
9209.945864523426
 21
-946.3413366437944
 31
0.0
  0
LINE
  5
1A677
330
1F
100
AcDbEntity
  8
Miscellaneous
  6
CENTER
 48
50.0
100
AcDbLine
 10
9182.945864523423
 20
-672.446368972136
 30
0.0
 11
9182.945864523423
 21
-958.3172562031704
 31
0.0
  0
INSERT
  5
1A678
102
{ACAD_REACTORS
330
1A937
102
}
330
1F
100
AcDbEntity
  8
Fastenings and sealants
100
AcDbBlockReference
  2
14-10x90 Head  Batten
 10
9850.422494121794
 20
-914.5326266446883
 30
-300.0
 50
90.0
  0
LINE
  5
1A679
330
1F
100
AcDbEntity
  8
Lining
 62
     1
370
    70
100
AcDbLine
 10
9155.195864523426
 20
-749.3413366437907
 30
0.0
 11
9210.695864523426
 21
-749.3413366437907
 31
0.0
  0
LINE
  5
1A67A
102
{ACAD_REACTORS
330
1A7A1
330
1A7AC
330
1A937
102
}
330
1F
100
AcDbEntity
  8
DEFPOINTS
100
AcDbLine
 10
10077.1306007403
 20
-670.3413366437962
 30
0.0
 11
10077.1306007403
 21
-766.3413366437944
 31
0.0
  0
LINE
  5
1A67C
102
{ACAD_REACTORS
330
1A7AC
102
}
330
1F
100
AcDbEntity
  8
Miscellaneous
100
AcDbLine
 10
9796.945864523427
 20
-681.3413366437908
 30
0.0
 11
10077.1306007403
 21
-681.3413366438003
 31
0.0
  0
LINE
  5
1A67D
330
1F
100
AcDbEntity
  8
Miscellaneous
  6
BATTING
 62
    13
 48
11.0
100
AcDbLine
 10
9796.945864523427
 20
-686.3413366437908
 30
0.0
 11
10077.1306007403
 21
-686.3413366438002
 31
0.0
  0
LINE
  5
1A67F
102
{ACAD_REACTORS
330
1A7A1
330
1A7AC
102
}
330
1F
100
AcDbEntity
  8
Miscellaneous
100
AcDbLine
 10
9796.945864523427
 20
-680.3413366437908
 30
0.0
 11
10077.1306007403
 21
-680.3413366438002
 31
0.0
  0
LINE
  5
1A680
102
{ACAD_REACTORS
330
1A7A1
102
}
330
1F
100
AcDbEntity
  8
DEFPOINTS
100
AcDbLine
 10
9796.945864523427
 20
-670.341336643789
 30
0.0
 11
10077.1306007403
 21
-670.3413366438017
 31
0.0
  0
LINE
  5
1A681
330
1F
100
AcDbEntity
  8
DEFPOINTS
100
AcDbLine
 10
9796.945864523427
 20
-691.3413366437944
 30
0.0
 11
9796.945864523427
 21
-670.3413366437926
 31
0.0
  0
INSERT
  5
1A682
102
{ACAD_REACTORS
330
1A7A1
330
1A7AC
102
}
330
1F
100
AcDbEntity
  8
Lining
100
AcDbBlockReference
  2
60 X 12 SCKIRTING
 10
9784.945864523427
 20
-689.3413366437944
 30
0.0
  0
HATCH
  5
1A683
330
1F
100
AcDbEntity
  8
Lining
 62
     9
100
AcDbHatch
 10
0.0
 20
0.0
 30
0.0
210
0.0
220
0.0
230
1.0
  2
SOLID
 70
     1
 71
     0
 91
        1
 92
        1
 93
        4
 72
     1
 10
9782.945864523426
 20
-550.3439428581969
 11
9772.945864523427
 21
-550.7607614644257
 72
     1
 10
9772.945864523425
 20
-550.7607614644257
 11
9772.945864523425
 21
-681.3413366437944
 72
     1
 10
9772.945864523425
 20
-681.3413366437944
 11
9782.945864523426
 21
-681.3413366437944
 72
     1
 10
9782.945864523426
 20
-681.3413366437944
 11
9782.945864523426
 21
-550.3439428581969
 97
        0
 75
     0
 76
     1
 98
        1
 10
9778.103175091317
 20
-634.7507574492937
450
        0
451
        0
460
0.0
461
0.0
452
        1
462
1.0
453
        2
463
0.0
 63
     8
421
  8421504
463
1.0
 63
     7
421
 16777215
470
CYLINDER
1001
ACAD
1010
706.765985201084
1020
-12424.89291995084
1030
0.0
  0
LINE
  5
1A684
330
1F
100
AcDbEntity
  8
Lining
100
AcDbLine
 10
9782.945864523426
 20
-681.3413366437962
 30
0.0
 11
9782.945864523426
 21
-550.3439428581969
 31
0.0
  0
LINE
  5
1A685
330
1F
100
AcDbEntity
  8
Lining
100
AcDbLine
 10
9782.945864523426
 20
-681.3413366437944
 30
0.0
 11
9772.945864523427
 21
-681.3413366437944
 31
0.0
  0
LINE
  5
1A686
330
1F
100
AcDbEntity
  8
Miscellaneous
 62
     5
370
    50
100
AcDbLine
 10
8682.945864523427
 20
-689.3413366437944
 30
0.0
 11
8682.945864523427
 21
-547.2781376777475
 31
0.0
  0
LINE
  5
1A687
102
{ACAD_REACTORS
330
1A6A2
330
1A7B1
102
}
330
1F
100
AcDbEntity
  8
Miscellaneous
 62
     5
370
    50
100
AcDbLine
 10
8632.945864523426
 20
-689.3413366437926
 30
0.0
 11
8632.945864523426
 21
-547.2781376777475
 31
0.0
  0
LINE
  5
1A689
102
{ACAD_REACTORS
330
1A7B1
102
}
330
1F
100
AcDbEntity
  8
Miscellaneous
100
AcDbLine
 10
8632.945864523426
 20
-681.3413366437925
 30
0.0
 11
8262.161184993606
 21
-681.3413366437956
 31
0.0
  0
LINE
  5
1A68B
102
{ACAD_REACTORS
330
1A6A2
330
1A7B1
102
}
330
1F
100
AcDbEntity
  8
Miscellaneous
100
AcDbLine
 10
8632.945864523426
 20
-680.3413366437926
 30
0.0
 11
8262.161184993606
 21
-680.3413366437986
 31
0.0
  0
LINE
  5
1A68C
102
{ACAD_REACTORS
330
1A6A2
102
}
330
1F
100
AcDbEntity
  8
DEFPOINTS
100
AcDbLine
 10
8632.945864523426
 20
-670.3413366437926
 30
0.0
 11
8262.161184993606
 21
-670.3413366437956
 31
0.0
  0
HATCH
  5
1A6A2
330
1F
100
AcDbEntity
  8
Miscellaneous
 62
     7
100
AcDbHatch
 10
0.0
 20
0.0
 30
0.0
210
0.0
220
0.0
230
1.0
  2
ZIGZAG
 70
     0
 71
     1
 91
        1
 92
        7
 72
     0
 73
     1
 93
        4
 10
8632.945864523426
 20
-670.3413366437926
 10
8262.161184993606
 20
-670.3413366437956
 10
8262.161184993606
 20
-680.3413366437987
 10
8632.945864523426
 20
-680.3413366437925
 97
        4
330
1A68C
330
1A60B
330
1A68B
330
1A687
 75
     0
 76
     1
 52
45.0
 41
25.0
 77
     0
 78
     2
 53
45.0
 43
8262.161184993606
 44
-680.3413366437987
 45
0.0000000000000004
 46
4.419417382415922
 79
     2
 49
3.125
 49
-3.125
 53
135.0
 43
8264.370893684814
 44
-678.1316279525907
 45
-4.419417382415921
 46
0.0000000000000004
 79
     2
 49
3.125
 49
-3.125
 47
0.4134394122049521
 98
        1
 10
8483.032204229999
 20
-674.6812810145009
1001
ACAD
1010
8262.161184993606
1020
-680.3413366437987
1030
0.0
  0
HATCH
  5
1A6A7
330
1F
100
AcDbEntity
  8
Hatch
 62
     8
100
AcDbHatch
 10
0.0
 20
0.0
 30
0.0
210
0.0
220
0.0
230
1.0
  2
AR-SAND
 70
     0
 71
     1
 91
        1
 92
        7
 72
     0
 73
     1
 93
        4
 10
8682.945864523427
 20
-691.3413366437943
 10
8262.161184993606
 20
-691.3413366437972
 10
8262.161184993606
 20
-766.3413366437944
 10
8682.945864523423
 20
-766.3413366437943
 97
        4
330
1A608
330
1A60B
330
1A607
330
1A603
 75
     0
 76
     1
 52
0.0
 41
10.0
 77
     0
 78
     4
 53
37.5
 43
8262.161184993606
 44
-766.3413366437944
 45
-0.6299335810960816
 46
19.26823769013158
 79
     6
 49
0.0
 49
-15.2
 49
0.0
 49
-17.0
 49
0.0
 49
-16.25
 53
7.499999999999999
 43
8262.161184993606
 44
-766.3413366437944
 45
17.69776705267727
 46
28.2214606522974
 79
     6
 49
0.0
 49
-8.199999999999999
 49
0.0
 49
-13.7
 49
0.0
 49
-5.25
 53
327.5
 43
8249.861184993608
 44
-766.3413366437944
 45
31.14141861751495
 46
0.056590535369645
 79
     6
 49
0.0
 49
-5.0
 49
0.0
 49
-18.0
 49
0.0
 49
-23.5
 53
317.5
 43
8249.861184993608
 44
-766.3413366437944
 45
30.06126604572293
 46
8.77675564934249
 79
     6
 49
0.0
 49
-2.5
 49
0.0
 49
-11.8
 49
0.0
 49
-13.5
 47
0.6615030582489661
 98
        1
 10
8563.507339333904
 20
-745.4898595171014
1001
ACAD
1010
2914.27266158153
1020
310.6474818643767
1030
0.0
  0
HATCH
  5
1A7A1
330
1F
100
AcDbEntity
  8
Miscellaneous
 62
     7
100
AcDbHatch
 10
0.0
 20
0.0
 30
0.0
210
0.0
220
0.0
230
1.0
  2
ZIGZAG
 70
     0
 71
     1
 91
        1
 92
        7
 72
     0
 73
     1
 93
        4
 10
10077.1306007403
 20
-670.3413366438017
 10
9796.945864523427
 20
-670.341336643789
 10
9796.945864523427
 20
-680.3413366437908
 10
10077.1306007403
 20
-680.3413366438002
 97
        4
330
1A680
330
1A682
330
1A67F
330
1A67A
 75
     0
 76
     1
 52
45.0
 41
25.0
 77
     0
 78
     2
 53
45.0
 43
9796.945864523427
 44
-680.3413366438002
 45
0.0000000000000004
 46
4.419417382415922
 79
     2
 49
3.125
 49
-3.125
 53
135.0
 43
9799.155573214633
 44
-678.1316279525922
 45
-4.419417382415921
 46
0.0000000000000004
 79
     2
 49
3.125
 49
-3.125
 47
0.7101345992632647
 98
        1
 10
9939.876778650685
 20
-674.1145199068401
1001
ACAD
1010
9796.945864523427
1020
-680.3413366438002
1030
0.0
  0
LINE
  5
1A7A2
330
1F
100
AcDbEntity
  8
Miscellaneous
  6
BATTING
 62
    13
 48
11.0
100
AcDbLine
 10
8262.161184993606
 20
-686.3413366437834
 30
0.0
 11
8632.945864523426
 21
-686.3413366437959
 31
0.0
  0
HATCH
  5
1A7AC
330
1F
100
AcDbEntity
  8
Miscellaneous
100
AcDbHatch
 10
0.0
 20
0.0
 30
0.0
210
0.0
220
0.0
230
1.0
  2
SOLID
 70
     1
 71
     1
 91
        1
 92
        7
 72
     0
 73
     1
 93
        4
 10
10077.1306007403
 20
-680.3413366438002
 10
9796.945864523427
 20
-680.3413366437908
 10
9796.945864523427
 20
-681.3413366437906
 10
10077.1306007403
 20
-681.3413366438003
 97
        4
330
1A67F
330
1A682
330
1A67C
330
1A67A
 75
     0
 76
     1
 47
0.2925541477095242
 98
        1
 10
9958.655616965833
 20
-680.9302254486549
450
        0
451
        0
460
0.0
461
0.0
452
        1
462
1.0
453
        2
463
0.0
 63
     5
421
      255
463
1.0
 63
     7
421
 16777215
470
LINEAR
1001
ACAD
1010
9796.945864523427
1020
-681.3413366438003
1030
0.0
  0
HATCH
  5
1A7B1
330
1F
100
AcDbEntity
  8
Miscellaneous
100
AcDbHatch
 10
0.0
 20
0.0
 30
0.0
210
0.0
220
0.0
230
1.0
  2
SOLID
 70
     1
 71
     1
 91
        1
 92
        7
 72
     0
 73
     1
 93
        4
 10
8632.945864523424
 20
-680.3413366437925
 10
8262.161184993606
 20
-680.3413366437987
 10
8262.161184993606
 20
-681.3413366437956
 10
8632.945864523426
 20
-681.3413366437924
 97
        4
330
1A68B
330
1A60B
330
1A689
330
1A687
 75
     0
 76
     1
 47
0.3885491416184554
 98
        1
 10
8465.165187541442
 20
-680.6198764158998
450
        0
451
        0
460
0.0
461
0.0
452
        1
462
1.0
453
        2
463
0.0
 63
     5
421
      255
463
1.0
 63
     7
421
 16777215
470
LINEAR
1001
ACAD
1010
8262.161184993606
1020
-681.3413366437956
1030
0.0
  0
HATCH
  5
1A937
330
1F
100
AcDbEntity
  8
Hatch
 62
     8
100
AcDbHatch
 10
0.0
 20
0.0
 30
0.0
210
0.0
220
0.0
230
1.0
  2
AR-SAND
 70
     0
 71
     1
 91
        1
 92
        7
 72
     0
 73
     1
 93
      160
 10
10077.1306007403
 20
-691.3413366437971
 10
9728.801532898492
 20
-691.3413366437947
 10
9728.801532898494
 20
-695.9022991402589
 10
9729.29867183069
 20
-695.9022991402589
 10
9728.801532898494
 20
-696.438079902562
 10
9728.801532898494
 20
-697.223421066993
 10
9728.870138344499
 20
-697.2067553473344
 10
9729.367277276692
 20
-697.2067553473344
 10
9728.801532898494
 20
-697.8164741494463
 10
9728.801532898494
 20
-698.6141949391777
 10
9729.298671830687
 20
-698.6141949391777
 10
9728.801532898495
 20
-699.1499757014819
 10
9728.801532898492
 20
-700.0216388070303
 10
9729.29867183069
 20
-700.0216388070302
 10
9728.801532898492
 20
-700.5574195693351
 10
9728.801532898492
 20
-701.463406193797
 10
9729.298671830688
 20
-701.4634061937968
 10
9728.801532898495
 20
-701.9991869561032
 10
9728.801532898494
 20
-702.9395013754865
 10
9729.298671830688
 20
-702.9395013754866
 10
9728.801532898494
 20
-703.4752821377908
 10
9728.801532898494
 20
-704.4499243521013
 10
9729.29867183069
 20
-704.4499243521015
 10
9728.801532898495
 20
-704.9857051144047
 10
9728.801532898494
 20
-705.9946751236378
 10
9729.29867183069
 20
-705.9946751236378
 10
9728.801532898495
 20
-706.5304558859393
 10
9728.801532898495
 20
-707.4364425104041
 10
9729.298671830688
 20
-707.4364425104041
 10
9728.801532898494
 20
-707.9722232727108
 10
9728.801532898495
 20
-708.757564437138
 10
9728.870138344497
 20
-708.7408987174795
 10
9729.367277276693
 20
-708.7408987174796
 10
9728.801532898492
 20
-709.3506175195929
 10
9728.801532898494
 20
-710.1483383093229
 10
9729.298671830688
 20
-710.1483383093227
 10
9728.801532898494
 20
-710.6841190716279
 10
9728.801532898494
 20
-711.5557821771756
 10
9729.29867183069
 20
-711.5557821771755
 10
9728.801532898492
 20
-712.0915629394804
 10
9728.801532898494
 20
-712.997549563942
 10
9729.298671830687
 20
-712.9975495639419
 10
9728.801532898494
 20
-713.5333303262458
 10
9728.801532898494
 20
-714.4736447456317
 10
9729.298671830688
 20
-714.4736447456316
 10
9728.801532898494
 20
-715.009425507936
 10
9728.801532898495
 20
-715.9840677222465
 10
9729.29867183069
 20
-715.9840677222465
 10
9728.801532898495
 20
-716.519848484549
 10
9728.801532898495
 20
-717.5288184937827
 10
9729.29867183069
 20
-717.5288184937828
 10
9728.801532898494
 20
-718.0645992560855
 10
9728.801532898492
 20
-718.8332704248487
 10
9729.29867183069
 20
-718.8332704248489
 10
9728.801532898494
 20
-719.3690511871534
 10
9728.801532898492
 20
-720.2407142927015
 10
9729.29867183069
 20
-720.2407142927015
 10
9728.801532898494
 20
-720.776495055004
 10
9728.801532898494
 20
-721.6824816794678
 10
9729.29867183069
 20
-721.6824816794677
 10
9728.801532898495
 20
-722.218262441772
 10
9728.801532898494
 20
-723.0899255473206
 10
9729.29867183069
 20
-723.0899255473206
 10
9728.801532898492
 20
-723.6257063096236
 10
9728.801532898494
 20
-724.5316929340872
 10
9729.298671830687
 20
-724.5316929340869
 10
9728.801532898494
 20
-725.0674736963915
 10
9728.801532898494
 20
-726.0077881157768
 10
9729.298671830688
 20
-726.0077881157768
 10
9728.801532898494
 20
-726.5435688780813
 10
9728.801532898494
 20
-727.5182110923916
 10
9729.29867183069
 20
-727.5182110923918
 10
9728.801532898494
 20
-728.0539918546938
 10
9728.801532898495
 20
-729.0629618639278
 10
9729.29867183069
 20
-729.0629618639279
 10
9728.801532898492
 20
-729.5987426262303
 10
9728.801532898492
 20
-730.5047292506944
 10
9729.29867183069
 20
-730.5047292506944
 10
9728.801532898494
 20
-731.0405100129976
 10
9728.801532898494
 20
-731.9808244323841
 10
9729.29867183069
 20
-731.9808244323842
 10
9729.030973657987
 20
-732.2693303645247
 10
9727.945864523427
 20
-736.3413366437921
 10
9727.032491800386
 20
-732.9137924963211
 10
9726.230945159379
 20
-732.6052747801558
 10
9727.090196148356
 20
-732.3965444689016
 10
9727.090196148356
 20
-731.4599078919557
 10
9726.230945159375
 20
-731.1291795984658
 10
9727.090196148358
 20
-730.9204492872113
 10
9727.090196148358
 20
-730.0181405051874
 10
9726.230945159372
 20
-729.6874122116974
 10
9727.090196148358
 20
-729.4786819004431
 10
9727.090196148358
 20
-728.4733897336511
 10
9726.230945159375
 20
-728.1426614401615
 10
9727.090196148358
 20
-727.9339311289076
 10
9727.09019614836
 20
-726.9629667570409
 10
9726.230945159384
 20
-726.6322384635498
 10
9727.090196148358
 20
-726.423508152296
 10
9727.090196148358
 20
-725.4868715753506
 10
9726.230945159386
 20
-725.1561432818599
 10
9727.090196148358
 20
-724.9474129706065
 10
9727.09019614836
 20
-724.0451041885827
 10
9726.230945159379
 20
-723.7143758950928
 10
9727.090196148358
 20
-723.5056455838385
 10
9727.090196148358
 20
-722.6376603207303
 10
9726.230945159384
 20
-722.306932027238
 10
9727.090196148358
 20
-722.0982017159855
 10
9727.090196148358
 20
-721.1958929339636
 10
9726.230945159375
 20
-720.865164640473
 10
9727.09019614836
 20
-720.6564343292187
 10
9727.090196148356
 20
-719.7884490661095
 10
9726.230945159381
 20
-719.4577207726195
 10
9727.090196148358
 20
-719.2489904613662
 10
9727.090196148358
 20
-718.4839971350424
 10
9726.230945159372
 20
-718.1532688415521
 10
9727.090196148358
 20
-717.9445385302978
 10
9727.090196148358
 20
-716.9392463635071
 10
9726.230945159375
 20
-716.6085180700158
 10
9727.090196148358
 20
-716.3997877587618
 10
9727.090196148358
 20
-715.4288233868956
 10
9726.230945159386
 20
-715.0980950934044
 10
9727.090196148356
 20
-714.8893647821513
 10
9727.09019614836
 20
-713.9527282052058
 10
9726.230945159386
 20
-713.6219999117151
 10
9727.090196148358
 20
-713.4132696004613
 10
9727.090196148358
 20
-712.5109608184378
 10
9726.230945159375
 20
-712.1802325249469
 10
9727.090196148356
 20
-711.9715022136923
 10
9727.090196148358
 20
-711.1035169505842
 10
9726.230945159381
 20
-710.7727886570934
 10
9727.090196148358
 20
-710.5640583458407
 10
9727.09019614836
 20
-709.6696709159532
 10
9725.622216184177
 20
-709.1046410065793
 10
9727.090196148356
 20
-707.8615752059647
 10
9727.090196148358
 20
-706.9498537648971
 10
9726.230945159374
 20
-706.6191254714075
 10
9727.090196148356
 20
-706.4103951601533
 10
9727.090196148358
 20
-705.4051029933617
 10
9726.230945159379
 20
-705.0743746998706
 10
9727.09019614836
 20
-704.865644388617
 10
9727.090196148358
 20
-703.8946800167508
 10
9726.230945159386
 20
-703.5639517232594
 10
9727.090196148356
 20
-703.3552214120065
 10
9727.090196148356
 20
-702.4185848350604
 10
9726.230945159384
 20
-702.0878565415694
 10
9727.090196148358
 20
-701.8791262303158
 10
9727.090196148358
 20
-700.9768174482925
 10
9726.230945159379
 20
-700.6460891548022
 10
9727.090196148358
 20
-700.4373588435479
 10
9727.090196148358
 20
-699.5693735804397
 10
9726.230945159384
 20
-699.2386452869477
 10
9727.090196148356
 20
-699.0299149756948
 10
9727.090196148358
 20
-698.1355275458078
 10
9725.622216184182
 20
-697.5704976364335
 10
9727.090196148356
 20
-696.3274318358204
 10
9727.090196148356
 20
-691.3413366437944
 10
9682.945864523427
 20
-691.3413366437944
 10
9682.945864523427
 20
-766.3413366437945
 10
9727.945864523427
 20
-766.3413366437944
 10
10077.1306007403
 20
-766.3413366437944
 97
        7
330
1A5D9
330
1A678
330
1A647
330
1A5D7
330
1A5DB
330
1A5D8
330
1A67A
 75
     0
 76
     1
 52
0.0
 41
10.0
 77
     0
 78
     4
 53
37.5
 43
9682.945864523427
 44
-766.3413366437945
 45
-0.6299335810960816
 46
19.26823769013158
 79
     6
 49
0.0
 49
-15.2
 49
0.0
 49
-17.0
 49
0.0
 49
-16.25
 53
7.499999999999999
 43
9682.945864523427
 44
-766.3413366437945
 45
17.69776705267727
 46
28.2214606522974
 79
     6
 49
0.0
 49
-8.199999999999999
 49
0.0
 49
-13.7
 49
0.0
 49
-5.25
 53
327.5
 43
9670.645864523429
 44
-766.3413366437945
 45
31.14141861751495
 46
0.056590535369645
 79
     6
 49
0.0
 49
-5.0
 49
0.0
 49
-18.0
 49
0.0
 49
-23.5
 53
317.5
 43
9670.645864523429
 44
-766.3413366437945
 45
30.06126604572293
 46
8.77675564934249
 79
     6
 49
0.0
 49
-2.5
 49
0.0
 49
-11.8
 49
0.0
 49
-13.5
 47
2.733598320424055
 98
        1
 10
9868.780665330334
 20
-733.1158456801979
1001
ACAD
1010
2914.27266158153
1020
310.6474818643767
1030
0.0
  0
LINE
  5
1A947
330
1F
100
AcDbEntity
  8
Timber Hatch
 62
     2
100
AcDbLine
 10
8637.945864523427
 20
-766.3413366437944
 30
0.0
 11
8682.945864523427
 21
-946.3413366437944
 31
0.0
  0
LINE
  5
1A948
330
1F
100
AcDbEntity
  8
Timber Hatch
 62
     2
100
AcDbLine
 10
8682.945864523427
 20
-766.3413366437944
 30
0.0
 11
8727.945864523427
 21
-946.3413366437944
 31
0.0
  0
LINE
  5
1A949
330
1F
100
AcDbEntity
  8
Timber Hatch
 62
     2
100
AcDbLine
 10
8682.945864523427
 20
-766.3413366437944
 30
0.0
 11
8637.945864523427
 21
-946.3413366437944
 31
0.0
  0
LINE
  5
1A94A
330
1F
100
AcDbEntity
  8
Timber Hatch
 62
     2
100
AcDbLine
 10
8727.945864523427
 20
-766.3413366437944
 30
0.0
 11
8682.945864523427
 21
-946.3413366437944
 31
0.0
  0
LINE
  5
1A94B
330
1F
100
AcDbEntity
  8
Timber Hatch
 62
     2
100
AcDbLine
 10
9109.945864523426
 20
-766.3413366437944
 30
0.0
 11
9154.945864523426
 21
-946.3413366437944
 31
0.0
  0
LINE
  5
1A94C
330
1F
100
AcDbEntity
  8
Timber Hatch
 62
     2
100
AcDbLine
 10
9154.945864523426
 20
-766.3413366437944
 30
0.0
 11
9109.945864523426
 21
-946.3413366437944
 31
0.0
  0
LINE
  5
1A94D
330
1F
100
AcDbEntity
  8
Timber Hatch
 62
     2
100
AcDbLine
 10
9210.945864523427
 20
-766.3413366437944
 30
0.0
 11
9255.945864523425
 21
-946.3413366437944
 31
0.0
  0
LINE
  5
1A94E
330
1F
100
AcDbEntity
  8
Timber Hatch
 62
     2
100
AcDbLine
 10
9255.945864523425
 20
-766.3413366437944
 30
0.0
 11
9210.945864523427
 21
-946.3413366437944
 31
0.0
  0
LINE
  5
1A94F
330
1F
100
AcDbEntity
  8
Timber Hatch
 62
     2
100
AcDbLine
 10
9637.945864523427
 20
-766.3413366437944
 30
0.0
 11
9682.945864523427
 21
-946.3413366437944
 31
0.0
  0
LINE
  5
1A950
330
1F
100
AcDbEntity
  8
Timber Hatch
 62
     2
100
AcDbLine
 10
9682.945864523427
 20
-766.3413366437944
 30
0.0
 11
9637.945864523427
 21
-946.3413366437944
 31
0.0
  0
LINE
  5
1A951
330
1F
100
AcDbEntity
  8
Timber Hatch
 62
     2
100
AcDbLine
 10
9682.945864523427
 20
-766.3413366437944
 30
0.0
 11
9727.945864523427
 21
-946.3413366437944
 31
0.0
  0
LINE
  5
1A952
330
1F
100
AcDbEntity
  8
Timber Hatch
 62
     2
100
AcDbLine
 10
9727.945864523427
 20
-766.3413366437944
 30
0.0
 11
9682.945864523427
 21
-946.3413366437944
 31
0.0
  0
VIEWPORT
  5
1E4E
102
{ACAD_XDICTIONARY
360
1E4F
102
}
330
1E4C
100
AcDbEntity
 67
     1
  8
0
100
AcDbViewport
 10
101.8116638660431
 20
146.5204786841235
 30
0.0
 40
468.8953895341177
 41
316.6188034032507
 68
     1
 69
     1
 12
101.8116638660431
 22
146.5204786841235
 13
0.0
 23
0.0
 14
0.5
 24
0.5
 15
0.5
 25
0.5
 16
0.0
 26
0.0
 36
1.0
 17
0.0
 27
0.0
 37
0.0
 42
50.0
 43
0.0
 44
0.0
 45
316.6188034032507
 50
0.0
 51
0.0
 72
  1000
 90
   819232
  1

281
     0
 71
     1
 74
     0
110
0.0
120
0.0
130
0.0
111
1.0
121
0.0
131
0.0
112
0.0
122
1.0
132
0.0
 79
     0
146
0.0
170
     0
  0
VIEWPORT
  5
1E51
102
{ACAD_XDICTIONARY
360
1E52
102
}
330
1E4C
100
AcDbEntity
 67
     1
  8
DEFPOINTS
100
AcDbViewport
 10
103.1908328959755
 20
169.3583675754051
 30
0.0
 40
190.0
 41
169.341223647356
 68
     2
 69
     2
 12
9184.875377070149
 22
-663.9091032453874
 13
0.0
 23
0.0
 14
0.5
 24
0.5
 15
0.5
 25
0.5
 16
0.0
 26
0.0
 36
1.0
 17
0.0
 27
0.0
 37
0.0
 42
50.0
 43
0.0
 44
0.0
 45
1693.412236473561
 50
0.0
 51
0.0
 72
  1000
 90
   557152
  1

281
     0
 71
     1
 74
     0
110
0.0
120
0.0
130
0.0
111
1.0
121
0.0
131
0.0
112
0.0
122
1.0
132
0.0
 79
     0
146
0.0
170
     0
  0
INSERT
  5
1E60
330
1E4C
100
AcDbEntity
 67
     1
  8
Border
100
AcDbBlockReference
 66
     1
  2
A4 Title Block
 10
61.5850730982147
 20
28.04389944995228
 30
0.0
  0
ATTRIB
  5
1E61
330
1E60
100
AcDbEntity
 67
     1
  8
Title block
100
AcDbText
 10
90.36662132553216
 20
34.55051902926368
 30
0.0
 40
4.0
  1
Supercrete™ Soundfloor
100
AcDbAttribute
  2
TITLE
 70
     0
1001
AcDbAttr
1070
     0
1070
     1
  0
ATTRIB
  5
1E62
330
1E60
100
AcDbEntity
 67
     1
  8
Title block
100
AcDbText
 10
82.55444406395417
 20
17.3765467214755
 30
0.0
 40
2.5
  1
July 2013
100
AcDbAttribute
  2
DATE
 70
     0
1001
AcDbAttr
1070
     0
1070
     1
  0
ATTRIB
  5
1E63
330
1E60
100
AcDbEntity
 67
     1
  8
Title block
100
AcDbText
 10
124.8213700997226
 20
17.3765467214755
 30
0.0
 40
2.5
  1
1:5
100
AcDbAttribute
  2
SCALE
 70
     0
1001
AcDbAttr
1070
     0
1070
     1
  0
ATTRIB
  5
1E64
330
1E60
100
AcDbEntity
 67
     1
  8
Title block
100
AcDbText
 10
173.3905255015866
 20
16.50418585880231
 30
0.0
 40
4.0
  1
3.7.3
100
AcDbAttribute
  2
DRGNO
 70
     0
1001
AcDbAttr
1070
     0
1070
     1
  0
ATTRIB
  5
1E65
330
1E60
100
AcDbEntity
 67
     1
  8
Title block
100
AcDbText
 10
117.2583938127827
 20
27.15184919455169
 30
0.0
 40
4.0
  1
Shower Recess
100
AcDbAttribute
  2
TITLE2
 70
     0
1001
AcDbAttr
1070
     0
1070
     1
  0
SEQEND
  5
1E66
330
1E60
100
AcDbEntity
 67
     1
  8
Border
  0
MTEXT
  5
1E6C
102
{ACAD_XDICTIONARY
360
1E6D
102
}
330
1E4C
100
AcDbEntity
 67
     1
  8
Hebel @ 1
100
AcDbMText
 10
105.6680403909829
 20
205.2786732866299
 30
0.0
 40
2.5
 41
0.0
 71
     4
 72
     1
  1
\A1;
  7
1
 73
     1
 44
1.0
1001
AcadAnnotative
1000
AnnotativeData
1002
{
1070
     1
1070
     0
1002
}
  0
MTEXT
  5
1E77
102
{ACAD_XDICTIONARY
360
1E78
102
}
330
1E4C
100
AcDbEntity
 67
     1
  8
Hebel @ 1
100
AcDbMText
 10
103.6680403909829
 20
205.2786732866299
 30
0.0
 40
2.5
 41
0.0
 71
     6
 72
     1
  1
\A1;
  7
1
 73
     1
 44
1.0
1001
AcadAnnotative
1000
AnnotativeData
1002
{
1070
     1
1070
     0
1002
}
  0
MTEXT
  5
19575
330
1E4C
100
AcDbEntity
 67
     1
  8
TEXT
100
AcDbMText
 10
132.167152249163
 20
177.3472458993933
 30
0.0
 40
2.5
 41
21.09208749013703
 71
     3
 72
     5
  1
Sand/cement screed
  7
1
 73
     1
 44
1.0
  0
LEADER
  5
19576
102
{ACAD_XDICTIONARY
360
19577
102
}
330
1E4C
100
AcDbEntity
 67
     1
  8
TEXT @ 1
100
AcDbLeader
  3
1
 72
     1
 76
     4
 10
140.068345592584
 20
162.1724172102237
 30
0.0
 10
139.0433042390867
 20
172.3247321402734
 30
0.0
 10
135.6886241702012
 20
176.2366330401022
 30
0.0
 10
133.5853363913995
 20
176.413090388976
 30
0.0
211
-1.0
221
0.0
231
0.0
213
12.03522500965573
223
4.013081769630161
233
0.0
1001
AcadAnnotative
1000
AnnotativeData
1002
{
1070
     1
1070
     0
1002
}
1001
ACAD
1000
DSTYLE
1002
{
1070
    40
1040
1.0
1070
   147
1040
1.0
1070
    77
1070
     0
1002
}
  0
MTEXT
  5
196EB
102
{ACAD_XDICTIONARY
360
1AB56
102
}
330
1E4C
100
AcDbEntity
 67
     1
  8
TEXT
100
AcDbMText
 10
16.88597976920377
 20
165.7918026433292
 30
0.0
 40
2.0
 41
17.7233887584196
 71
     1
 72
     5
  1
Supercrete{\fScript MT Bold|b0|i1|c0|p66;\U+2122} Soundfloor 
  7
1
 73
     1
 44
1.0
 90
        3
 63
   256
 45
1.1
441
  3932462
1001
ACAD
1000
ACAD_MTEXT_DEFINED_HEIGHT_BEGIN
1070
    46
1040
6.115729320000809
1000
ACAD_MTEXT_DEFINED_HEIGHT_END
  0
MTEXT
  5
1A357
330
1E4C
100
AcDbEntity
 67
     1
  8
TEXT
100
AcDbMText
 10
40.01755638982084
 20
154.0641864601381
 30
0.0
 40
2.5
 41
22.7956358069896
 71
     3
 72
     5
  1
Essential bond breaker e.g. foam rod
  7
1
 73
     1
 44
1.0
  0
LEADER
  5
1A358
102
{ACAD_XDICTIONARY
360
1A359
102
}
330
1E4C
100
AcDbEntity
 67
     1
  8
TEXT @ 1
100
AcDbLeader
  3
1
 72
     1
 76
     4
 10
53.31938350673624
 20
161.2623746351942
 30
0.0
 10
48.71490512136097
 20
156.0510007171141
 30
0.0
 10
43.47537199775081
 20
152.8504323352688
 30
0.0
 10
40.8713528426986
 20
152.7727913347762
 30
0.0
211
-1.0
221
0.0
231
0.0
213
12.03522500965573
223
4.013081769630161
233
0.0
1001
AcadAnnotative
1000
AnnotativeData
1002
{
1070
     1
1070
     0
1002
}
1001
ACAD
1000
DSTYLE
1002
{
1070
    40
1040
1.0
1070
   147
1040
1.0
1070
    77
1070
     0
1002
}
  0
MTEXT
  5
1A365
102
{ACAD_XDICTIONARY
360
1AB58
102
}
330
1E4C
100
AcDbEntity
 67
     1
  8
TEXT
100
AcDbMText
 10
137.8617801537285
 20
138.7833529333172
 30
0.0
 40
2.5
 41
47.59382601482331
 71
     1
 72
     5
  1
Supercoat{\fScript MT Bold|b0|i1|c0|p66;\U+2122} Tanking Membrane Plain applied to floor, over rod and up wall behind lining
  7
1
 73
     1
 44
1.0
  0
LEADER
  5
1A366
102
{ACAD_XDICTIONARY
360
1A367
102
}
330
1E4C
100
AcDbEntity
 67
     1
  8
TEXT @ 1
100
AcDbLeader
  3
1
 72
     1
 76
     4
 10
128.1093024440865
 20
160.2656222990557
 30
0.0
 10
129.803678409907
 20
148.153817725454
 30
0.0
 10
134.4039645457985
 20
137.5695988084479
 30
0.0
 10
137.0079837008507
 20
137.4919578079554
 30
0.0
213
-12.03522500965573
223
4.013081769630161
233
0.0
1001
AcadAnnotative
1000
AnnotativeData
1002
{
1070
     1
1070
     0
1002
}
1001
ACAD
1000
DSTYLE
1002
{
1070
    40
1040
1.0
1070
   147
1040
1.0
1070
    77
1070
     0
1002
}
  0
LEADER
  5
1A36B
102
{ACAD_XDICTIONARY
360
1A36C
102
}
330
1E4C
100
AcDbEntity
 67
     1
  8
TEXT @ 1
100
AcDbLeader
  3
1
 72
     1
 76
     4
 10
37.16350267809264
 20
168.3622952519553
 30
0.0
 10
38.25424750734169
 20
176.8858153728789
 30
0.0
 10
34.98201301959444
 20
181.5440182521285
 30
0.0
 10
32.73318588431619
 20
181.5528047301581
 30
0.0
213
-12.03522500965573
223
4.013081769630161
233
0.0
1001
AcadAnnotative
1000
AnnotativeData
1002
{
1070
     1
1070
     0
1002
}
1001
ACAD
1000
DSTYLE
1002
{
1070
    40
1040
1.0
1070
   147
1040
1.0
1070
    77
1070
     0
1002
}
  0
MTEXT
  5
1A370
330
1E4C
100
AcDbEntity
 67
     1
  8
TEXT
100
AcDbMText
 10
10.39254612803442
 20
183.9963310866925
 30
0.0
 40
2.5
 41
23.28282983578367
 71
     1
 72
     5
  1
Selected floor covering
  7
1
 73
     1
 44
1.0
1001
ACAD
1000
ACAD_MTEXT_DEFINED_HEIGHT_BEGIN
1070
    46
1040
7.714590553486459
1000
ACAD_MTEXT_DEFINED_HEIGHT_END
  0
MTEXT
  5
1A49F
330
1E4C
100
AcDbEntity
 67
     1
  8
TEXT
100
AcDbMText
 10
68.40426799798601
 20
194.9232292727566
 30
0.0
 40
2.5
 41
49.92819119972466
 71
     1
 72
     5
  1
Selected proprietary shower screen (tanking to be continued under base of screen and {\fSwis721 BT|b1|i1|c0|p34;\Lnot }up wall)
  7
1
 73
     1
 44
1.0
  0
LEADER
  5
1A4A0
102
{ACAD_XDICTIONARY
360
1A4A1
102
}
330
1E4C
100
AcDbEntity
 67
     1
  8
TEXT @ 1
100
AcDbLeader
  3
1
 72
     1
 76
     4
 10
51.28737346027446
 20
179.7304402465538
 30
0.0
 10
57.36593401548543
 20
189.0558126492193
 30
0.0
 10
63.53191131812491
 20
193.8562852521489
 30
0.0
 10
66.98608385574948
 20
193.9890737623392
 30
0.0
213
-12.03522500965573
223
4.013081769630161
233
0.0
1001
AcadAnnotative
1000
AnnotativeData
1002
{
1070
     1
1070
     0
1002
}
1001
ACAD
1000
DSTYLE
1002
{
1070
    40
1040
1.0
1070
   147
1040
1.0
1070
    77
1070
     0
1002
}
  0
MTEXT
  5
1A938
102
{ACAD_XDICTIONARY
360
1AB5A
102
}
330
1E4C
100
AcDbEntity
 67
     1
  8
TEXT
100
AcDbMText
 10
165.0702370129044
 20
165.7918026433292
 30
0.0
 40
2.0
 41
17.9785888641688
 71
     1
 72
     5
  1
Supercrete{\fScript MT Bold|b0|i1|c0|p66;\U+2122\fMS Shell Dlg|b0|i1|c0|p0;\H0.70833x; }Soundfloor
  7
1
 73
     1
 44
1.0
 90
        3
 63
   256
 45
1.1
441
  3932462
1001
ACAD
1000
ACAD_MTEXT_DEFINED_HEIGHT_BEGIN
1070
    46
1040
6.115729320000809
1000
ACAD_MTEXT_DEFINED_HEIGHT_END
  0
MTEXT
  5
1A979
330
1E4C
100
AcDbEntity
 67
     1
  8
TEXT
100
AcDbMText
 10
89.06099199223499
 20
171.1995311698996
 30
0.0
 40
2.5
 41
8.906404501313431
 71
     1
 72
     5
  1
Tiles
  7
1
 73
     1
 44
1.0
  0
LEADER
  5
1A97A
102
{ACAD_XDICTIONARY
360
1A97B
102
}
330
1E4C
100
AcDbEntity
 67
     1
  8
TEXT @ 1
100
AcDbLeader
  3
1
 72
     1
 76
     4
 10
78.12829473231693
 20
164.1425827181977
 30
0.0
 10
82.93023713215768
 20
169.3569854467004
 30
0.0
 10
85.59798290984701
 20
170.0680403934969
 30
0.0
 10
87.66705571742987
 20
170.0406508476414
 30
0.0
213
-12.03522500965573
223
4.013081769630161
233
0.0
1001
AcadAnnotative
1000
AnnotativeData
1002
{
1070
     1
1070
     0
1002
}
1001
ACAD
1000
DSTYLE
1002
{
1070
    40
1040
1.0
1070
   147
1040
1.0
1070
    77
1070
     0
1002
}
  0
MTEXT
  5
1A97F
330
1E4C
100
AcDbEntity
 67
     1
  8
TEXT
100
AcDbMText
 10
61.14325572546275
 20
139.0163691146252
 30
0.0
 40
2.5
 41
31.0516561225254
 71
     3
 72
     5
  1
Fibre cement sheet flooring to project specifications
  7
1
 73
     1
 44
1.0
  0
LEADER
  5
1A980
102
{ACAD_XDICTIONARY
360
1A981
102
}
330
1E4C
100
AcDbEntity
 67
     1
  8
TEXT @ 1
100
AcDbLeader
  3
1
 72
     1
 76
     4
 10
74.69265514459573
 20
159.2867053607155
 30
0.0
 10
69.84060445700288
 20
141.0031833716011
 30
0.0
 10
64.60107133339272
 20
137.8026149897558
 30
0.0
 10
61.99705217834051
 20
137.7249739892633
 30
0.0
211
-1.0
221
0.0
231
0.0
213
12.03522500965573
223
4.013081769630161
233
0.0
1001
AcadAnnotative
1000
AnnotativeData
1002
{
1070
     1
1070
     0
1002
}
1001
ACAD
1000
DSTYLE
1002
{
1070
    40
1040
1.0
1070
   147
1040
1.0
1070
    77
1070
     0
1002
}
  0
MTEXT
  5
1A985
330
1E4C
100
AcDbEntity
 67
     1
  8
TEXT
100
AcDbMText
 10
89.31085550366564
 20
126.8810328157347
 30
0.0
 40
2.5
 41
21.33869116260348
 71
     3
 72
     5
  1
Hole for shower waste
  7
1
 73
     1
 44
1.0
  0
LEADER
  5
1A986
102
{ACAD_XDICTIONARY
360
1A987
102
}
330
1E4C
100
AcDbEntity
 67
     1
  8
TEXT @ 1
100
AcDbLeader
  3
1
 72
     1
 76
     4
 10
102.8872819339029
 20
141.5953528401879
 30
0.0
 10
98.00820423520576
 20
128.8678470727107
 30
0.0
 10
92.7686711115956
 20
125.6672786908654
 30
0.0
 10
90.16465195654339
 20
125.5896376903728
 30
0.0
211
-1.0
221
0.0
231
0.0
213
12.03522500965573
223
4.013081769630161
233
0.0
1001
AcadAnnotative
1000
AnnotativeData
1002
{
1070
     1
1070
     0
1002
}
1001
ACAD
1000
DSTYLE
1002
{
1070
    40
1040
1.0
1070
   147
1040
1.0
1070
    77
1070
     0
1002
}
  0
MTEXT
  5
1A98B
330
1E4C
100
AcDbEntity
 67
     1
  8
TEXT
100
AcDbMText
 10
113.4725535398871
 20
131.605357531026
 30
0.0
 40
2.5
 41
23.43626376482268
 71
     1
 72
     5
  1
Joists both sides of waste
  7
1
 73
     1
 44
1.0
  0
LEADER
  5
1A98C
102
{ACAD_XDICTIONARY
360
1A98D
102
}
330
1E4C
100
AcDbEntity
 67
     1
  8
TEXT @ 1
100
AcDbLeader
  3
1
 72
     1
 76
     4
 10
108.0799601131908
 20
145.1101588543455
 30
0.0
 10
108.5312350030839
 20
136.2393707738807
 30
0.0
 10
110.0147379319571
 20
130.3916034061567
 30
0.0
 10
112.6187570870093
 20
130.3139624056641
 30
0.0
213
-12.03522500965573
223
4.013081769630161
233
0.0
1001
AcadAnnotative
1000
AnnotativeData
1002
{
1070
     1
1070
     0
1002
}
1001
ACAD
1000
DSTYLE
1002
{
1070
    40
1040
1.0
1070
   147
1040
1.0
1070
    77
1070
     0
1002
}
  0
MTEXT
  5
1A991
330
1E4C
100
AcDbEntity
 67
     1
  8
TEXT
100
AcDbMText
 10
152.2449884179508
 20
209.7238279372272
 30
0.0
 40
2.5
 41
42.24074110983713
 71
     3
 72
     5
  1
Interior wall. Lining to be installed to manufacturer's specifications for wet areas
  7
1
 73
     1
 44
1.0
  0
LEADER
  5
1A992
102
{ACAD_XDICTIONARY
360
1A993
102
}
330
1E4C
100
AcDbEntity
 67
     1
  8
TEXT @ 1
100
AcDbLeader
  3
1
 72
     1
 76
     4
 10
157.9699341577635
 20
178.5326613253893
 30
0.0
 10
157.782174369176
 20
192.7955112183463
 30
0.0
 10
156.140753815163
 20
207.6543450906561
 30
0.0
 10
153.5495352659314
 20
207.8615426434623
 30
0.0
211
-1.0
221
0.0
231
0.0
213
12.03522500965573
223
4.013081769630161
233
0.0
1001
AcadAnnotative
1000
AnnotativeData
1002
{
1070
     1
1070
     0
1002
}
1001
ACAD
1000
DSTYLE
1002
{
1070
    40
1040
1.0
1070
   147
1040
1.0
1070
    77
1070
     0
1002
}
  0
MTEXT
  5
1AD1C
102
{ACAD_XDICTIONARY
360
1AD1D
102
}
330
1E4C
100
AcDbEntity
 67
     1
  8
TEXT
100
AcDbMText
 10
111.6453880873029
 20
47.36534788960798
 30
0.0
 40
2.5
 41
80.96515538281812
 71
     1
 72
     5
  1
{\fTahoma|b1|i0|c0|p34;\C7;Copyright \U+00A9 Superbuild International Ltd 2013}
  7
ROMANS
 73
     1
 44
1.0
 90
        3
 63
   256
 45
1.5
441
        0
1001
ACAD
1000
ACAD_MTEXT_DEFINED_HEIGHT_BEGIN
1070
    46
1040
3.019389854573114
1000
ACAD_MTEXT_DEFINED_HEIGHT_END
  0
ENDSEC
  0
SECTION
  2
OBJECTS
  0
DICTIONARY
  5
C
330
0
100
AcDbDictionary
281
     1
  3
ACAD_2007HEADERVARS_RT
350
1ADDB
  3
ACAD_CIP_PREVIOUS_PRODUCT_INFO
350
1AAF3
  3
ACAD_COLOR
350
73
  3
ACAD_DETAILVIEWSTYLE
350
1AAD9
  3
ACAD_GROUP
350
D
  3
ACAD_IMAGE_DICT
350
1651
  3
ACAD_IMAGE_VARS
350
1658
  3
ACAD_LAYOUT
350
1A
  3
ACAD_MATERIAL
350
72
  3
ACAD_MLEADERSTYLE
350
D7
  3
ACAD_MLINESTYLE
350
17
  3
ACAD_PLOTSETTINGS
350
19
  3
ACAD_PLOTSTYLENAME
350
E
  3
ACAD_SCALELIST
350
B6
  3
ACAD_SECTIONVIEWSTYLE
350
1AAD6
  3
ACAD_TABLESTYLE
350
86
  3
ACAD_VISUALSTYLE
350
99
  3
AcadDim
350
16F0
  3
ACDB_RECOMPOSE_DATA
350
1ADDA
  3
AcDbVariableDictionary
350
66
  3
AcDsDecomposeData
350
1ADE2
  3
AEC_PROPERTY_SET_DEFS
350
17F
  0
DICTIONARY
  5
11BA6
330
8
100
AcDbDictionary
280
     1
281
     1
  0
DICTIONARY
  5
1D5
330
2
100
AcDbDictionary
280
     1
281
     1
  3
ACAD_LAYERSTATES
360
1D6
  0
DICTIONARY
  5
E6
330
10
100
AcDbDictionary
280
     1
281
     1
  0
DICTIONARY
  5
162E
330
162D
100
AcDbDictionary
280
     1
281
     1
  0
DICTIONARY
  5
1630
330
162F
100
AcDbDictionary
280
     1
281
     1
  0
DICTIONARY
  5
1DCC
330
1DCB
100
AcDbDictionary
280
     1
281
     1
  0
DICTIONARY
  5
207E
330
207D
100
AcDbDictionary
280
     1
281
     1
  0
DICTIONARY
  5
1A2EF
330
1A2EE
100
AcDbDictionary
280
     1
281
     1
  0
DICTIONARY
  5
1A40E
330
1A40D
100
AcDbDictionary
280
     1
281
     1
  0
DICTIONARY
  5
1AD10
330
1AD0F
100
AcDbDictionary
280
     1
281
     1
  0
DICTIONARY
  5
1ADD4
330
1ADD3
100
AcDbDictionary
280
     1
281
     1
  3
ASDK_XREC_ANNO_SCALE_INFO
360
1ADD5
  0
DICTIONARY
  5
1ADD7
330
1ADD6
100
AcDbDictionary
280
     1
281
     1
  3
ASDK_XREC_ANNO_SCALE_INFO
360
1ADD8
  0
DICTIONARY
  5
15D
330
1F
100
AcDbDictionary
280
     1
281
     1
  3
ACAD_SORTENTS
360
195
  0
DICTIONARY
  5
19104
330
1E4C
100
AcDbDictionary
280
     1
281
     1
  3
ACAD_SORTENTS
360
19105
  0
DICTIONARY
  5
164D
330
1636
100
AcDbDictionary
280
     1
281
     1
  3
ACAD_SORTENTS
360
1AC30
  0
DICTIONARY
  5
1AC22
330
1AC21
100
AcDbDictionary
280
     1
281
     1
  3
ACAD_MTEXT_2008_RT
360
1AE22
  0
DICTIONARY
  5
1AC2D
330
1AC2C
100
AcDbDictionary
280
     1
281
     1
  3
ACAD_MTEXT_2008_RT
360
1ADD9
  0
IMAGEDEF_REACTOR
  5
1AC2F
330
1AC2E
100
AcDbRasterImageDefReactor
 90
        2
330
1AC2E
  0
DICTIONARY
  5
1E4F
330
1E4E
100
AcDbDictionary
280
     1
281
     1
  3
ASDK_XREC_ANNOTATION_SCALE_INFO
360
1E50
  0
DICTIONARY
  5
1E52
330
1E51
100
AcDbDictionary
280
     1
281
     1
  3
ASDK_XREC_ANNOTATION_SCALE_INFO
360
1E53
  0
DICTIONARY
  5
1E6D
330
1E6C
100
AcDbDictionary
280
     1
281
     1
  3
AcDbContextDataManager
360
1E6E
  0
DICTIONARY
  5
1E78
330
1E77
100
AcDbDictionary
280
     1
281
     1
  3
AcDbContextDataManager
360
1E79
  0
DICTIONARY
  5
19577
330
19576
100
AcDbDictionary
280
     1
281
     1
  3
AcDbContextDataManager
360
19578
  0
DICTIONARY
  5
1AB56
330
196EB
100
AcDbDictionary
280
     1
281
     1
  3
ACAD_MTEXT_2008_RT
360
1AE0B
  0
DICTIONARY
  5
1A359
330
1A358
100
AcDbDictionary
280
     1
281
     1
  3
AcDbContextDataManager
360
1A35A
  0
DICTIONARY
  5
1AB58
330
1A365
100
AcDbDictionary
280
     1
281
     1
  3
ACAD_MTEXT_2008_RT
360
1AE0C
  0
DICTIONARY
  5
1A367
330
1A366
100
AcDbDictionary
280
     1
281
     1
  3
AcDbContextDataManager
360
1A368
  0
DICTIONARY
  5
1A36C
330
1A36B
100
AcDbDictionary
280
     1
281
     1
  3
AcDbContextDataManager
360
1A36D
  0
DICTIONARY
  5
1A4A1
330
1A4A0
100
AcDbDictionary
280
     1
281
     1
  3
AcDbContextDataManager
360
1A4A2
  0
DICTIONARY
  5
1AB5A
330
1A938
100
AcDbDictionary
280
     1
281
     1
  3
ACAD_MTEXT_2008_RT
360
1AE0D
  0
DICTIONARY
  5
1A97B
330
1A97A
100
AcDbDictionary
280
     1
281
     1
  3
AcDbContextDataManager
360
1A97C
  0
DICTIONARY
  5
1A981
330
1A980
100
AcDbDictionary
280
     1
281
     1
  3
AcDbContextDataManager
360
1A982
  0
DICTIONARY
  5
1A987
330
1A986
100
AcDbDictionary
280
     1
281
     1
  3
AcDbContextDataManager
360
1A988
  0
DICTIONARY
  5
1A98D
330
1A98C
100
AcDbDictionary
280
     1
281
     1
  3
AcDbContextDataManager
360
1A98E
  0
DICTIONARY
  5
1A993
330
1A992
100
AcDbDictionary
280
     1
281
     1
  3
AcDbContextDataManager
360
1A994
  0
DICTIONARY
  5
1AD1D
330
1AD1C
100
AcDbDictionary
280
     1
281
     1
  3
ACAD_MTEXT_2008_RT
360
1AE24
  0
DICTIONARY
  5
1ADDB
102
{ACAD_REACTORS
330
C
102
}
330
C
100
AcDbDictionary
281
     1
  3
DIMFXL
350
1ADDC
  0
XRECORD
  5
1AAF3
102
{ACAD_REACTORS
330
C
102
}
330
C
100
AcDbXrecord
280
     1
300
ACD
300
2013
300
ACD_F_S
  0
DICTIONARY
  5
73
102
{ACAD_REACTORS
330
C
102
}
330
C
100
AcDbDictionary
281
     1
  0
DICTIONARY
  5
1AAD9
102
{ACAD_REACTORS
330
C
102
}
330
C
100
AcDbDictionary
281
     1
  3
Imperial24
350
1AADA
  0
DICTIONARY
  5
D
102
{ACAD_REACTORS
330
C
102
}
330
C
100
AcDbDictionary
281
     1
  0
DICTIONARY
  5
1651
102
{ACAD_REACTORS
330
C
102
}
330
C
100
AcDbDictionary
281
     1
  3
Hebel Supercrete Logo
350
1652
  3
Hebel Supercrete Logo_1
350
1653
  3
Supercrete Hi Res_1
350
1AB1C
  0
RASTERVARIABLES
  5
1658
102
{ACAD_REACTORS
330
C
102
}
330
C
100
AcDbRasterVariables
 90
        0
 70
     1
 71
     1
 72
     1
  0
DICTIONARY
  5
1A
102
{ACAD_REACTORS
330
C
102
}
330
C
100
AcDbDictionary
281
     1
  3
3.7.3
350
1E9F
  3
Model
350
22
  0
DICTIONARY
  5
72
102
{ACAD_REACTORS
330
C
102
}
330
C
100
AcDbDictionary
281
     1
  3
ByBlock
350
97
  3
ByLayer
350
96
  3
Global
350
98
  0
DICTIONARY
  5
D7
102
{ACAD_REACTORS
330
C
102
}
330
C
100
AcDbDictionary
281
     1
  3
Standard
350
D8
  0
DICTIONARY
  5
17
102
{ACAD_REACTORS
330
C
102
}
330
C
100
AcDbDictionary
281
     1
  3
Standard
350
18
  0
DICTIONARY
  5
19
102
{ACAD_REACTORS
330
C
102
}
330
C
100
AcDbDictionary
281
     1
  3
A3_PDF
350
1DD4
  0
ACDBDICTIONARYWDFLT
  5
E
102
{ACAD_REACTORS
330
C
102
}
330
C
100
AcDbDictionary
281
     1
  3
Normal
350
F
100
AcDbDictionaryWithDefault
340
F
  0
DICTIONARY
  5
B6
102
{ACAD_REACTORS
330
C
102
}
330
C
100
AcDbDictionary
281
     1
  3
A0
350
B7
  3
A1
350
124
  3
A2
350
125
  3
A3
350
126
  3
A4
350
127
  3
A5
350
128
  3
A6
350
129
  3
A7
350
12A
  3
A8
350
12B
  3
A9
350
12C
  3
B0
350
12D
  3
B1
350
12E
  3
B2
350
12F
  3
B3
350
130
  3
B4
350
131
  3
B5
350
132
  3
B6
350
133
  3
B7
350
134
  3
B8
350
135
  3
B9
350
136
  3
C0
350
137
  3
C1
350
138
  3
C2
350
139
  3
C3
350
13A
  3
C4
350
13B
  3
C5
350
13C
  3
C6
350
13D
  3
C7
350
13E
  3
C8
350
13F
  3
C9
350
140
  3
D0
350
141
  3
D1
350
142
  3
D2
350
143
  0
DICTIONARY
  5
1AAD6
102
{ACAD_REACTORS
330
C
102
}
330
C
100
AcDbDictionary
281
     1
  3
Imperial24
350
1AAD8
  0
DICTIONARY
  5
86
102
{ACAD_REACTORS
330
C
102
}
330
C
100
AcDbDictionary
281
     1
  3
Standard
350
87
  0
DICTIONARY
  5
99
102
{ACAD_REACTORS
330
C
102
}
330
C
100
AcDbDictionary
281
     1
  3
2dWireframe
350
9F
  3
3D Hidden
350
A1
  3
3dWireframe
350
A0
  3
Basic
350
9E
  3
Brighten
350
A5
  3
ColorChange
350
A9
  3
Conceptual
350
A2
  3
Dim
350
A4
  3
EdgeColorOff
350
1AAD5
  3
Facepattern
350
A8
  3
Flat
350
9A
  3
FlatWithEdges
350
9B
  3
Gouraud
350
9C
  3
GouraudWithEdges
350
9D
  3
Hidden
350
1AACD
  3
JitterOff
350
1AAD3
  3
Linepattern
350
A7
  3
OverhangOff
350
1AAD4
  3
Realistic
350
A3
  3
Shaded
350
1AAD2
  3
Shaded with edges
350
1AAD1
  3
Shades of Gray
350
1AACE
  3
Sketchy
350
1AACF
  3
Thicken
350
A6
  3
Wireframe
350
1AACC
  3
X-Ray
350
1AAD0
  0
XRECORD
  5
16F0
102
{ACAD_REACTORS
330
C
102
}
330
C
100
AcDbXrecord
280
     1
 90
   990106
  3

 60
     0
 61
     0
 62
     2
 63
     2
 64
     0
 65
     1
 66
     0
 67
     4
 68
     1
 69
     0
 70
     0
 71
     0
 72
     0
 40
0.0
170
     2
340
0
  0
XRECORD
  5
1ADDA
102
{ACAD_REACTORS
330
C
102
}
330
C
100
AcDbXrecord
280
     1
 90
        1
330
87
330
1E6C
330
1E77
330
19576
330
1A358
330
1A366
330
1A36B
330
1A4A0
330
1A97A
330
1A980
330
1A986
330
1A98C
330
1A992
330
1AC2C
  0
DICTIONARY
  5
66
102
{ACAD_REACTORS
330
C
102
}
330
C
100
AcDbDictionary
281
     1
  3
CANNOSCALE
350
F0
  3
CMLEADERSTYLE
350
EF
  3
CTABLESTYLE
350
89
  3
CVIEWDETAILSTYLE
350
1AB71
  3
CVIEWSECTIONSTYLE
350
1AB72
  3
DIMASSOC
350
67
  3
HIDETEXT
350
6B
  3
LAYEREVAL
350
14D
  3
LAYERNOTIFY
350
14E
  3
LIGHTINGUNITS
350
11BB9
  3
MSLTSCALE
350
11BB8
  0
DICTIONARY
  5
1ADE2
102
{ACAD_REACTORS
330
C
102
}
330
C
100
AcDbDictionary
281
     1
  3
AcDsRecords
350
1ADE4
  3
AcDsSchemas
350
1ADE3
1001
ACAD
1070
     2
  0
DICTIONARY
  5
17F
102
{ACAD_REACTORS
330
C
102
}
330
C
100
AcDbDictionary
281
     1
  0
DICTIONARY
  5
1D6
102
{ACAD_REACTORS
330
1D5
102
}
330
1D5
100
AcDbDictionary
281
     1
  0
XRECORD
  5
1ADD5
102
{ACAD_REACTORS
330
1ADD4
102
}
330
1ADD4
100
AcDbXrecord
280
     1
 70
     1
340
B7
340
171
 70
    -1
  0
XRECORD
  5
1ADD8
102
{ACAD_REACTORS
330
1ADD7
102
}
330
1ADD7
100
AcDbXrecord
280
     1
 70
     1
340
B7
340
1DCB
 70
    -1
  0
SORTENTSTABLE
  5
195
102
{ACAD_REACTORS
330
15D
102
}
330
15D
100
AcDbSortentsTable
330
1F
331
1A654
  5
1A658
331
1A650
  5
1A654
331
1A68B
  5
1A7A3
331
1A64C
  5
1A650
331
1A648
  5
1A64C
331
1A5D9
  5
1A5DA
331
1A687
  5
1A6A3
331
1A683
  5
1A689
331
1A67F
  5
1A685
331
1A608
  5
1A60A
331
1A5C9
  5
1A5C9
331
1A604
  5
1A606
331
1A677
  5
1A67B
331
1A673
  5
1A677
331
1A66F
  5
1A673
331
1A66B
  5
1A66F
331
1A62C
  5
1A630
331
1A628
  5
1A62C
331
1A5F8
  5
1A5F9
331
1A5F4
  5
1A5F5
331
1A5F0
  5
1A5F1
331
1A667
  5
1A66B
331
1A663
  5
1A667
331
1A624
  5
1A628
331
1A65F
  5
1A663
331
1A620
  5
1A624
331
1A7A2
  5
1A7B2
331
1A65B
  5
1A65F
331
1A61C
  5
1A620
331
1A618
  5
1A61C
331
1A5EC
  5
1A5ED
331
1A6A2
  5
1A60D
331
1A5E8
  5
1A5E9
331
19AFA
  5
19AFA
331
1A657
  5
1A65B
331
1A653
  5
1A657
331
1A64F
  5
1A653
331
1A64B
  5
1A64F
331
1A5D8
  5
1A5D9
331
1A617
  5
1A61B
331
1A686
  5
1A69E
331
1A647
  5
1A64B
331
1A682
  5
1A688
331
1A67A
  5
1A682
331
1A60B
  5
1A60F
331
1A607
  5
1A609
331
1A603
  5
1A605
331
1A676
  5
1A67A
331
1A672
  5
1A676
331
1A66E
  5
1A672
331
1A62F
  5
1A633
331
1A7B1
  5
1A60E
331
1A66A
  5
1A66E
331
1A62B
  5
1A62F
331
1A5F3
  5
1A5F4
331
1A666
  5
1A66A
331
1A627
  5
1A62B
331
1A662
  5
1A666
331
1A623
  5
1A627
331
1A65E
  5
1A662
331
1A61F
  5
1A623
331
1A7A1
  5
1A67F
331
1A65A
  5
1A65E
331
1A5EF
  5
1A5F0
331
1A61B
  5
1A61F
331
1A5EB
  5
1A5EC
331
1A5E7
  5
1A5E8
331
1A656
  5
1A65A
331
1A652
  5
1A656
331
1A64E
  5
1A652
331
1A689
  5
1A6B8
331
1A64A
  5
1A64E
331
1A5DB
  5
1A5DC
331
1A5D7
  5
1A5D8
331
1A685
  5
1A68C
331
1A681
  5
1A687
331
1A67D
  5
1A684
331
1A679
  5
1A67E
331
1A60A
  5
1A60C
331
1A5CB
  5
1A5CB
331
1A606
  5
1A608
331
1A675
  5
1A679
331
1A671
  5
1A675
331
1A66D
  5
1A671
331
1A62E
  5
1A632
331
1A669
  5
1A66D
331
1A62A
  5
1A62E
331
1A7AC
  5
1A681
331
1A5F6
  5
1A5F7
331
1A5F2
  5
1A5F3
331
1A665
  5
1A669
331
1A626
  5
1A62A
331
1A661
  5
1A665
331
1A622
  5
1A626
331
1A65D
  5
1A661
331
1A61E
  5
1A622
331
1A659
  5
1A65D
331
1A61A
  5
1A61E
331
1A5EE
  5
1A5EF
331
1A5EA
  5
1A5EB
331
1A5E6
  5
1A5E7
331
1A655
  5
1A659
331
1A651
  5
1A655
331
1A68C
  5
1A7AD
331
1A64D
  5
1A651
331
1A649
  5
1A64D
331
1A5D6
  5
1A5D6
331
1A684
  5
1A68B
331
1A680
  5
1A686
331
1A937
  5
1A5D7
331
1A67C
  5
1A683
331
1A60D
  5
1A611
331
1A678
  5
1A67C
331
1A609
  5
1A60B
331
1A605
  5
1A607
331
1A674
  5
1A678
331
1A670
  5
1A674
331
1A631
  5
1A635
331
1A66C
  5
1A670
331
1A62D
  5
1A631
331
1A668
  5
1A66C
331
1A629
  5
1A62D
331
1A5F5
  5
1A5F6
331
1A5F1
  5
1A5F2
331
1A664
  5
1A668
331
1A625
  5
1A629
331
1A660
  5
1A664
331
1A621
  5
1A625
331
1A65C
  5
1A660
331
1A6A7
  5
1A604
331
1A61D
  5
1A621
331
1A658
  5
1A65C
331
1A5ED
  5
1A5EE
331
1A619
  5
1A61D
331
1A5E9
  5
1A5EA
331
1A5E5
  5
1A5E6
  0
SORTENTSTABLE
  5
19105
102
{ACAD_REACTORS
330
19104
102
}
330
19104
100
AcDbSortentsTable
330
1E4C
331
19575
  5
19575
331
19576
  5
19576
331
1E77
  5
1E8D
331
1E4E
  5
1E4E
331
1E51
  5
1E6C
331
1E6C
  5
1E7C
331
1E60
  5
1E77
331
196EB
  5
196EB
  0
SORTENTSTABLE
  5
1AC30
102
{ACAD_REACTORS
330
164D
102
}
330
164D
100
AcDbSortentsTable
330
1636
  0
XRECORD
  5
1AE22
102
{ACAD_REACTORS
330
1AC22
102
}
330
1AC22
100
AcDbXrecord
280
     1
 40
417025.0
  1
This drawing must be read in conjunction with all the Supercrete™ Soundfloor Design Guide
  0
XRECORD
  5
1ADD9
102
{ACAD_REACTORS
330
1AC2D
102
}
330
1AC2D
100
AcDbXrecord
280
     1
 40
73273.0
  1
\pxqc;SOUNDFLOOR CONSTRUCTION
  0
XRECORD
  5
1E50
102
{ACAD_REACTORS
330
1E4F
102
}
330
1E4F
100
AcDbXrecord
280
     1
 90
        1
340
B7
  0
XRECORD
  5
1E53
102
{ACAD_REACTORS
330
1E52
102
}
330
1E52
100
AcDbXrecord
280
     1
 90
        1
340
B7
  0
DICTIONARY
  5
1E6E
102
{ACAD_REACTORS
330
1E6D
102
}
330
1E6D
100
AcDbDictionary
281
     1
  3
ACDB_ANNOTATIONSCALES
350
1E6F
  0
DICTIONARY
  5
1E79
102
{ACAD_REACTORS
330
1E78
102
}
330
1E78
100
AcDbDictionary
281
     1
  3
ACDB_ANNOTATIONSCALES
350
1E7A
  0
DICTIONARY
  5
19578
102
{ACAD_REACTORS
330
19577
102
}
330
19577
100
AcDbDictionary
281
     1
  3
ACDB_ANNOTATIONSCALES
350
19579
  0
XRECORD
  5
1AE0B
102
{ACAD_REACTORS
330
1AB56
102
}
330
1AB56
100
AcDbXrecord
280
     1
 40
164044.0
  1
Supercrete{\fScript MT Bold|b0|i1|c0|p66;™} Soundfloor 
  0
DICTIONARY
  5
1A35A
102
{ACAD_REACTORS
330
1A359
102
}
330
1A359
100
AcDbDictionary
281
     1
  3
ACDB_ANNOTATIONSCALES
350
1A35B
  0
XRECORD
  5
1AE0C
102
{ACAD_REACTORS
330
1AB58
102
}
330
1AB58
100
AcDbXrecord
280
     1
 40
703471.0
  1
Supercoat{\fScript MT Bold|b0|i1|c0|p66;™} Tanking Membrane Plain applied to floor, over rod and up wall behind lining
  0
DICTIONARY
  5
1A368
102
{ACAD_REACTORS
330
1A367
102
}
330
1A367
100
AcDbDictionary
281
     1
  3
ACDB_ANNOTATIONSCALES
350
1A369
  0
DICTIONARY
  5
1A36D
102
{ACAD_REACTORS
330
1A36C
102
}
330
1A36C
100
AcDbDictionary
281
     1
  3
ACDB_ANNOTATIONSCALES
350
1A36E
  0
DICTIONARY
  5
1A4A2
102
{ACAD_REACTORS
330
1A4A1
102
}
330
1A4A1
100
AcDbDictionary
281
     1
  3
ACDB_ANNOTATIONSCALES
350
1A4A3
  0
XRECORD
  5
1AE0D
102
{ACAD_REACTORS
330
1AB5A
102
}
330
1AB5A
100
AcDbXrecord
280
     1
 40
411779.0
  1
Supercrete{\fScript MT Bold|b0|i1|c0|p66;™\fMS Shell Dlg|b0|i1|c0|p0;\H0.70833x; }Soundfloor
  0
DICTIONARY
  5
1A97C
102
{ACAD_REACTORS
330
1A97B
102
}
330
1A97B
100
AcDbDictionary
281
     1
  3
ACDB_ANNOTATIONSCALES
350
1A97D
  0
DICTIONARY
  5
1A982
102
{ACAD_REACTORS
330
1A981
102
}
330
1A981
100
AcDbDictionary
281
     1
  3
ACDB_ANNOTATIONSCALES
350
1A983
  0
DICTIONARY
  5
1A988
102
{ACAD_REACTORS
330
1A987
102
}
330
1A987
100
AcDbDictionary
281
     1
  3
ACDB_ANNOTATIONSCALES
350
1A989
  0
DICTIONARY
  5
1A98E
102
{ACAD_REACTORS
330
1A98D
102
}
330
1A98D
100
AcDbDictionary
281
     1
  3
ACDB_ANNOTATIONSCALES
350
1A98F
  0
DICTIONARY
  5
1A994
102
{ACAD_REACTORS
330
1A993
102
}
330
1A993
100
AcDbDictionary
281
     1
  3
ACDB_ANNOTATIONSCALES
350
1A995
  0
XRECORD
  5
1AE24
102
{ACAD_REACTORS
330
1AD1D
102
}
330
1AD1D
100
AcDbXrecord
280
     1
 40
274088.0
  1
{\fTahoma|b1|i0|c0|p34;\C7;Copyright © Superbuild International Ltd 2013}
  0
XRECORD
  5
1ADDC
102
{ACAD_REACTORS
330
1ADDB
102
}
330
1ADDB
100
AcDbXrecord
280
     1
 40
10.0
  0
ACDBDETAILVIEWSTYLE
  5
1AADA
102
{ACAD_REACTORS
330
1AAD9
102
}
330
1AAD9
100
AcDbModelDocViewStyle
 70
     0
  3
Imperial24
290
     0
100
AcDbDetailViewStyle
 70
     0
 71
     0
 90
        3
 71
     1
340
11
 62
   256
 40
0.24
340
0
 62
   256
 40
0.24
300

 40
0.36
280
     3
 71
     2
340
16
 90
       25
 62
   256
 71
     3
340
11
 62
   256
 40
0.24
 90
        1
 40
0.75
 90
        1
300
%<\AcVar ViewType \f "%tc1">% %<\AcVar ViewDetailId>%\PSCALE %<\AcVar ViewScale \f "%sn">%
 71
     4
340
16
 90
       25
 62
   256
340
16
 90
       25
 62
   256
280
     0
  0
IMAGEDEF
  5
1652
102
{ACAD_REACTORS
330
1651
102
}
330
1651
100
AcDbRasterImageDef
 90
        0
  1
M:\Autocad\CAD Library\Hebel Supercrete Logo.jpg
 10
5906.0
 20
3360.0
 11
0.0846666666666667
 21
0.0846666666666667
280
     1
281
     5
  0
IMAGEDEF
  5
1653
102
{ACAD_REACTORS
330
1651
102
}
330
1651
100
AcDbRasterImageDef
 90
        0
  1
C:\Documents and Settings\Dennis\My Documents\CAD-DATA\Hebel Supercrete Logo.jpg
 10
5906.0
 20
3360.0
 11
0.0846666666666667
 21
0.0846666666666667
280
     1
281
     5
  0
IMAGEDEF
  5
1AB1C
102
{ACAD_REACTORS
330
1651
330
1AC2F
102
}
330
1651
100
AcDbRasterImageDef
 90
        0
  1
M:\LOGISTICS and PRICING\logos & letter head\Graphics\Hebel Letterheads & Logos\Supercrete Hi Res.jpg
 10
1367.0
 20
308.0
 11
0.0846666666666667
 21
0.0846666666666667
280
     1
281
     5
  0
LAYOUT
  5
1E9F
102
{ACAD_XDICTIONARY
360
1EA0
102
}
102
{ACAD_REACTORS
330
1A
102
}
330
1A
100
AcDbPlotSettings
  1

  2
Adobe PDF.pc3
  4
A4
  6

 40
3.174999952316284
 41
3.174999952316284
 42
3.175003051757812
 43
3.17498779296875
 44
209.9733276367187
 45
297.0318298339844
 46
0.0
 47
0.0
 48
0.0
 49
0.0
140
0.0
141
0.0
142
1.0
143
1.0
 70
   672
 72
     1
 73
     0
 74
     5
  7
Hebel monochrome.ctb
 75
    16
147
25.4
 76
     0
 77
     2
 78
   300
148
0.0
149
0.0
100
AcDbLayout
  1
3.7.3
 70
     0
 71
     1
 10
-3.174999952316284
 20
-3.174999952316284
 11
206.7983276844024
 21
293.8568298816681
 12
0.0
 22
0.0
 32
0.0
 14
8.176555417592453
 24
6.832420799032661
 34
-0.0000000000112498
 15
198.3783772200425
 25
283.4641610999487
 35
0.0000000000002956
146
0.0
 13
0.0
 23
0.0
 33
0.0
 16
1.0
 26
0.0
 36
0.0
 17
0.0
 27
1.0
 37
0.0
 76
     0
330
1E4C
331
1E4E
1001
ACAD_PSEXT
1000
Adobe PDF.pc3
1000
Adobe PDF Converter
1000
Documents\*.pdf
1000

1070
     0
  0
LAYOUT
  5
22
102
{ACAD_REACTORS
330
1A
102
}
330
1A
100
AcDbPlotSettings
  1

  2
none_device
  4
ANSI_A_(8.50_x_11.00_Inches)
  6

 40
6.349999904632568
 41
19.04999923706055
 42
6.350006103515625
 43
19.04998779296875
 44
215.8999938964844
 45
279.3999938964844
 46
0.0
 47
0.0
 48
0.0
 49
0.0
140
0.0
141
0.0
142
1.0
143
2.584895464708373
 70
 11952
 72
     0
 73
     1
 74
     0
  7

 75
     0
147
0.3868628397755418
 76
     0
 77
     2
 78
   300
148
0.0
149
0.0
100
AcDbLayout
  1
Model
 70
     1
 71
     0
 10
0.0
 20
0.0
 11
12.0
 21
9.0
 12
0.0
 22
0.0
 32
0.0
 14
0.0
 24
0.0
 34
0.0
 15
0.0
 25
0.0
 35
0.0
146
0.0
 13
0.0
 23
0.0
 33
0.0
 16
1.0
 26
0.0
 36
0.0
 17
0.0
 27
1.0
 37
0.0
 76
     0
330
1F
331
94
  0
MATERIAL
  5
97
102
{ACAD_XDICTIONARY
360
1ADE8
102
}
102
{ACAD_REACTORS
330
72
102
}
330
72
100
AcDbMaterial
  1
ByBlock
  0
MATERIAL
  5
96
102
{ACAD_XDICTIONARY
360
1ADE6
102
}
102
{ACAD_REACTORS
330
72
102
}
330
72
100
AcDbMaterial
  1
ByLayer
  0
MATERIAL
  5
98
102
{ACAD_XDICTIONARY
360
110
102
}
102
{ACAD_REACTORS
330
72
102
}
330
72
100
AcDbMaterial
  1
Global
 43
0.0208000000566244
 43
0.0
 43
0.0
 43
0.0
 43
0.0
 43
0.0208000000566244
 43
0.0
 43
0.0
 43
0.0
 43
0.0
 43
1.0
 43
0.0
 43
0.0
 43
0.0
 43
0.0
 43
1.0
 49
0.0208000000566244
 49
0.0
 49
0.0
 49
0.0
 49
0.0
 49
0.0208000000566244
 49
0.0
 49
0.0
 49
0.0
 49
0.0
 49
1.0
 49
0.0
 49
0.0
 49
0.0
 49
0.0
 49
1.0
142
0.0208000000566244
142
0.0
142
0.0
142
0.0
142
0.0
142
0.0208000000566244
142
0.0
142
0.0
142
0.0
142
0.0
142
1.0
142
0.0
142
0.0
142
0.0
142
0.0
142
1.0
144
0.0208000000566244
144
0.0
144
0.0
144
0.0
144
0.0
144
0.0208000000566244
144
0.0
144
0.0
144
0.0
144
0.0
144
1.0
144
0.0
144
0.0
144
0.0
144
0.0
144
1.0
1001
ACAD
1070
    -1
1070
     3
1070
     0
1000

1071
        0
1070
     0
  0
MLEADERSTYLE
  5
D8
102
{ACAD_REACTORS
330
D7
102
}
330
D7
100
AcDbMLeaderStyle
170
     2
171
     1
172
     0
 90
        2
 40
0.0
 41
0.0
173
     1
 91
-1056964608
340
14
 92
       -2
290
     1
 42
0.09
291
     1
 43
0.36
  3
Standard
 44
0.18
300

342
11
174
     1
178
     1
175
     1
176
     0
 93
-1056964608
 45
0.18
292
     0
297
     0
 46
0.18
 94
-1056964608
 47
1.0
 49
1.0
140
1.0
293
     1
141
0.0
294
     1
177
     0
142
1.0
295
     0
296
     0
143
0.125
1001
ACAD_MLEADERVER
1070
     2
  0
MLINESTYLE
  5
18
102
{ACAD_REACTORS
330
17
102
}
330
17
100
AcDbMlineStyle
  2
STANDARD
 70
     0
  3

 62
   256
 51
90.0
 52
90.0
 71
     2
 49
0.5
 62
   256
  6
BYLAYER
 49
-0.5
 62
   256
  6
BYLAYER
  0
PLOTSETTINGS
  5
1DD4
102
{ACAD_REACTORS
330
19
102
}
330
19
100
AcDbPlotSettings
  1
A3_PDF
  2
Adobe PDF
  4
A4
  6

 40
3.174999952316284
 41
3.174999952316284
 42
3.175003051757812
 43
3.17498779296875
 44
209.9733276367187
 45
297.0318298339844
 46
0.0
 47
2.419603640926112
 48
132495.994355
 49
-42479.296146
140
140025.935292
141
-39421.803838
142
1.0
143
3.646511884082726
 70
  3764
 72
     1
 73
     0
 74
     1
  7
MyBW.ctb
 75
     0
147
0.2742346746119403
 76
     1
 77
     2
 78
   300
148
0.0453119052781403
149
60.0636080096233
1001
ACAD_PSEXT
1000
Adobe PDF
1000
Adobe PDF Converter
1000
Documents\*.pdf
1000

1070
     0
  0
ACDBPLACEHOLDER
  5
F
102
{ACAD_REACTORS
330
E
102
}
330
E
  0
SCALE
  5
B7
102
{ACAD_REACTORS
330
B6
102
}
330
B6
100
AcDbScale
 70
     0
300
1:1
140
1.0
141
1.0
290
     1
  0
SCALE
  5
124
102
{ACAD_REACTORS
330
B6
102
}
330
B6
100
AcDbScale
 70
     0
300
1:2
140
1.0
141
2.0
290
     0
  0
SCALE
  5
125
102
{ACAD_REACTORS
330
B6
102
}
330
B6
100
AcDbScale
 70
     0
300
1:4
140
1.0
141
4.0
290
     0
  0
SCALE
  5
126
102
{ACAD_REACTORS
330
B6
102
}
330
B6
100
AcDbScale
 70
     0
300
1:5
140
1.0
141
5.0
290
     0
  0
SCALE
  5
127
102
{ACAD_REACTORS
330
B6
102
}
330
B6
100
AcDbScale
 70
     0
300
1:8
140
1.0
141
8.0
290
     0
  0
SCALE
  5
128
102
{ACAD_REACTORS
330
B6
102
}
330
B6
100
AcDbScale
 70
     0
300
1:10
140
1.0
141
10.0
290
     0
  0
SCALE
  5
129
102
{ACAD_REACTORS
330
B6
102
}
330
B6
100
AcDbScale
 70
     0
300
1:16
140
1.0
141
16.0
290
     0
  0
SCALE
  5
12A
102
{ACAD_REACTORS
330
B6
102
}
330
B6
100
AcDbScale
 70
     0
300
1:20
140
1.0
141
20.0
290
     0
  0
SCALE
  5
12B
102
{ACAD_REACTORS
330
B6
102
}
330
B6
100
AcDbScale
 70
     0
300
1:30
140
1.0
141
30.0
290
     0
  0
SCALE
  5
12C
102
{ACAD_REACTORS
330
B6
102
}
330
B6
100
AcDbScale
 70
     0
300
1:40
140
1.0
141
40.0
290
     0
  0
SCALE
  5
12D
102
{ACAD_REACTORS
330
B6
102
}
330
B6
100
AcDbScale
 70
     0
300
1:50
140
1.0
141
50.0
290
     0
  0
SCALE
  5
12E
102
{ACAD_REACTORS
330
B6
102
}
330
B6
100
AcDbScale
 70
     0
300
1:100
140
1.0
141
100.0
290
     0
  0
SCALE
  5
12F
102
{ACAD_REACTORS
330
B6
102
}
330
B6
100
AcDbScale
 70
     0
300
2:1
140
2.0
141
1.0
290
     0
  0
SCALE
  5
130
102
{ACAD_REACTORS
330
B6
102
}
330
B6
100
AcDbScale
 70
     0
300
4:1
140
4.0
141
1.0
290
     0
  0
SCALE
  5
131
102
{ACAD_REACTORS
330
B6
102
}
330
B6
100
AcDbScale
 70
     0
300
8:1
140
8.0
141
1.0
290
     0
  0
SCALE
  5
132
102
{ACAD_REACTORS
330
B6
102
}
330
B6
100
AcDbScale
 70
     0
300
10:1
140
10.0
141
1.0
290
     0
  0
SCALE
  5
133
102
{ACAD_REACTORS
330
B6
102
}
330
B6
100
AcDbScale
 70
     0
300
100:1
140
100.0
141
1.0
290
     0
  0
SCALE
  5
134
102
{ACAD_REACTORS
330
B6
102
}
330
B6
100
AcDbScale
 70
     0
300
1/128" = 1'-0"
140
0.0078125
141
12.0
290
     0
  0
SCALE
  5
135
102
{ACAD_REACTORS
330
B6
102
}
330
B6
100
AcDbScale
 70
     0
300
1/64" = 1'-0"
140
0.015625
141
12.0
290
     0
  0
SCALE
  5
136
102
{ACAD_REACTORS
330
B6
102
}
330
B6
100
AcDbScale
 70
     0
300
1/32" = 1'-0"
140
0.03125
141
12.0
290
     0
  0
SCALE
  5
137
102
{ACAD_REACTORS
330
B6
102
}
330
B6
100
AcDbScale
 70
     0
300
1/16" = 1'-0"
140
0.0625
141
12.0
290
     0
  0
SCALE
  5
138
102
{ACAD_REACTORS
330
B6
102
}
330
B6
100
AcDbScale
 70
     0
300
3/32" = 1'-0"
140
0.09375
141
12.0
290
     0
  0
SCALE
  5
139
102
{ACAD_REACTORS
330
B6
102
}
330
B6
100
AcDbScale
 70
     0
300
1/8" = 1'-0"
140
0.125
141
12.0
290
     0
  0
SCALE
  5
13A
102
{ACAD_REACTORS
330
B6
102
}
330
B6
100
AcDbScale
 70
     0
300
3/16" = 1'-0"
140
0.1875
141
12.0
290
     0
  0
SCALE
  5
13B
102
{ACAD_REACTORS
330
B6
102
}
330
B6
100
AcDbScale
 70
     0
300
1/4" = 1'-0"
140
0.25
141
12.0
290
     0
  0
SCALE
  5
13C
102
{ACAD_REACTORS
330
B6
102
}
330
B6
100
AcDbScale
 70
     0
300
3/8" = 1'-0"
140
0.375
141
12.0
290
     0
  0
SCALE
  5
13D
102
{ACAD_REACTORS
330
B6
102
}
330
B6
100
AcDbScale
 70
     0
300
1/2" = 1'-0"
140
0.5
141
12.0
290
     0
  0
SCALE
  5
13E
102
{ACAD_REACTORS
330
B6
102
}
330
B6
100
AcDbScale
 70
     0
300
3/4" = 1'-0"
140
0.75
141
12.0
290
     0
  0
SCALE
  5
13F
102
{ACAD_REACTORS
330
B6
102
}
330
B6
100
AcDbScale
 70
     0
300
1" = 1'-0"
140
1.0
141
12.0
290
     0
  0
SCALE
  5
140
102
{ACAD_REACTORS
330
B6
102
}
330
B6
100
AcDbScale
 70
     0
300
1-1/2" = 1'-0"
140
1.5
141
12.0
290
     0
  0
SCALE
  5
141
102
{ACAD_REACTORS
330
B6
102
}
330
B6
100
AcDbScale
 70
     0
300
3" = 1'-0"
140
3.0
141
12.0
290
     0
  0
SCALE
  5
142
102
{ACAD_REACTORS
330
B6
102
}
330
B6
100
AcDbScale
 70
     0
300
6" = 1'-0"
140
6.0
141
12.0
290
     0
  0
SCALE
  5
143
102
{ACAD_REACTORS
330
B6
102
}
330
B6
100
AcDbScale
 70
     0
300
1'-0" = 1'-0"
140
12.0
141
12.0
290
     0
  0
ACDBSECTIONVIEWSTYLE
  5
1AAD8
102
{ACAD_REACTORS
330
1AAD6
102
}
330
1AAD6
100
AcDbModelDocViewStyle
 70
     0
  3
Imperial24
290
     0
100
AcDbSectionViewStyle
 70
     0
 71
     0
 90
       78
 71
     1
340
11
 62
   256
 40
0.24
340
0
340
0
 62
   256
 40
0.24
300
I, O, Q, S, X, Z
 40
0.48
 90
        3
 40
0.18
 90
        1
 71
     2
340
1AAD7
 90
       25
 62
   256
340
16
 90
       50
 62
   256
 40
0.24
 40
0.0
 40
0.24
 71
     3
340
11
 62
   256
 40
0.24
 90
        1
 40
0.75
 90
        1
300
%<\AcVar ViewType \f "%tc1">% %<\AcVar ViewSectionStartId>%-%<\AcVar ViewSectionEndId>%\PSCALE %<\AcVar ViewScale \f "%sn">%
 71
     4
 62
   256
 62
   257
300
ANSI31
 40
1.0
 90
        0
290
     0
290
     0
 90
        6
 40
0.0
 40
1.570796326794896
 40
0.2617993877991494
 40
1.308996938995747
 40
-0.2617993877991494
 40
1.832595714594046
  0
TABLESTYLE
  5
87
102
{ACAD_XDICTIONARY
360
104
102
}
102
{ACAD_REACTORS
330
86
102
}
330
86
100
AcDbTableStyle
  3
Standard
 70
     0
 71
     0
 40
0.06
 41
0.06
280
     0
281
     0
  7
Standard
140
0.18
170
     2
 62
     0
 63
     7
283
     0
274
    -2
284
     1
 64
     0
275
    -2
285
     1
 65
     0
276
    -2
286
     1
 66
     0
277
    -2
287
     1
 67
     0
278
    -2
288
     1
 68
     0
279
    -2
289
     1
 69
     0
  7
Standard
140
0.25
170
     5
 62
     0
 63
     7
283
     0
274
    -2
284
     1
 64
     0
275
    -2
285
     1
 65
     0
276
    -2
286
     1
 66
     0
277
    -2
287
     1
 67
     0
278
    -2
288
     1
 68
     0
279
    -2
289
     1
 69
     0
  7
Standard
140
0.18
170
     5
 62
     0
 63
     7
283
     0
274
    -2
284
     1
 64
     0
275
    -2
285
     1
 65
     0
276
    -2
286
     1
 66
     0
277
    -2
287
     1
 67
     0
278
    -2
288
     1
 68
     0
279
    -2
289
     1
 69
     0
  0
VISUALSTYLE
  5
9F
102
{ACAD_XDICTIONARY
360
1ADF5
102
}
102
{ACAD_REACTORS
330
99
102
}
330
99
100
AcDbVisualStyle
  2
2dWireframe
 70
     4
 71
     0
 72
     2
 73
     1
 90
        0
 40
-0.6
 41
-30.0
 62
     5
 63
     7
421
 16777215
 74
     1
 91
        4
 64
     7
 65
   257
 75
     1
175
     1
 42
1.0
 92
        0
 66
   257
 43
1.0
 76
     1
 77
     6
 78
     2
 67
     7
 79
     5
170
     0
171
     0
290
     0
174
     0
 93
        1
 44
0.0
173
     0
291
     0
 45
0.0
1001
ACAD
1000
AcDbSavedByObjectVersion
1070
     0
  0
VISUALSTYLE
  5
A1
102
{ACAD_XDICTIONARY
360
1ADF9
102
}
102
{ACAD_REACTORS
330
99
102
}
330
99
100
AcDbVisualStyle
  2
3D Hidden
 70
     6
 71
     1
 72
     2
 73
     2
 90
        0
 40
-0.6
 41
-30.0
 62
     5
 63
     7
421
 16777215
 74
     2
 91
        2
 64
     7
 65
   257
 75
     2
175
     1
 42
40.0
 92
        0
 66
   257
 43
1.0
 76
     1
 77
     6
 78
     2
 67
     7
 79
     3
170
     0
171
     0
290
     0
174
     0
 93
        1
 44
0.0
173
     0
291
     0
 45
0.0
1001
ACAD
1000
AcDbSavedByObjectVersion
1070
     0
  0
VISUALSTYLE
  5
A0
102
{ACAD_XDICTIONARY
360
1ADF7
102
}
102
{ACAD_REACTORS
330
99
102
}
330
99
100
AcDbVisualStyle
  2
3dWireframe
 70
     5
 71
     0
 72
     2
 73
     1
 90
        0
 40
-0.6
 41
-30.0
 62
     5
 63
     7
421
 16777215
 74
     1
 91
        4
 64
     7
 65
   257
 75
     1
175
     1
 42
1.0
 92
        0
 66
   257
 43
1.0
 76
     1
 77
     6
 78
     2
 67
     7
 79
     5
170
     0
171
     0
290
     0
174
     0
 93
        1
 44
0.0
173
     0
291
     0
 45
0.0
1001
ACAD
1000
AcDbSavedByObjectVersion
1070
     0
  0
VISUALSTYLE
  5
9E
102
{ACAD_XDICTIONARY
360
1ADF3
102
}
102
{ACAD_REACTORS
330
99
102
}
330
99
100
AcDbVisualStyle
  2
Basic
 70
     7
 71
     1
 72
     0
 73
     1
 90
        0
 40
-0.6
 41
-30.0
 62
     5
 63
     7
421
 16777215
 74
     0
 91
        4
 64
     7
 65
   257
 75
     1
175
     1
 42
1.0
 92
        8
 66
     7
 43
1.0
 76
     1
 77
     6
 78
     2
 67
     7
 79
     5
170
     0
171
     0
290
     0
174
     0
 93
        1
 44
0.0
173
     0
291
     1
 45
0.0
1001
ACAD
1000
AcDbSavedByObjectVersion
1070
     0
  0
VISUALSTYLE
  5
A5
102
{ACAD_XDICTIONARY
360
1AE01
102
}
102
{ACAD_REACTORS
330
99
102
}
330
99
100
AcDbVisualStyle
  2
Brighten
 70
    12
 71
     2
 72
     2
 73
     1
 90
        0
 40
-0.6
 41
-30.0
 62
     5
 63
     7
421
 16777215
 74
     1
 91
        4
 64
     7
 65
   257
 75
     1
175
     1
 42
1.0
 92
        8
 66
     7
 43
1.0
 76
     1
 77
     6
 78
     2
 67
     7
 79
     5
170
     0
171
     0
290
     0
174
     0
 93
        1
 44
50.0
173
     0
291
     1
 45
0.0
1001
ACAD
1000
AcDbSavedByObjectVersion
1070
     0
  0
VISUALSTYLE
  5
A9
102
{ACAD_XDICTIONARY
360
1AE09
102
}
102
{ACAD_REACTORS
330
99
102
}
330
99
100
AcDbVisualStyle
  2
ColorChange
 70
    16
 71
     2
 72
     2
 73
     3
 90
        0
 40
-0.6
 41
-30.0
 62
     5
 63
     8
421
  8421504
 74
     1
 91
        4
 64
     7
 65
   257
 75
     1
175
     1
 42
1.0
 92
        8
 66
     8
424
  8421504
 43
1.0
 76
     1
 77
     6
 78
     2
 67
     7
 79
     5
170
     0
171
     0
290
     0
174
     0
 93
        1
 44
0.0
173
     0
291
     1
 45
0.0
1001
ACAD
1000
AcDbSavedByObjectVersion
1070
     0
  0
VISUALSTYLE
  5
A2
102
{ACAD_XDICTIONARY
360
1ADFB
102
}
102
{ACAD_REACTORS
330
99
102
}
330
99
100
AcDbVisualStyle
  2
Conceptual
 70
     9
 71
     3
 72
     2
 73
     1
 90
        0
 40
-0.6
 41
-30.0
 62
     5
 63
     7
421
 16777215
 74
     2
 91
        2
 64
     7
 65
   257
 75
     1
175
     1
 42
40.0
 92
        8
 66
     7
 43
1.0
 76
     1
 77
     6
 78
     2
 67
     7
 79
     3
170
     0
171
     0
290
     0
174
     0
 93
        1
 44
0.0
173
     0
291
     0
 45
0.0
1001
ACAD
1000
AcDbSavedByObjectVersion
1070
     0
  0
VISUALSTYLE
  5
A4
102
{ACAD_XDICTIONARY
360
1ADFF
102
}
102
{ACAD_REACTORS
330
99
102
}
330
99
100
AcDbVisualStyle
  2
Dim
 70
    11
 71
     2
 72
     2
 73
     1
 90
        0
 40
-0.6
 41
-30.0
 62
     5
 63
     7
421
 16777215
 74
     1
 91
        4
 64
     7
 65
   257
 75
     1
175
     1
 42
1.0
 92
        8
 66
     7
 43
1.0
 76
     1
 77
     6
 78
     2
 67
     7
 79
     5
170
     0
171
     0
290
     0
174
     0
 93
        1
 44
-50.0
173
     0
291
     1
 45
0.0
1001
ACAD
1000
AcDbSavedByObjectVersion
1070
     0
  0
VISUALSTYLE
  5
1AAD5
102
{ACAD_XDICTIONARY
360
1AE20
102
}
102
{ACAD_REACTORS
330
99
102
}
330
99
100
AcDbVisualStyle
  2
EdgeColorOff
 70
    22
 71
     2
 72
     2
 73
     0
 90
        0
 40
-0.6
 41
-30.0
 62
     5
 63
     7
421
 16777215
 74
     1
 91
        4
 64
     7
 65
   257
 75
     1
175
     1
 42
1.0
 92
        8
 66
     7
 43
1.0
 76
     1
 77
     6
 78
     2
 67
     7
 79
     5
170
     0
171
     0
290
     0
174
     0
 93
        1
 44
0.0
173
     0
291
     1
 45
0.0
1001
ACAD
1000
AcDbSavedByObjectVersion
1070
     0
  0
VISUALSTYLE
  5
A8
102
{ACAD_XDICTIONARY
360
1AE07
102
}
102
{ACAD_REACTORS
330
99
102
}
330
99
100
AcDbVisualStyle
  2
Facepattern
 70
    15
 71
     2
 72
     2
 73
     1
 90
        0
 40
-0.6
 41
-30.0
 62
     5
 63
     7
421
 16777215
 74
     1
 91
        4
 64
     7
 65
   257
 75
     1
175
     1
 42
1.0
 92
        8
 66
     7
 43
1.0
 76
     1
 77
     6
 78
     2
 67
     7
 79
     5
170
     0
171
     0
290
     0
174
     0
 93
        1
 44
0.0
173
     0
291
     1
 45
0.0
1001
ACAD
1000
AcDbSavedByObjectVersion
1070
     0
  0
VISUALSTYLE
  5
9A
102
{ACAD_XDICTIONARY
360
1ADEB
102
}
102
{ACAD_REACTORS
330
99
102
}
330
99
100
AcDbVisualStyle
  2
Flat
 70
     0
 71
     2
 72
     1
 73
     1
 90
        2
 40
-0.6
 41
30.0
 62
     5
 63
     7
421
 16777215
 74
     0
 91
        4
 64
     7
 65
   257
 75
     1
175
     1
 42
1.0
 92
        8
 66
     7
 43
1.0
 76
     1
 77
     6
 78
     2
 67
     7
 79
     5
170
     0
171
     0
290
     0
174
     0
 93
        1
 44
0.0
173
     0
291
     1
 45
0.0
1001
ACAD
1000
AcDbSavedByObjectVersion
1070
     0
  0
VISUALSTYLE
  5
9B
102
{ACAD_XDICTIONARY
360
1ADED
102
}
102
{ACAD_REACTORS
330
99
102
}
330
99
100
AcDbVisualStyle
  2
FlatWithEdges
 70
     1
 71
     2
 72
     1
 73
     1
 90
        2
 40
-0.6
 41
30.0
 62
     5
 63
     7
421
 16777215
 74
     1
 91
        4
 64
     7
 65
   257
 75
     1
175
     1
 42
1.0
 92
        0
 66
   257
 43
1.0
 76
     1
 77
     6
 78
     2
 67
     7
 79
     5
170
     0
171
     0
290
     0
174
     0
 93
        1
 44
0.0
173
     0
291
     1
 45
0.0
1001
ACAD
1000
AcDbSavedByObjectVersion
1070
     0
  0
VISUALSTYLE
  5
9C
102
{ACAD_XDICTIONARY
360
1ADEF
102
}
102
{ACAD_REACTORS
330
99
102
}
330
99
100
AcDbVisualStyle
  2
Gouraud
 70
     2
 71
     2
 72
     2
 73
     1
 90
        2
 40
-0.6
 41
30.0
 62
     5
 63
     7
421
 16777215
 74
     0
 91
        4
 64
     7
 65
   257
 75
     1
175
     1
 42
1.0
 92
        0
 66
     7
 43
1.0
 76
     1
 77
     6
 78
     2
 67
     7
 79
     5
170
     0
171
     0
290
     0
174
     0
 93
        1
 44
0.0
173
     0
291
     1
 45
0.0
1001
ACAD
1000
AcDbSavedByObjectVersion
1070
     0
  0
VISUALSTYLE
  5
9D
102
{ACAD_XDICTIONARY
360
1ADF1
102
}
102
{ACAD_REACTORS
330
99
102
}
330
99
100
AcDbVisualStyle
  2
GouraudWithEdges
 70
     3
 71
     2
 72
     2
 73
     1
 90
        2
 40
-0.6
 41
30.0
 62
     5
 63
     7
421
 16777215
 74
     1
 91
        4
 64
     7
 65
   257
 75
     1
175
     1
 42
1.0
 92
        0
 66
   257
 43
1.0
 76
     1
 77
     6
 78
     2
 67
     7
 79
     5
170
     0
171
     0
290
     0
174
     0
 93
        1
 44
0.0
173
     0
291
     1
 45
0.0
1001
ACAD
1000
AcDbSavedByObjectVersion
1070
     0
  0
VISUALSTYLE
  5
1AACD
102
{ACAD_XDICTIONARY
360
1AE10
102
}
102
{ACAD_REACTORS
330
99
102
}
330
99
100
AcDbVisualStyle
  2
Hidden
 70
     6
 71
     1
 72
     2
 73
     2
 90
        0
 40
-0.6
 41
-30.0
 62
     5
 63
     7
421
 16777215
 74
     2
 91
        2
 64
     7
 65
   257
 75
     2
175
     1
 42
40.0
 92
        0
 66
   257
 43
1.0
 76
     1
 77
     6
 78
     2
 67
     7
 79
     3
170
     0
171
     0
290
     0
174
     0
 93
        1
 44
0.0
173
     0
291
     0
 45
0.0
1001
ACAD
1000
AcDbSavedByObjectVersion
1070
     0
  0
VISUALSTYLE
  5
1AAD3
102
{ACAD_XDICTIONARY
360
1AE1C
102
}
102
{ACAD_REACTORS
330
99
102
}
330
99
100
AcDbVisualStyle
  2
JitterOff
 70
    20
 71
     2
 72
     2
 73
     0
 90
        0
 40
-0.6
 41
-30.0
 62
     5
 63
     7
421
 16777215
 74
     1
 91
        4
 64
     7
 65
   257
 75
     1
175
     1
 42
1.0
 92
       10
 66
     7
 43
1.0
 76
     1
 77
     6
 78
     2
 67
     7
 79
     5
170
     0
171
     0
290
     0
174
     0
 93
        1
 44
0.0
173
     0
291
     1
 45
0.0
1001
ACAD
1000
AcDbSavedByObjectVersion
1070
     0
  0
VISUALSTYLE
  5
A7
102
{ACAD_XDICTIONARY
360
1AE05
102
}
102
{ACAD_REACTORS
330
99
102
}
330
99
100
AcDbVisualStyle
  2
Linepattern
 70
    14
 71
     2
 72
     2
 73
     1
 90
        0
 40
-0.6
 41
-30.0
 62
     5
 63
     7
421
 16777215
 74
     1
 91
        4
 64
     7
 65
   257
 75
     7
175
     7
 42
1.0
 92
        8
 66
     7
 43
1.0
 76
     1
 77
     6
 78
     2
 67
     7
 79
     5
170
     0
171
     0
290
     0
174
     0
 93
        1
 44
0.0
173
     0
291
     1
 45
0.0
1001
ACAD
1000
AcDbSavedByObjectVersion
1070
     0
  0
VISUALSTYLE
  5
1AAD4
102
{ACAD_XDICTIONARY
360
1AE1E
102
}
102
{ACAD_REACTORS
330
99
102
}
330
99
100
AcDbVisualStyle
  2
OverhangOff
 70
    21
 71
     2
 72
     2
 73
     0
 90
        0
 40
-0.6
 41
-30.0
 62
     5
 63
     7
421
 16777215
 74
     1
 91
        4
 64
     7
 65
   257
 75
     1
175
     1
 42
1.0
 92
        9
 66
     7
 43
1.0
 76
     1
 77
     6
 78
     2
 67
     7
 79
     5
170
     0
171
     0
290
     0
174
     0
 93
        1
 44
0.0
173
     0
291
     1
 45
0.0
1001
ACAD
1000
AcDbSavedByObjectVersion
1070
     0
  0
VISUALSTYLE
  5
A3
102
{ACAD_XDICTIONARY
360
1ADFD
102
}
102
{ACAD_REACTORS
330
99
102
}
330
99
100
AcDbVisualStyle
  2
Realistic
 70
     8
 71
     2
 72
     2
 73
     1
 90
        0
 40
-0.6
 41
-30.0
 62
     5
 63
     7
421
 16777215
 74
     1
 91
        0
 64
     7
 65
   257
 75
     1
175
     1
 42
1.0
 92
        8
 66
     8
424
  7895160
 43
1.0
 76
     1
 77
     6
 78
     2
 67
     7
 79
     5
170
     0
171
     0
290
     0
174
     0
 93
       13
 44
0.0
173
     0
291
     0
 45
0.0
1001
ACAD
1000
AcDbSavedByObjectVersion
1070
     0
  0
VISUALSTYLE
  5
1AAD2
102
{ACAD_XDICTIONARY
360
1AE1A
102
}
102
{ACAD_REACTORS
330
99
102
}
330
99
100
AcDbVisualStyle
  2
Shaded
 70
    27
 71
     2
 72
     2
 73
     1
 90
        2
 40
-0.6
 41
30.0
 62
     5
 63
     7
421
 16777215
 74
     0
 91
        4
 64
     7
 65
   257
 75
     1
175
     1
 42
1.0
 92
        8
 66
   257
 43
1.0
 76
     1
 77
     6
 78
     2
 67
     8
425
  7895160
 79
     3
170
     0
171
     0
290
     0
174
     0
 93
        5
 44
0.0
173
     0
291
     0
 45
0.0
1001
ACAD
1000
AcDbSavedByObjectVersion
1070
     0
  0
VISUALSTYLE
  5
1AAD1
102
{ACAD_XDICTIONARY
360
1AE18
102
}
102
{ACAD_REACTORS
330
99
102
}
330
99
100
AcDbVisualStyle
  2
Shaded with edges
 70
    26
 71
     2
 72
     2
 73
     1
 90
        2
 40
-0.6
 41
30.0
 62
     5
 63
     7
421
 16777215
 74
     1
 91
       10
 64
     7
 65
   257
 75
     2
175
     1
 42
1.0
 92
        8
 66
   257
 43
1.0
 76
     1
 77
     6
 78
     2
 67
     7
 79
     3
170
     0
171
     0
290
     0
174
     0
 93
        5
 44
0.0
173
     0
291
     0
 45
0.0
1001
ACAD
1000
AcDbSavedByObjectVersion
1070
     0
  0
VISUALSTYLE
  5
1AACE
102
{ACAD_XDICTIONARY
360
1AE12
102
}
102
{ACAD_REACTORS
330
99
102
}
330
99
100
AcDbVisualStyle
  2
Shades of Gray
 70
    23
 71
     2
 72
     2
 73
     3
 90
        0
 40
-0.6
 41
-30.0
 62
     5
 63
     7
421
 16777215
 74
     2
 91
        2
 64
     7
 65
     7
 75
     1
175
     1
 42
40.0
 92
        8
 66
     7
 43
1.0
 76
     1
 77
     6
 78
     2
 67
     7
 79
     3
170
     0
171
     0
290
     0
174
     0
 93
        1
 44
0.0
173
     0
291
     0
 45
0.0
1001
ACAD
1000
AcDbSavedByObjectVersion
1070
     0
  0
VISUALSTYLE
  5
1AACF
102
{ACAD_XDICTIONARY
360
1AE14
102
}
102
{ACAD_REACTORS
330
99
102
}
330
99
100
AcDbVisualStyle
  2
Sketchy
 70
    24
 71
     1
 72
     2
 73
     2
 90
        0
 40
-0.6
 41
-30.0
 62
     5
 63
     7
421
 16777215
 74
     2
 91
        2
 64
     7
 65
     7
 75
     1
175
     1
 42
40.0
 92
       11
 66
     7
 43
1.0
 76
     1
 77
     6
 78
     2
 67
     7
 79
     6
170
     0
171
     0
290
     0
174
     0
 93
        1
 44
0.0
173
     0
291
     0
 45
0.0
1001
ACAD
1000
AcDbSavedByObjectVersion
1070
     0
  0
VISUALSTYLE
  5
A6
102
{ACAD_XDICTIONARY
360
1AE03
102
}
102
{ACAD_REACTORS
330
99
102
}
330
99
100
AcDbVisualStyle
  2
Thicken
 70
    13
 71
     2
 72
     2
 73
     1
 90
        0
 40
-0.6
 41
-30.0
 62
     5
 63
     7
421
 16777215
 74
     1
 91
        4
 64
     7
 65
   257
 75
     1
175
     1
 42
1.0
 92
       12
 66
     7
 43
1.0
 76
     1
 77
     6
 78
     2
 67
     7
 79
     5
170
     0
171
     0
290
     0
174
     0
 93
        1
 44
0.0
173
     0
291
     1
 45
0.0
1001
ACAD
1000
AcDbSavedByObjectVersion
1070
     0
  0
VISUALSTYLE
  5
1AACC
102
{ACAD_XDICTIONARY
360
1AE0E
102
}
102
{ACAD_REACTORS
330
99
102
}
330
99
100
AcDbVisualStyle
  2
Wireframe
 70
     5
 71
     0
 72
     2
 73
     0
 90
        0
 40
-0.6
 41
-30.0
 62
     5
 63
     7
421
 16777215
 74
     1
 91
        4
 64
     7
 65
   257
 75
     1
175
     1
 42
1.0
 92
        0
 66
   257
 43
1.0
 76
     1
 77
     6
 78
     2
 67
     7
 79
     3
170
     0
171
     0
290
     0
174
     0
 93
        1
 44
0.0
173
     0
291
     0
 45
0.0
1001
ACAD
1000
AcDbSavedByObjectVersion
1070
     0
  0
VISUALSTYLE
  5
1AAD0
102
{ACAD_XDICTIONARY
360
1AE16
102
}
102
{ACAD_REACTORS
330
99
102
}
330
99
100
AcDbVisualStyle
  2
X-Ray
 70
    25
 71
     2
 72
     2
 73
     1
 90
        1
 40
0.5
 41
-30.0
 62
     5
 63
     7
421
 16777215
 74
     1
 91
        0
 64
     7
 65
   257
 75
     1
175
     1
 42
1.0
 92
        8
 66
     7
 43
1.0
 76
     1
 77
     6
 78
     2
 67
     7
 79
     3
170
     0
171
     0
290
     0
174
     0
 93
       13
 44
0.0
173
     0
291
     0
 45
0.0
1001
ACAD
1000
AcDbSavedByObjectVersion
1070
     0
  0
DICTIONARYVAR
  5
F0
102
{ACAD_REACTORS
330
66
102
}
330
66
100
DictionaryVariables
280
     0
  1
1:1
  0
DICTIONARYVAR
  5
EF
102
{ACAD_REACTORS
330
66
102
}
330
66
100
DictionaryVariables
280
     0
  1
STANDARD
  0
DICTIONARYVAR
  5
89
102
{ACAD_REACTORS
330
66
102
}
330
66
100
DictionaryVariables
280
     0
  1
STANDARD
  0
DICTIONARYVAR
  5
1AB71
102
{ACAD_REACTORS
330
66
102
}
330
66
100
DictionaryVariables
280
     0
  1
Imperial24
  0
DICTIONARYVAR
  5
1AB72
102
{ACAD_REACTORS
330
66
102
}
330
66
100
DictionaryVariables
280
     0
  1
Imperial24
  0
DICTIONARYVAR
  5
67
102
{ACAD_REACTORS
330
66
102
}
330
66
100
DictionaryVariables
280
     0
  1
2
  0
DICTIONARYVAR
  5
6B
102
{ACAD_REACTORS
330
66
102
}
330
66
100
DictionaryVariables
280
     0
  1
1
  0
DICTIONARYVAR
  5
14D
102
{ACAD_REACTORS
330
66
102
}
330
66
100
DictionaryVariables
280
     0
  1
0
  0
DICTIONARYVAR
  5
14E
102
{ACAD_REACTORS
330
66
102
}
330
66
100
DictionaryVariables
280
     0
  1
0
  0
DICTIONARYVAR
  5
11BB9
102
{ACAD_REACTORS
330
66
102
}
330
66
100
DictionaryVariables
280
     0
  1
2
  0
DICTIONARYVAR
  5
11BB8
102
{ACAD_REACTORS
330
66
102
}
330
66
100
DictionaryVariables
280
     0
  1
1
  0
DICTIONARY
  5
1ADE4
102
{ACAD_REACTORS
330
1ADE2
102
}
330
1ADE2
100
AcDbDictionary
281
     1
  0
DICTIONARY
  5
1ADE3
102
{ACAD_REACTORS
330
1ADE2
102
}
330
1ADE2
100
AcDbDictionary
281
     1
  3
8796087942224
350
1ADDD
  3
8796087942240
350
1ADDE
  3
8796087942256
350
1ADDF
  3
8796087942272
350
1ADE0
  3
8796087942288
350
1ADE1
  0
DICTIONARY
  5
1E6F
102
{ACAD_REACTORS
330
1E6E
102
}
330
1E6E
100
AcDbDictionary
281
     1
  0
DICTIONARY
  5
1E7A
102
{ACAD_REACTORS
330
1E79
102
}
330
1E79
100
AcDbDictionary
281
     1
  0
DICTIONARY
  5
19579
102
{ACAD_REACTORS
330
19578
102
}
330
19578
100
AcDbDictionary
281
     1
  0
DICTIONARY
  5
1A35B
102
{ACAD_REACTORS
330
1A35A
102
}
330
1A35A
100
AcDbDictionary
281
     1
  0
DICTIONARY
  5
1A369
102
{ACAD_REACTORS
330
1A368
102
}
330
1A368
100
AcDbDictionary
281
     1
  0
DICTIONARY
  5
1A36E
102
{ACAD_REACTORS
330
1A36D
102
}
330
1A36D
100
AcDbDictionary
281
     1
  0
DICTIONARY
  5
1A4A3
102
{ACAD_REACTORS
330
1A4A2
102
}
330
1A4A2
100
AcDbDictionary
281
     1
  0
DICTIONARY
  5
1A97D
102
{ACAD_REACTORS
330
1A97C
102
}
330
1A97C
100
AcDbDictionary
281
     1
  0
DICTIONARY
  5
1A983
102
{ACAD_REACTORS
330
1A982
102
}
330
1A982
100
AcDbDictionary
281
     1
  0
DICTIONARY
  5
1A989
102
{ACAD_REACTORS
330
1A988
102
}
330
1A988
100
AcDbDictionary
281
     1
  0
DICTIONARY
  5
1A98F
102
{ACAD_REACTORS
330
1A98E
102
}
330
1A98E
100
AcDbDictionary
281
     1
  0
DICTIONARY
  5
1A995
102
{ACAD_REACTORS
330
1A994
102
}
330
1A994
100
AcDbDictionary
281
     1
  0
DICTIONARY
  5
1EA0
330
1E9F
100
AcDbDictionary
280
     1
281
     1
  3
ADSK_XREC_LAYOUTTHUMBNAIL
360
1EA1
  0
DICTIONARY
  5
1ADE8
330
97
100
AcDbDictionary
280
     1
281
     1
  3
ACAD_XREC_ROUNDTRIP
360
1ADE9
  0
DICTIONARY
  5
1ADE6
330
96
100
AcDbDictionary
280
     1
281
     1
  3
ACAD_XREC_ROUNDTRIP
360
1ADE7
  0
DICTIONARY
  5
110
330
98
100
AcDbDictionary
280
     1
281
     1
  3
ACAD_XREC_ROUNDTRIP
360
1ADEA
  3
BUMPTILE
360
112
  3
DIFFUSETILE
360
111
  3
OPACITYTILE
360
113
  3
REFLECTIONTILE
360
114
  0
DICTIONARY
  5
104
330
87
100
AcDbDictionary
280
     1
281
     1
  3
ACAD_ROUNDTRIP_2008_TABLESTYLE_CELLSTYLEMAP
360
1ADD2
  3
ACAD_XREC_ROUNDTRIP
360
1ADE5
  0
DICTIONARY
  5
1ADF5
330
9F
100
AcDbDictionary
280
     1
281
     1
  3
ACAD_XREC_ROUNDTRIP
360
1ADF6
  0
DICTIONARY
  5
1ADF9
330
A1
100
AcDbDictionary
280
     1
281
     1
  3
ACAD_XREC_ROUNDTRIP
360
1ADFA
  0
DICTIONARY
  5
1ADF7
330
A0
100
AcDbDictionary
280
     1
281
     1
  3
ACAD_XREC_ROUNDTRIP
360
1ADF8
  0
DICTIONARY
  5
1ADF3
330
9E
100
AcDbDictionary
280
     1
281
     1
  3
ACAD_XREC_ROUNDTRIP
360
1ADF4
  0
DICTIONARY
  5
1AE01
330
A5
100
AcDbDictionary
280
     1
281
     1
  3
ACAD_XREC_ROUNDTRIP
360
1AE02
  0
DICTIONARY
  5
1AE09
330
A9
100
AcDbDictionary
280
     1
281
     1
  3
ACAD_XREC_ROUNDTRIP
360
1AE0A
  0
DICTIONARY
  5
1ADFB
330
A2
100
AcDbDictionary
280
     1
281
     1
  3
ACAD_XREC_ROUNDTRIP
360
1ADFC
  0
DICTIONARY
  5
1ADFF
330
A4
100
AcDbDictionary
280
     1
281
     1
  3
ACAD_XREC_ROUNDTRIP
360
1AE00
  0
DICTIONARY
  5
1AE20
330
1AAD5
100
AcDbDictionary
280
     1
281
     1
  3
ACAD_XREC_ROUNDTRIP
360
1AE21
  0
DICTIONARY
  5
1AE07
330
A8
100
AcDbDictionary
280
     1
281
     1
  3
ACAD_XREC_ROUNDTRIP
360
1AE08
  0
DICTIONARY
  5
1ADEB
330
9A
100
AcDbDictionary
280
     1
281
     1
  3
ACAD_XREC_ROUNDTRIP
360
1ADEC
  0
DICTIONARY
  5
1ADED
330
9B
100
AcDbDictionary
280
     1
281
     1
  3
ACAD_XREC_ROUNDTRIP
360
1ADEE
  0
DICTIONARY
  5
1ADEF
330
9C
100
AcDbDictionary
280
     1
281
     1
  3
ACAD_XREC_ROUNDTRIP
360
1ADF0
  0
DICTIONARY
  5
1ADF1
330
9D
100
AcDbDictionary
280
     1
281
     1
  3
ACAD_XREC_ROUNDTRIP
360
1ADF2
  0
DICTIONARY
  5
1AE10
330
1AACD
100
AcDbDictionary
280
     1
281
     1
  3
ACAD_XREC_ROUNDTRIP
360
1AE11
  0
DICTIONARY
  5
1AE1C
330
1AAD3
100
AcDbDictionary
280
     1
281
     1
  3
ACAD_XREC_ROUNDTRIP
360
1AE1D
  0
DICTIONARY
  5
1AE05
330
A7
100
AcDbDictionary
280
     1
281
     1
  3
ACAD_XREC_ROUNDTRIP
360
1AE06
  0
DICTIONARY
  5
1AE1E
330
1AAD4
100
AcDbDictionary
280
     1
281
     1
  3
ACAD_XREC_ROUNDTRIP
360
1AE1F
  0
DICTIONARY
  5
1ADFD
330
A3
100
AcDbDictionary
280
     1
281
     1
  3
ACAD_XREC_ROUNDTRIP
360
1ADFE
  0
DICTIONARY
  5
1AE1A
330
1AAD2
100
AcDbDictionary
280
     1
281
     1
  3
ACAD_XREC_ROUNDTRIP
360
1AE1B
  0
DICTIONARY
  5
1AE18
330
1AAD1
100
AcDbDictionary
280
     1
281
     1
  3
ACAD_XREC_ROUNDTRIP
360
1AE19
  0
DICTIONARY
  5
1AE12
330
1AACE
100
AcDbDictionary
280
     1
281
     1
  3
ACAD_XREC_ROUNDTRIP
360
1AE13
  0
DICTIONARY
  5
1AE14
330
1AACF
100
AcDbDictionary
280
     1
281
     1
  3
ACAD_XREC_ROUNDTRIP
360
1AE15
  0
DICTIONARY
  5
1AE03
330
A6
100
AcDbDictionary
280
     1
281
     1
  3
ACAD_XREC_ROUNDTRIP
360
1AE04
  0
DICTIONARY
  5
1AE0E
330
1AACC
100
AcDbDictionary
280
     1
281
     1
  3
ACAD_XREC_ROUNDTRIP
360
1AE0F
  0
DICTIONARY
  5
1AE16
330
1AAD0
100
AcDbDictionary
280
     1
281
     1
  3
ACAD_XREC_ROUNDTRIP
360
1AE17
  0
XRECORD
  5
1ADDD
102
{ACAD_REACTORS
330
1ADE3
102
}
330
1ADE3
100
AcDbXrecord
280
     1
  1
AcDb_Thumbnail_Schema
102
{ATTRRECORD
341
1ADDE
  2
AcDbDs::TreatedAsObjectData
280
     1
291
     1
102
ATTRRECORD}
102
{ATTRRECORD
341
1ADDF
  2
AcDbDs::Legacy
280
     1
291
     1
102
ATTRRECORD}
  2
AcDbDs::ID
280
    10
 91
        8
102
{ATTRRECORD
341
1ADE0
  2
AcDs:Indexable
280
     1
291
     1
102
ATTRRECORD}
102
{ATTRRECORD
341
1ADE1
  2
AcDbDs::HandleAttribute
280
     7
282
     1
102
ATTRRECORD}
  2
Thumbnail_Data
280
    15
 91
        0
  0
XRECORD
  5
1ADDE
102
{ACAD_REACTORS
330
1ADE3
102
}
330
1ADE3
100
AcDbXrecord
280
     1
  1
AcDbDs::TreatedAsObjectDataSchema
  2
AcDbDs::TreatedAsObjectData
280
     1
 91
        0
  0
XRECORD
  5
1ADDF
102
{ACAD_REACTORS
330
1ADE3
102
}
330
1ADE3
100
AcDbXrecord
280
     1
  1
AcDbDs::LegacySchema
  2
AcDbDs::Legacy
280
     1
 91
        0
  0
XRECORD
  5
1ADE0
102
{ACAD_REACTORS
330
1ADE3
102
}
330
1ADE3
100
AcDbXrecord
280
     1
  1
AcDbDs::IndexedPropertySchema
  2
AcDs:Indexable
280
     1
 91
        0
  0
XRECORD
  5
1ADE1
102
{ACAD_REACTORS
330
1ADE3
102
}
330
1ADE3
100
AcDbXrecord
280
     1
  1
AcDbDs::HandleAttributeSchema
  2
AcDbDs::HandleAttribute
280
     7
 91
        1
284
     1
  0
XRECORD
  5
1EA1
102
{ACAD_REACTORS
330
1EA0
102
}
330
1EA0
100
AcDbXrecord
280
     1
310
28000000680000008C0000000100080000000000E038000001000000010000000001000000000000FFFFFF0000000052C8C8C8FF000000FF000000FF000000FF000000FF000000FF000000FF000000FF000000FF330000FF660000FF990000FFCC0000FFFF0000FF003300FF333300FF663300FF993300FFCC3300FFFF3300
310
FF006600FF336600FF666600FF996600FFCC6600FFFF6600FF009900FF339900FF669900FF999900FFCC9900FFFF9900FF00CC00FF33CC00FF66CC00FF99CC00FFCCCC00FFFFCC00FF00FF00FF33FF00FF66FF00FF99FF00FFCCFF00FFFFFF00FF000033FF330033FF660033FF990033FFCC0033FFFF0033FF003333FF3333
310
33FF663333FF993333FFCC3333FFFF3333FF006633FF336633FF666633FF996633FFCC6633FFFF6633FF009933FF339933FF669933FF999933FFCC9933FFFF9933FF00CC33FF33CC33FF66CC33FF99CC33FFCCCC33FFFFCC33FF00FF33FF33FF33FF66FF33FF99FF33FFCCFF33FFFFFF33FF000066FF330066FF660066FF99
310
0066FFCC0066FFFF0066FF003366FF333366FF663366FF993366FFCC3366FFFF3366FF006666FF336666FF666666FF996666FFCC6666FFFF6666FF009966FF339966FF669966FF999966FFCC9966FFFF9966FF00CC66FF33CC66FF66CC66FF99CC66FFCCCC66FFFFCC66FF00FF66FF33FF66FF66FF66FF99FF66FFCCFF66FF
310
FFFF66FF000099FF330099FF660099FF990099FFCC0099FFFF0099FF003399FF333399FF663399FF993399FFCC3399FFFF3399FF006699FF336699FF666699FF996699FFCC6699FFFF6699FF009999FF339999FF669999FF999999FFCC9999FFFF9999FF00CC99FF33CC99FF66CC99FF99CC99FFCCCC99FFFFCC99FF00FF99
310
FF33FF99FF66FF99FF99FF99FFCCFF99FFFFFF99FF0000CCFF3300CCFF6600CCFF9900CCFFCC00CCFFFF00CCFF0033CCFF3333CCFF6633CCFF9933CCFFCC33CCFFFF33CCFF0066CCFF3366CCFF6666CCFF9966CCFFCC66CCFFFF66CCFF0099CCFF3399CCFF6699CCFF9999CCFFCC99CCFFFF99CCFF00CCCCFF33CCCCFF66CC
310
CCFF99CCCCFFCCCCCCFFFFCCCCFF00FFCCFF33FFCCFF66FFCCFF99FFCCFFCCFFCCFFFFFFCCFF0000FFFF3300FFFF6600FFFF9900FFFFCC00FFFFFF00FFFF0033FFFF3333FFFF6633FFFF9933FFFFCC33FFFFFF33FFFF0066FFFF3366FFFF6666FFFF9966FFFFCC66FFFFFF66FFFF0099FFFF3399FFFF6699FFFF9999FFFFCC
310
99FFFFFF99FFFF00CCFFFF33CCFFFF66CCFFFF99CCFFFFCCCCFFFFFFCCFFFF00FFFFFF33FFFFFF66FFFFFF99FFFFFFCCFFFFFFFFFFFFFF000000FF0D0D0DFF1A1A1AFF282828FF353535FF434343FF505050FF5D5D5DFF6B6B6BFF787878FF868686FF939393FFA1A1A1FFAEAEAEFFBBBBBBFFC9C9C9FFD6D6D6FFE4E4E4FF
310
F1F1F1FFFFFFFFFF000000FF000000FF000000FF000000FF000000FF000000FF000000FF000000FF000000FF000000FF00000000000000000000000000000000000000000000000000000000000000000000000000000000000000000000000000000000000000000000000000000000000000000000000000000000000000
310
00000000000000000000000000000000000000000000000000000000000000000000000000000000000000000000000000000000000000000000000000000000000000000000000000000000000000000000000000000000000000000000000000000000000000000000000000000000000000000000000000000000000000
310
00000000000000000000000000000000000000000000000000000000000000000000000000000000000000000000000000000000000000000000000000000000000000000000000000000000000000000000000000000000000000000000000000000000000000000000000000000000000000000000000000000000000000
310
00000000000000000000000000000000000000000000000000000000000000000000000000000000000000000000000000000000000000000000000000000000000000000000000000000000000000000000000000000000000000000000000000000000000000000000000000000000000000000000000000000000000000
310
000000000000000000000000000000000000000000000000000000000000000000000000000000000000000000000000000000000000000000000000000000000000E2E2E2E2E2E2E2E2E2E2E2E2E2E2E2E2E2E2E2E2E2E2E2E2E2E2E2E2E2E2E2E2E2E2E2E2E2E2E2E2E2E2E2E2E2E2E2E2E2E2E2E2E2E2E2E2E2E2E2E2E2
310
E2E2E2E2E2E2E2E2E2E2E2E2E2E2E2E2E2E2E2E2E2E2E2E2E2E2E2E2E20000000000000000000000000000E2E2E2E2E2E2E2E2E2E2E2E2E2E2E2E2E2E2E2E2E2E2E2E2E2E2E2E2E2E2E2E2E2E2E2E2E2E2E2E2E2E2E2E2E2E2E2E2E2E2E2E2E2E2E2E2E2E2E2E2E2E2E2E2E2E2E2E2E2E2E2E2E2E2E2E2E2E2E2E2E2E2E2E2
310
E2E2E2E2E2E20000000000000000000000000000E2E200000000000000000000000000000000000000000000000000E2E20000E2E2E2E2E2E2E2E2E2E2E2E2E2E2E2E2E2E2E2E2E2E2E2E2E2E2E2E2E2E2E2E2E2E2E2E2E2E2E2E2E2E2E2E2E2E2E2E2E2E2E2000000000000E2E20000000000000000000000000000E2E200
310
000000000000000000000000000000000000000000000000E2E20000000000000000000000000000000000000000000000000000000000000000000000000000000000000000000000000000000000000000000000E2E20000000000000000000000000000E2E2000000E2E2E2E2E2E2E2E2E2E2E2E2E2E2E2E20000000000
310
00E2E2E2E2E2E2E2E2E2E2E2E2E2E2E2E2E2E2E2E2E2E2E2E2E2E2E2E2E2E2E2E2E2E2E2E2E2E2E2E2E2E2E2E2E2E2E2E2E2E2E2E2E2E2E2E2E2E2E2E2E2E2E20000000000000000000000000000E2E2000000E2E2E2E2E2E2E2E2E2E2E2E2E2E2E2E2000000000000E2E2E2E2E2E2E2E2E2E2E2E2E2E2E2E2E2E2E2E2E2E2
310
E2E2E2E2E2E2E2E2E2E2E2E2E2E2E2E2E2E2E2E2E2E2E2E2E2E2E2E2E2E2E2E2E2E2E2E2E2E2E2E2E20000000000000000000000000000E2E2000000E2E2E2E2E2E2E2E2E2E2E2E2E2E2E2E2000000000000E2E2E2E2E2E200E2E2E2E2E2E2E20000000000E2E2E2E2E2E20000E2E200000000000000000000E2E2E2E2E2E2
310
E2E20000E2E2E2E2E2E2000000000000E2E20000000000000000000000000000E2E200000000E2E2E2E2E2E2E2E2E2E2E2E2E2E200000000000000E2E20000000000000000000000000000000000E2E2000000000000000000000000000000000000E2E20000000000000000000000000000000000000000E2E20000000000
310
000000000000000000E2E200000000E2E2E2E2E2E2E2E2E2E2E2E2E2E200000000000000E2E2E2E2E2E2E2E2E2E2E2E2E2E2E2E2E2E2E2E2E2E2E2E2E2E2E2E2E2E2E2E2E2E2E2E2E2E2E2E2E2E2E2E2E2E2E2E2E2E2E2E2E2E2E2E2E2E2E2E2E2E2E20000000000000000000000000000E2E2E2E2E2E2E2E2E2E2E2E2E2E2
310
E2E2E2E2E2E2E2E2E2E2E2E2E2E2E2E2E2E2E2E2E2E2E2E2E2E2E2E2E2E2E2E2E2E2E2E2E2E2E2E2E2E2E2E2E2E2E2E2E2E2E2E2E2E2E2E2E2E2E2E2E2E2E2E2E2E2E2E2E2E2E2E2E2E2E2E20000000000000000000000000000E2A0BFA0BFA1BE00A1BFA0BFC4A1BFA1BEA1C59AC59BC59AC59BC4E2E20000000000000000
310
00000000000000000000000000E2E2E2E2E2E2E2E2E2E2E2E2E2E2E2E2E2E20000000000000000000000000000000000000000E2E20000000000000000000000000000E2F4000000000000BE00009B0000BE00BE00F4BFF4C400F400009BE2E2000000000000000000000000000000000000000000E2E2E2E2E2E2E2E2E2E2
310
E2E2E2E2E2E2E2E20000000000000000000000000000000000000000E2E20000000000000000000000000000E2A1F400F4BE0000A100F4000000A1F4BFA1F4C5000000F4C5F400E2E2000000000000000000E2E2E2E2E2E2E2E2E2E2E2E2E2E2E2E2E2E2E2E2E2E2E2E2E2E2E2E20000000000000000000000000000000000
310
0000000000E2E20000000000000000000000000000E2009BC50000000000F4A100BE0000C500000000F4F4BF000000F4E2E2E2E2E2000000000000E2E2E2E2E2E2E2E2E2E2E2E2E2E2E2E2E2E2E2E2E2E2E2E2E2E2E2E200000000000000000000000000000000000000000000E2E20000000000000000000000000000E2F4
310
0000A0BFC49BC59AC59AC59BC49BC59AC59AC59BC4F4A1BFC4E2E2E2E2E2000000000000E2E2E2E2E2E2E2E2E2E2E2E2E2E2E2E2E2E2E2E2E2E2E2E2E2E2E2E200000000000000000000000000000000000000000000E2E20000000000000000000000000000E2BEA1BFC49BC5BEC5A0BFC5C49BC5BEC5A0BFC5C49BC5BEC5
310
A0BFE2E20000000000000000000000000000000000000000000000000000000000000000000000000000000000000000000000000000000000000000000000E2E20000000000000000000000000000E2E2E2E2E2E2E2E2E2E2E2E2E2E2E2E2E2E2E2E2E2E2E2E2E2E2E2E2E2E2E2E2E2E2E2E2E2E2E2E2E2E2E2E2E2E2E2E2
310
E2E2E2E2E2E2E2E2E2E2E2E2E2E2E2E2E2E2E2E2E2E2E2E2E2E2E2E2E2E2E2E2E2E2E2E2E2E2E2E2E2E20000000000000000000000000000E2E2E2E2E2E2E2E2E2E2E2E2E2E2E2E2E2E2E2E2E2E2E2E2E2E2E2E2E2E2E2E2E2E2E2E2E2E2E2E2E2E2E2E2E2E2E2E2E2E2E2E2E2E2E2E2E2E2E2E2E2E2E2E2E2E2E2E2E2E2E2
310
E2E2E2E2E2E2E2E2E2E2E2E2E2E2E2E2E2E2E20000000000000000000000000000E2E20000000000000000000000000000000000000000000000000000000000000000000000000000000000000000000000000000000000000000000000000000000000000000000000000000000000000000000000000000E2E200000000
310
00000000000000000000E2E20000000000000000000000000000000000000000000000000000000000000000000000000000000000000000000000000000000000000000000000000000000000000000000000000000000000000000000000000000E2E20000000000000000000000000000E2E20000000000000000000000
310
000000000000000000000000000000000000000000000000000000000000000000000000000000000000000000000000000000000000000000000000000000000000000000000000000000E2E20000000000000000000000000000E2E200000000000000000000000000000000000000000000000000000000000000000000
310
00000000000000000000000000000000000000000000000000000000000000000000000000000000000000000000000000000000E2E20000000000000000000000000000E2E2000000000000000000000000000000000000000000000000000000000000000000000000000000000000000000000000000000000000000000
310
0000000000000000000000000000000000000000000000000000000000E2E20000000000000000000000000000E2E20000000000000000000000000000000000000000000000000000000000000000000000000000000000000000000000000000000000000000000000000000000000000000000000000000000000000000
310
000000000000E2E20000000000000000000000000000E2E20000000000000000000000000000000000000000000000000000000000000000000000000000000000000000000000000000000000000000000000000000000000000000000000000000000000000000000000000000E2E20000000000000000000000000000E2
310
E20000000000000000000000000000000000000000000000000000000000000000000000000000000000000000000000000000000000000000000000000000000000000000000000000000000000000000000000000000E2E20000000000000000000000000000E2E200000000000000000000000000000000000000000000
310
00000000000000000000000000000000000000000000000000000000000000000000000000000000000000000000000000000000000000000000000000000000E2E20000000000000000000000000000E2E2000000000000000000000000000000000000000000000000000000000000000000000000000000000000000000
310
0000000000000000000000000000000000000000000000000000000000000000000000000000000000E2E20000000000000000000000000000E2E20000000000000000000000000000000000000000000000000000000000000000000000000000000000000000000000000000000000000000000000000000000000000000
310
000000000000000000000000000000000000E2E20000000000000000000000000000E2E20000000000000000000000000000000000000000000000000000000000000000000000000000000000000000000000000000000000000000000000000000000000000000000000000000000000000000000000000000E2E2000000
310
0000000000000000000000E2E20000000000000000000000000000000000000000000000000000000000000000000000000000000000000000000000000000000000000000000000000000000000000000000000000000000000000000000000000000E2E20000000000000000000000000000E2E200000000000000000000
310
00000000000000000000000000000000000000000000000000000000000000000000000000000000000000000000000000000000000000000000000000000000000000000000000000000000E2E20000000000000000000000000000E2E2000000000000000000000000000000000000000000000000000000000000000000
310
0000000000000000000000000000000000000000000000000000000000000000000000000000000000000000000000000000000000E2E20000000000000000000000000000E2E20000000000000000000000000000000000000000000000000000000000000000000000000000000000000000000000000000000000000000
310
000000000000000000000000000000000000000000000000000000000000E2E20000000000000000000000000000E2E200000000000000000000000000000000000000000000000000000000000000000000000000000000000000000000000000000000000000000000000000000000000000000000000000000000000000
310
00000000000000E2E20000000000000000000000000000E2E20000000000000000000000000000000000000000000000000000000000000000000000000000000000000000000000000000000000000000000000000000000000000000000000000000000000000000000000000000E2E20000000000000000000000000000
310
E2E2C3C3C3C3C3C3C3C3C3C3C3C3C3C3C3C3C3C3C3C3C3C3C3C3C3C3C3C3C3C3C3C3C3C3C3C3C3C3C3C3C3C3C3C3C3C3C3C3C3C3C3C3C3C3C3C3C3C3C3C3C3C3C3C3C3C3C3C3C3C3C3C3C3C3C3C3C3C3C3C3C3C3C3C3C3C3E2E20000000000000000000000000000E2E2000000000000000000000000000000000000000000
310
0000000000000000000000000000000000000000000000000000000000000000000000000000000000000000000000000000000000000000000000000000000000E2E20000000000000000000000000000E2E20000000000000000000000000000000000000000000000000000000000000000000000000000000000000000
310
000000000000000000000000000000000000000000000000000000000000000000000000000000000000E2E20000000000000000000000000000E2E200000000000000000000000000000000000000000000000000000000000000000000000000000000000000000000000000000000000000000000000000000000000000
310
00000000000000000000000000000000000000E2E20000000000000000000000000000E2E20000000000000000000000000000000000000000000000000000000000000000000000000000000000000000000000000000000000000000000000000000000000000000000000000000000000000000000000000000E2E20000
310
000000000000000000000000E2E20000000000000000000000000000000000000000000000000000000000000000000000000000000000000000000000000000000000000000000000000000000000000000000000000000000000000000000000000000E2E20000000000000000000000000000E2E2000000000000000000
310
0000000000000000000000000000000000000000000000000000000000000000000000000000000000000000000000000000000000000000000000000000000000000000000000000000000000E2E20000000000000000000000000000E2E20000000000000000000000000000000000000000000000000000000000000000
310
000000000000000000000000000000000000000000000000000000000000000000000000000000000000000000000000000000000000E2E20000000000000000000000000000E2E200000000000000000000000000000000000000000000000000000000000000000000000000000000000000000000000000000000000000
310
00000000000000000000000000000000000000000000000000000000000000E2E20000000000000000000000000000E2E2000000000000000000000000000000000000000000000000000000000000000000000000000000000000000000000000000000000000000000000000000000000000000000000000000000000000
310
0000000000000000E2E20000000000000000000000000000E2E20000000000000000000000000000000000000000000000000000000000000000000000000000000000000000000000000000000000000000000000000000000000000000000000000000000000000000000000000000E2E200000000000000000000000000
310
00E2E20000000000000000000000000000000000000000000000000000000000000000000000000000000000000000000000000000000000000000000000000000000000000000000000000000000000000000000000000000E2E20000000000000000000000000000E2E20000000000000000000000000000000000000000
310
000000000000000000000000000000000000000000000000000000000000000000000000000000000000000000000000000000000000000000000000000000000000E2E20000000000000000000000000000E2E200000000000000000000000000000000000000000000000000000000000000000000000000000000000000
310
00000000000000000000000000000000000000000000000000000000000000000000000000000000000000E2E20000000000000000000000000000E2E2000000000000000000000000000000000000000000000000000000000000000000000000000000000000000000000000000000000000000000000000000000000000
310
0000000000000000000000000000000000000000E2E20000000000000000000000000000E2E20000000000000000000000000000000000000000000000000000000000000000000000000000000000000000000000000000000000000000000000000000000000000000000000000000000000000000000000000000E2E200
310
00000000000000000000000000E2E200000000000000000000000000000000000000000000000000E2E2E2E2E2E2E2E2E2E2000000000000000000000000000000000000000000000000000000000000000000000000000000000000000000000000000000E2E20000000000000000000000000000E2E20000000000000000
310
0000000000000000000000000000000000E2E2E2E2E2E2E2E2E2E2000000000000000000000000000000000000000000000000000000000000000000000000000000000000000000000000000000E2E20000000000000000000000000000E2E2000000000000000000000000000000000000000000000000000000000000E2
310
E2E2E2E20000000000000000000000000000000000000000000000E2E2E2E2E2E2E2E2E200000000000000000000000000000000000000E2E20000000000000000000000000000E2E2000000000000000000000000000000000000000000000000000000000000E2E2E2E2E200E2E20000000000000000E2E2E2E2E2E2E2E2
310
E2E2E200E2E2E2E2E2E2E2E2E200000000000000000000000000000000000000E2E20000000000000000000000000000E2E2000000000000000000000000E2E2E2E2E2E2E2E2E2E200000000000000000000000000000000E2E2000000000000E2E2E2E2E2E2E2E2E2E2E200E2E2E2E2E2E2E2E2E2E2E2E2E2E2E2E2E2E200
310
000000000000000000E2E20000000000000000000000000000E2E2000000000000000000000000E2E2E2E2E2E2E2E2E2E20000000000000000000000000000000000E20000000000E2E2E2E2E2E2E2E2E200000000E2E2E2E2E2E2E2E2E2E2E2E2E2E2E2E2E2E200000000000000000000E2E2000000000000000000000000
310
0000E2E2000000000000000000E2E2E2E2E2E2E2E2E2E2E2E2E2000000000000000000000000000000000000E2000000E2E2E2E2E2E2E2E2E2E200000000E2E2E2E2E2E2E2E2E2E2E2E2E2E2E2E2E2E2E2000000000000000000E2E20000000000000000000000000000E2E2000000000000000000E2E2E2E2E2E2E2E2E2E2
310
E2E2E2000000000000000000000000000000000000E2000000E200000000000000000000000000E2E2E2E2E2E2E2E2E2E2E2E2E2E2E2E2E2E2E2000000000000000000E2E20000000000000000000000000000E2E20000000000000000E2E2E2E2E2E2E2E2E2E2E2E2E2E200000000000000000000000000000000000000E2
310
0000E200000000000000000000000000E2E2E2E2E2E2E2E2E2E2E2E2E2E2E200000000000000000000000000E2E20000000000000000000000000000E2E20000000000000000E2E2E2E2E2E2E2E2E2E2E2E2E2E200E2E2E2000000000000000000000000000000E20000E200000000000000000000E2E2E2E2E2E2E2E2E2E2
310
E2E2E2E2E2E2E2E200000000000000000000000000E2E20000000000000000000000000000E2E20000000000000000000000000000000000DC58DC58DC000000E2E2000000000000000000000000DC58E2DCDCE2DC000000000000000000E200000000000000DC58DC58DC000000000000000000000000000000000000E2E2
310
0000000000000000000000000000E2E2000000000000E2E2E2E2E2E20000000000DC00DC00DC00000000E2E20000000000000000000000DC00E2DCDCE2DC0000000000000000E2E200000000000000DC00DC00DC000000000000000000000000000000000000E2E20000000000000000000000000000E2E2000000000000E2
310
E2E2E2E2E20000000000DC00DC00DC0000000000E20000000000000000000000DC00DCDCDCE2DC0000000000000000E20000000000000000DC00DC00DC000000000000000000000000000000000000E2E20000000000000000000000000000E2E200000000E2E2E2E2E2E2E2E2E20000000058DC58DC580000000000E20000
310
00000000000000000058DC58DC58DC580000000000000000E2000000000000000058DC58DC58000000000000000000000000000000000000E2E20000000000000000000000000000E2E200000000E2E2E2E2E2E2E2E2E20000000058DC58DC580000000000E2000000000000000000000058DC58DC58DC5800000000000000
310
00E2000000000000000058DC58DC58000000000000000000000000000000000000E2E20000000000000000000000000000E2E20000E2E2E2E2E2E2E2E2E2E2000000000058DC58DC58000000000000E20000000000000000000058DC58DC58DC580000000000000000E2000000000000000058DC58DC580000000000000000
310
00000000000000000000E2E20000000000000000000000000000E2E20000E2E2E2E2E2E2E2E2E2E200E2E2E20058DC58DC58000000000000E20000000000000000000058DC58DC58DC580000000000000000E2000000000000000058DC58DC58000000000000000000000000000000000000E2E20000000000000000000000
310
000000E2E2000000000000000000000000000000E2E2DC00DC00DC000000000000E200000000000000000000DC00DCDCDCBEDC00000000000000E2000000000000000000DC00DC00DC000000000000000000000000000000000000E2E20000000000000000000000000000E2E20000000000000000000000000000000000E2
310
00DC00DC000000000000E200000000000000000000DC00DCDCDCBEDC00000000000000E2E20000000000000000DC00DC00DC000000000000000000000000000000000000E2E20000000000000000000000000000E2E2E200E2E2E2E2E2E2000000E2E2E2E2E2E2E2E2DCBEDCBEBEBEBEBEBEE2BEBEBEBEBEBEBEBEBEBEDC58
310
DCBEDCBEDCBEBEBEBEBEBEBEE2BEBEBEBEBEBEBEBEBEDCBEDCBEDCE2E2E2E2E2E2E2E2E2000000E2E2E2E2C3C3E2E20000000000000000000000000000E2E2EC00E2E2E2E2E2E2E2E200ECECECECECECECE2BEBEBEBEBEBEBEBEBEBEBEBEBEBEBEBEBEBEBEBEBEBEBEBEBEBEBEBEBEBEBEBEBEBEBEBEBEBEBEBEE2BEBEBEBE
310
BEBEBE2DECECE2E2E2E2E2E2E2E2E200ECECECECC300E2E20000000000000000000000000000E2E2EC00E2E2E2E2E2E2E2E200ECECECECECECECECE2BEE2E2E2E2E2ECE2E2E2E2E2E2ECE2E2E2E2E2E2ECE2DCE2ECE2E2E2E2E2E2ECE2E2E2E2E2E2ECE2E2E2E2E2E2E2BE2DECECE2E2E2E2E2E2E2E2E200ECECECECC300E2
310
E20000000000000000000000000000E2E284000000000000000000008484848484840F0F0FBE00000000000000000000E200000000000000000000DC000000000000000000000000000000E2E2000000000028582D58DC00000000000000000000848484848400E2E20000000000000000000000000000E2E2848484848484
310
8484848484E28484848484BEBE0F000000000000000000000000E20000E2E2E200000000DC00000000000000000000000000000000E2000000000028DC2DDC2828C3C3C3C3C3C3C3C3C3C3C3C3C3C300E2E20000000000000000000000000000E2E20000000000000000000000E2000000000F00000F000000000000000000
310
000000E2E2E2E2E2E2000000000000000000000000E2E2E2E2E2000000E2E2000000000028842D84F028000000000000000000000000000000E2E20000000000000000000000000000E2E20000000000000000000000E2000000000F00000F000000000000000000000000000000000000000000000000000000000000E2E2
310
E2E2E2000000E200000000000028848484F028000000000000000000000000000000E2E20000000000000000000000000000E2E20000000000000000000000E2000000000F00000F0000000000000000000000000000000000000000000000000000E2E2E2E2E2E2E2E2E20000E2E200000000000028848484F02800000000
310
0000000000000000000000E2E20000000000000000000000000000E2E2E2E2E2E2E2000000000000E2E20000000F00000F0000000000000000000000000000000000000000000000000000E2E2E2E2E2E2E2E2E200E2E20000000000000028848484F028000000000000000000000000000000E2E200000000000000000000
310
00000000E2E2E2E2E2E2E2000000000000E2000000000F00E20F0000000000E2E2E2E2E2E2000000000000000000000000000000000000000000000000000000000000000000002884E284F028000000000000000000000000000000E2E20000000000000000000000000000E2E2E2E2E2E2E2E2E2E2E2E2E2E2000000000F
310
00E2E20000000000E2E2E2E2E2E2000000000000000000000000000000000000000000000000000000000000000000002884E284F028000000000000000000000000000000E2E20000000000000000000000000000E2E2E2E2E2E2E2E2E2E2E2000000000000000000E2E20000000000E2E2E2E2E2E2E2E2E2E2E2E2E2E2E2
310
E2E2E2E2E2E2E2E200000000000000000000000000000000000000E2000000000000000000000000000000000000E2E20000000000000000000000000000E2E200000000000000000000000000000000000000E20000000000E2E2E2E2E2E2E2E2E2E2E2E2E2E2E2E2E2E2E2E2E2E200000000000000000000000000000000
310
00000000E2000000000000000000000000000000000000E2E20000000000000000000000000000E2E200000000000000000000000000000000000000E2E200000000E2E2E2E2E2E2E2E2E2E2E2E2E2E2E2E2E2E2E2E2E2E2E200000000000000000000000000000000000000E2000000000000000000000000000000000000
310
E2E20000000000000000000000000000E2E20000000000000000000000000000000000000000E2E2000000E2E2E2E2E2E2E2E2E2E2E2E2E2E2E2E2E2E2E2E2E2E2E200000000000000000000000000000000000000E2000000000000000000000000000000000000E2E20000000000000000000000000000E2E20000000000
310
00000000000000000000000000000000E2E20000E2E2E2E2E2E2E2E2E2E2E2E2E2E2E2E2E2E2E2E2E2000000000000000000000000000000000000000000E2000000000000000000000000000000000000E2E20000000000000000000000000000E2E200000000000000000000000000000000000000000000E2E2E2E2E2E2
310
E2E2E2E2E2E2E2E2E2E2E2E2E2E2E2E2E2E2000000000000000000000000000000000000000000E2000000000000000000000000000000000000E2E20000000000000000000000000000E2E2000000000000000000000000000000000000000000000000000000000000000000000000000000000000000000000000000000
310
00000000000000000000000000000000E2000000000000000000000000000000000000E2E20000000000000000000000000000E2E2000000000000000000000000000000000000000000000000000000000000000000000000000000000000000000E2E2E2E2E2E2E2E2E2E2E2E2E2E2E2E2E2E2E2000000E2000000000000
310
000000000000000000000000E2E20000000000000000000000000000E2E2000000000000000000000000000000000000000000000000000000000000000000000000000000000000000000E2E2E2E2E2E2E2E2E2E2E2E2E2E2E2E2E2E2E2000000E2000000000000000000000000000000000000E2E2000000000000000000
310
0000000000E2E200000000000000000000000000000000000000000000000000000000000000000000000000000000000000000000E2E2E2E2E2E2E2E2E2E2E2E2E2E2E2E2E2E2000000E2000000000000000000000000000000000000E2E20000000000000000000000000000E2E200000000000000000000000000000000
310
000000000000000000000000000000000000000000000000000000000000E2E2E2E2E2E2E2E2E2E2E2E2E2E2E2E2E2E2000000E2000000000000000000000000000000000000E2E20000000000000000000000000000E2E2000000000000000000000000000000000000000000000000000000000000000000000000000000
310
0000000000000000E2E2E2E2E2E2E2E2E2E2E2E2E2E2E2E2E20000E2E2000000000000000000000000000000000000E2E20000000000000000000000000000E2E20000000000000000000000000000000000000000000000000000000000000000000000000000000000000000000000E2E2E2E2E2E2E2E2E2E2E2E2E2E2E2
310
E2E200E2E200000000000000000000000000000000000000E2E20000000000000000000000000000E2E200000000000000000000000000000000000000000000000000000000000000000000000000000000000000000000000000000000000000000000000000000000000000000000000000000000000000000000000000
310
00E2E20000000000000000000000000000E2E20000000000000000000000000000000000000000000000000000000000000000000000000000000000000000000000000000000000000000000000000000000000000000000000000000000000000000000000000000E2E20000000000000000000000000000E2E200000000
310
00000000000000000000000000000000000000000000000000000000000000000000000000000000000000000000000000000000000000000000000000000000000000000000000000000000000000000000E2E20000000000000000000000000000E2E2000000000000000000000000000000000000000000000000000000
310
0000000000000000000000000000000000000000000000000000000000000000000000000000000000000000000000000000000000000000000000E2E20000000000000000000000000000E2E20000000000000000000000000000000000000000000000000000000000000000000000000000000000000000000000000000
310
000000000000000000000000000000000000000000000000000000000000000000000000E2E20000000000000000000000000000E2E200000000000000000000000000000000000000000000000000000000000000000000000000000000000000000000000000000000000000000000000000000000000000000000000000
310
00000000000000000000000000E2E20000000000000000000000000000E2E20000000000000000000000000000000000000000000000000000000000000000000000000000000000000000000000000000000000000000000000000000000000000000000000000000000000000000000000000000E2E20000000000000000
310
000000000000E2E20000000000000000000000000000000000000000000000000000000000000000000000000000000000000000000000000000000000000000000000000000000000000000000000000000000000000000000000000000E2E20000000000000000000000000000E2E2000000000000000000000000000000
310
0000000000000000000000000000000000000000000000000000000000000000000000000000000000000000000000000000000000000000000000000000000000000000000000E2E20000000000000000000000000000E2E20000000000000000000000000000000000000000000000000000000000000000000000000000
310
000000000000000000000000000000000000000000000000000000000000000000000000000000000000000000000000E2E20000000000000000000000000000E2E200000000000000000000000000000000000000000000000000000000000000000000000000000000000000000000000000000000000000000000000000
310
00000000000000000000000000000000000000000000000000E2E20000000000000000000000000000E2E2000000000000000000000000000000000000000000000000000000000000000000000000000000000000000000000000000000000000000000000000000000000000000000000000000000000000000000000000
310
0000E2E20000000000000000000000000000E2E20000000000000000000000000000000000000000000000000000000000000000000000000000000000000000000000000000000000000000000000000000000000000000000000000000000000000000000000000000E2E20000000000000000000000000000E2E2000000
310
0000000000000000000000000000000000000000000000000000000000000000000000000000000000000000000000000000000000000000000000000000000000000000000000000000000000000000000000E2E20000000000000000000000000000E2E20000000000000000000000000000000000000000000000000000
310
000000000000000000000000000000000000000000000000000000000000000000000000000000000000000000000000000000000000000000000000E2E20000000000000000000000000000E2E200000000000000000000000000000000000000000000000000000000000000000000000000000000000000000000000000
310
00000000000000000000000000000000000000000000000000000000000000000000000000E2E20000000000000000000000000000E2E2000000000000000000000000000000000000000000000000000000000000000000000000000000000000000000000000000000000000000000000000000000000000000000000000
310
0000000000000000000000000000E2E20000000000000000000000000000E2E20000000000000000000000000000000000000000000000000000000000000000000000000000000000000000000000000000000000000000000000000000000000000000000000000000000000000000000000000000E2E200000000000000
310
00000000000000E2E20000000000000000000000000000000000000000000000000000000000000000000000000000000000000000000000000000000000000000000000000000000000000000000000000000000000000000000000000000E2E20000000000000000000000000000E2E20000000000000000000000000000
310
000000000000000000000000000000000000000000000000000000000000000000000000000000000000000000000000000000000000000000000000000000000000000000000000E2E20000000000000000000000000000E2E2C3C3C3C3C3C3C3C3C3C3C3C3C3C3C3C3C3C3C3C3C3C3C3C3C3C3C3C3C3C3C3C3C3C3C3C3C3
310
C3C3C3C3C3C3C3C3C3C3C3C3C3C3C3C3C3C3C3C3C3C3C3C3C3C3C3C3C3C3C3C3C3C3C3C3C3C3C3C3C3C3C3C3C3C3C3C3C3E2E20000000000000000000000000000E2E2000000000000000000000000000000000000000000000000000000000000000000000000000000000000000000000000000000000000000000000000
310
0000000000000000000000000000000000000000000000000000E2E20000000000000000000000000000E2E20000000000000000000000000000000000000000000000000000000000000000000000000000000000000000000000000000000000000000000000000000000000000000000000000000000000000000000000
310
000000E2E20000000000000000000000000000E2E20000000000000000000000000000000000000000000000000000000000000000000000000000000000000000000000000000000000000000000000000000000000000000000000000000000000000000000000000000E2E20000000000000000000000000000E2E20000
310
000000000000000000000000000000000000000000000000000000000000000000000000000000000000000000000000000000000000000000000000000000000000000000000000000000000000000000000000E2E20000000000000000000000000000E2E200000000000000000000000000000000000000000000000000
310
00000000000000000000000000000000000000000000000000000000000000000000000000000000000000000000000000000000000000000000000000E2E20000000000000000000000000000E2E2000000000000000000000000000000000000000000000000000000000000000000000000000000000000000000000000
310
0000000000000000000000000000000000000000000000000000000000000000000000000000E2E20000000000000000000000000000E2E20000000000000000000000000000000000000000000000000000000000000000000000000000000000000000000000000000000000000000000000000000000000000000000000
310
000000000000000000000000000000E2E20000000000000000000000000000E2E20000000000000000000000000000000000000000000000000000000000000000000000000000000000000000000000000000000000000000000000000000000000000000000000000000000000000000000000000000E2E2000000000000
310
0000000000000000E2E20000000000000000000000000000000000000000000000000000000000000000000000000000000000000000000000000000000000000000000000000000000000000000000000000000000000000000000000000000E2E20000000000000000000000000000E2E200000000000000000000000000
310
00000000000000000000000000000000000000000000000000000000000000000000000000000000000000000000000000000000000000000000000000000000000000000000000000E2E20000000000000000000000000000E2E2000000000000000000000000000000000000000000000000000000000000000000000000
310
0000000000000000000000000000000000000000000000000000000000000000000000000000000000000000000000000000E2E20000000000000000000000000000E2E20000000000000000000000000000000000000000000000000000000000000000000000000000000000000000000000000000000000000000000000
310
000000000000000000000000000000000000000000000000000000E2E20000000000000000000000000000E2E200000000000000000000000000000000000000000000000000000000000000000000000000000000000000000000000000000000000000000000000000000000000000000000000000000000000000000000
310
00000000E2E20000000000000000000000000000E2E2E2E2E2E2E2E2E2E2E2E2E2E2E2E2E2E2E2E2E2E2E2E2E2E2E2E2E2E2E2E2E2E2E2E2E2E2E2E2E2E2E2E2E2E2E2E2E2E2E2E2E2E2E2E2E2E2E2E2E2E2E2E2E2E2E2E2E2E2E2E2E2E2E2E2E2E2E2E2E2E2E2E2E2E2E2E2E2E20000000000000000000000000000E2E2E2
310
E2E2E2E2E2E2E2E2E2E2E2E2E2E2E2E2E2E2E2E2E2E2E2E2E2E2E2E2E2E2E2E2E2E2E2E2E2E2E2E2E2E2E2E2E2E2E2E2E2E2E2E2E2E2E2E2E2E2E2E2E2E2E2E2E2E2E2E2E2E2E2E2E2E2E2E2E2E2E2E2E2E2E2E2E2E20000000000000000000000000000000000000000000000000000000000000000000000000000000000
310
00000000000000000000000000000000000000000000000000000000000000000000000000000000000000000000000000000000000000000000000000000000000000000000000000000000000000000000000000000000000000000000000000000000000000000000000000000000000000000000000000000000000000
310
00000000000000000000000000000000000000000000000000000000000000000000000000000000000000000000000000000000000000000000000000000000000000000000000000000000000000000000000000000000000000000000000000000000000000000000000000000000000000000000000000000000000000
310
00000000000000000000000000000000000000000000000000000000000000000000000000000000000000000000000000000000000000000000000000000000000000000000000000000000000000000000000000000000000000000000000000000000000000000000000000000000000000000000000000000000000000
310
000000
  0
XRECORD
  5
1ADE9
102
{ACAD_REACTORS
330
1ADE8
102
}
330
1ADE8
100
AcDbXrecord
280
     1
102
MATERIAL
148
0.0
149
0.0
149
0.0
 93
        0
 94
       63
282
     0
 72
     1
 77
     1
171
     1
175
     1
179
     1
273
     0
  0
XRECORD
  5
1ADE7
102
{ACAD_REACTORS
330
1ADE6
102
}
330
1ADE6
100
AcDbXrecord
280
     1
102
MATERIAL
148
0.0
149
0.0
149
0.0
 93
        0
 94
       63
282
     0
 72
     1
 77
     1
171
     1
175
     1
179
     1
273
     0
  0
XRECORD
  5
1ADEA
102
{ACAD_REACTORS
330
110
102
}
330
110
100
AcDbXrecord
280
     1
102
MATERIAL
148
0.0
149
0.0
149
0.0
 93
        0
 94
       63
282
     0
 72
     1
 77
     1
171
     1
175
     1
179
     1
273
     0
  0
XRECORD
  5
112
102
{ACAD_REACTORS
330
110
102
}
330
110
100
AcDbXrecord
280
     1
270
     1
271
     1
  0
XRECORD
  5
111
102
{ACAD_REACTORS
330
110
102
}
330
110
100
AcDbXrecord
280
     1
270
     1
271
     1
  0
XRECORD
  5
113
102
{ACAD_REACTORS
330
110
102
}
330
110
100
AcDbXrecord
280
     1
270
     1
271
     1
  0
XRECORD
  5
114
102
{ACAD_REACTORS
330
110
102
}
330
110
100
AcDbXrecord
280
     1
270
     1
271
     1
  0
CELLSTYLEMAP
  5
1ADD2
102
{ACAD_REACTORS
330
104
102
}
330
104
100
AcDbCellStyleMap
 90
        3
300
CELLSTYLE
  1
TABLEFORMAT_BEGIN
 90
        5
170
     1
 91
        0
 92
    32768
 62
   257
 93
        1
300
CONTENTFORMAT
  1
CONTENTFORMAT_BEGIN
 90
        0
 91
        0
 92
      512
 93
        0
300

 40
0.0
140
1.0
 94
        5
 62
     0
340
11
144
0.25
309
CONTENTFORMAT_END
171
     1
301
MARGIN
  1
CELLMARGIN_BEGIN
 40
0.06
 40
0.06
 40
0.06
 40
0.06
 40
0.18
 40
0.18
309
CELLMARGIN_END
 94
        6
 95
        1
302
GRIDFORMAT
  1
GRIDFORMAT_BEGIN
 90
        0
 91
        1
 62
     0
 92
       -2
340
0
 93
        0
 40
0.045
309
GRIDFORMAT_END
 95
        2
302
GRIDFORMAT
  1
GRIDFORMAT_BEGIN
 90
        0
 91
        1
 62
     0
 92
       -2
340
0
 93
        0
 40
0.045
309
GRIDFORMAT_END
 95
        4
302
GRIDFORMAT
  1
GRIDFORMAT_BEGIN
 90
        0
 91
        1
 62
     0
 92
       -2
340
0
 93
        0
 40
0.045
309
GRIDFORMAT_END
 95
        8
302
GRIDFORMAT
  1
GRIDFORMAT_BEGIN
 90
        0
 91
        1
 62
     0
 92
       -2
340
0
 93
        0
 40
0.045
309
GRIDFORMAT_END
 95
       16
302
GRIDFORMAT
  1
GRIDFORMAT_BEGIN
 90
        0
 91
        1
 62
     0
 92
       -2
340
0
 93
        0
 40
0.045
309
GRIDFORMAT_END
 95
       32
302
GRIDFORMAT
  1
GRIDFORMAT_BEGIN
 90
        0
 91
        1
 62
     0
 92
       -2
340
0
 93
        0
 40
0.045
309
GRIDFORMAT_END
309
TABLEFORMAT_END
  1
CELLSTYLE_BEGIN
 90
        1
 91
        1
300
_TITLE
309
CELLSTYLE_END
300
CELLSTYLE
  1
TABLEFORMAT_BEGIN
 90
        5
170
     1
 91
        0
 92
        0
 62
   257
 93
        1
300
CONTENTFORMAT
  1
CONTENTFORMAT_BEGIN
 90
        0
 91
        0
 92
      512
 93
        0
300

 40
0.0
140
1.0
 94
        5
 62
     0
340
11
144
0.18
309
CONTENTFORMAT_END
171
     1
301
MARGIN
  1
CELLMARGIN_BEGIN
 40
0.06
 40
0.06
 40
0.06
 40
0.06
 40
0.18
 40
0.18
309
CELLMARGIN_END
 94
        6
 95
        1
302
GRIDFORMAT
  1
GRIDFORMAT_BEGIN
 90
        0
 91
        1
 62
     0
 92
       -2
340
0
 93
        0
 40
0.045
309
GRIDFORMAT_END
 95
        2
302
GRIDFORMAT
  1
GRIDFORMAT_BEGIN
 90
        0
 91
        1
 62
     0
 92
       -2
340
0
 93
        0
 40
0.045
309
GRIDFORMAT_END
 95
        4
302
GRIDFORMAT
  1
GRIDFORMAT_BEGIN
 90
        0
 91
        1
 62
     0
 92
       -2
340
0
 93
        0
 40
0.045
309
GRIDFORMAT_END
 95
        8
302
GRIDFORMAT
  1
GRIDFORMAT_BEGIN
 90
        0
 91
        1
 62
     0
 92
       -2
340
0
 93
        0
 40
0.045
309
GRIDFORMAT_END
 95
       16
302
GRIDFORMAT
  1
GRIDFORMAT_BEGIN
 90
        0
 91
        1
 62
     0
 92
       -2
340
0
 93
        0
 40
0.045
309
GRIDFORMAT_END
 95
       32
302
GRIDFORMAT
  1
GRIDFORMAT_BEGIN
 90
        0
 91
        1
 62
     0
 92
       -2
340
0
 93
        0
 40
0.045
309
GRIDFORMAT_END
309
TABLEFORMAT_END
  1
CELLSTYLE_BEGIN
 90
        2
 91
        1
300
_HEADER
309
CELLSTYLE_END
300
CELLSTYLE
  1
TABLEFORMAT_BEGIN
 90
        5
170
     1
 91
        0
 92
        0
 62
   257
 93
        1
300
CONTENTFORMAT
  1
CONTENTFORMAT_BEGIN
 90
        0
 91
        0
 92
      512
 93
        0
300

 40
0.0
140
1.0
 94
        2
 62
     0
340
11
144
0.18
309
CONTENTFORMAT_END
171
     1
301
MARGIN
  1
CELLMARGIN_BEGIN
 40
0.06
 40
0.06
 40
0.06
 40
0.06
 40
0.18
 40
0.18
309
CELLMARGIN_END
 94
        6
 95
        1
302
GRIDFORMAT
  1
GRIDFORMAT_BEGIN
 90
        0
 91
        1
 62
     0
 92
       -2
340
0
 93
        0
 40
0.045
309
GRIDFORMAT_END
 95
        2
302
GRIDFORMAT
  1
GRIDFORMAT_BEGIN
 90
        0
 91
        1
 62
     0
 92
       -2
340
0
 93
        0
 40
0.045
309
GRIDFORMAT_END
 95
        4
302
GRIDFORMAT
  1
GRIDFORMAT_BEGIN
 90
        0
 91
        1
 62
     0
 92
       -2
340
0
 93
        0
 40
0.045
309
GRIDFORMAT_END
 95
        8
302
GRIDFORMAT
  1
GRIDFORMAT_BEGIN
 90
        0
 91
        1
 62
     0
 92
       -2
340
0
 93
        0
 40
0.045
309
GRIDFORMAT_END
 95
       16
302
GRIDFORMAT
  1
GRIDFORMAT_BEGIN
 90
        0
 91
        1
 62
     0
 92
       -2
340
0
 93
        0
 40
0.045
309
GRIDFORMAT_END
 95
       32
302
GRIDFORMAT
  1
GRIDFORMAT_BEGIN
 90
        0
 91
        1
 62
     0
 92
       -2
340
0
 93
        0
 40
0.045
309
GRIDFORMAT_END
309
TABLEFORMAT_END
  1
CELLSTYLE_BEGIN
 90
        3
 91
        2
300
_DATA
309
CELLSTYLE_END
  0
XRECORD
  5
1ADE5
102
{ACAD_REACTORS
330
104
102
}
330
104
100
AcDbXrecord
280
     1
102
ACAD_ROUNDTRIP_PRE2007_TABLESTYLE
 90
      512
 91
        0
  1

 92
      512
 93
        0
  2

 94
      512
 95
        0
  3

  0
XRECORD
  5
1ADF6
102
{ACAD_REACTORS
330
1ADF5
102
}
330
1ADF5
100
AcDbXrecord
280
     1
102
RTVSPost2010Prop28
280
     1
102
RTVSPost2010PropOp28
 70
     1
102
RTVSPost2010Prop29
280
     1
102
RTVSPost2010PropOp29
 70
     1
102
RTVSPost2010Prop30
280
     0
102
RTVSPost2010PropOp30
 70
     1
102
RTVSPost2010Prop31
280
     0
102
RTVSPost2010PropOp31
 70
     1
102
RTVSPost2010Prop32
280
     0
102
RTVSPost2010PropOp32
 70
     1
102
RTVSPost2010Prop33
280
     0
102
RTVSPost2010PropOp33
 70
     1
102
RTVSPost2010Prop34
280
     0
102
RTVSPost2010PropOp34
 70
     1
102
RTVSPost2010Prop35
280
     0
102
RTVSPost2010PropOp35
 70
     1
102
RTVSPost2010Prop36
280
     0
102
RTVSPost2010PropOp36
 70
     1
102
RTVSPost2010Prop37
 90
       50
102
RTVSPost2010PropOp37
 70
     1
102
RTVSPost2010Prop38
140
0.0
102
RTVSPost2010PropOp38
 70
     1
102
RTVSPost2010Prop39
140
1.0
102
RTVSPost2010PropOp39
 70
     1
102
RTVSPost2010Prop40
 90
        0
102
RTVSPost2010PropOp40
 70
     1
102
RTVSPost2010Prop41ColorIndex
 90
       18
102
RTVSPost2010Prop41ColorRGB
 90
        0
102
RTVSPost2010PropOp41
 70
     1
102
RTVSPost2010Prop42
 90
       50
102
RTVSPost2010PropOp42
 70
     1
102
RTVSPost2010Prop43
 90
        3
102
RTVSPost2010PropOp43
 70
     1
102
RTVSPost2010Prop44ColorIndex
 90
        5
102
RTVSPost2010Prop44ColorRGB
 90
      255
102
RTVSPost2010PropOp44
 70
     1
102
RTVSPost2010Prop45
280
     0
102
RTVSPost2010PropOp45
 70
     1
102
RTVSPost2010Prop46
 90
       50
102
RTVSPost2010PropOp46
 70
     1
102
RTVSPost2010Prop47
 90
       50
102
RTVSPost2010PropOp47
 70
     1
102
RTVSPost2010Prop48
 90
       50
102
RTVSPost2010PropOp48
 70
     1
102
RTVSPost2010Prop49
280
     0
102
RTVSPost2010PropOp49
 70
     1
102
RTVSPost2010Prop50
 90
       50
102
RTVSPost2010PropOp50
 70
     1
102
RTVSPost2010Prop51ColorIndex
 90
      256
102
RTVSPost2010Prop51ColorRGB
 90
-16777216
102
RTVSPost2010PropOp51
 70
     0
102
RTVSPost2010Prop52
140
1.0
102
RTVSPost2010PropOp52
 70
     0
102
RTVSPost2010Prop53
 90
        2
102
RTVSPost2010PropOp53
 70
     1
102
RTVSPost2010Prop54
  1
strokes_ogs.tif
102
RTVSPost2010PropOp54
 70
     1
102
RTVSPost2010Prop55
280
     0
102
RTVSPost2010PropOp55
 70
     1
102
RTVSPost2010Prop56
140
1.0
102
RTVSPost2010PropOp56
 70
     1
102
RTVSPost2010Prop57
140
1.0
102
RTVSPost2010PropOp57
 70
     1
102
RTVSPropertyOp0
 70
     1
102
RTVSPropertyOp1
 70
     1
102
RTVSPropertyOp2
 70
     1
102
RTVSPropertyOp3
 70
     1
102
RTVSPropertyOp4
 70
     1
102
RTVSPropertyOp5
 70
     1
102
RTVSPropertyOp6
 70
     1
102
RTVSPropertyOp7
 70
     1
102
RTVSPropertyOp8
 70
     1
102
RTVSPropertyOp9
 70
     1
102
RTVSPropertyOp10
 70
     1
102
RTVSPropertyOp11
 70
     1
102
RTVSPropertyOp12
 70
     1
102
RTVSPropertyOp13
 70
     1
102
RTVSPropertyOp14
 70
     1
102
RTVSPropertyOp15
 70
     1
102
RTVSPropertyOp16
 70
     1
102
RTVSPropertyOp17
 70
     1
102
RTVSPropertyOp18
 70
     1
102
RTVSPropertyOp19
 70
     1
102
RTVSPropertyOp20
 70
     1
102
RTVSPropertyOp21
 70
     1
102
RTVSPropertyOp22
 70
     1
102
RTVSPropertyOp23
 70
     1
102
RTVSPropertyOp24
 70
     1
102
RTVSPropertyOp25
 70
     1
102
RTVSPropertyOp26
 70
     1
102
RTVSPropertyOp27
 70
     1
102
RTVSPropertyOp28
 70
     1
102
RTVSPropertyOp29
 70
     1
102
RTVSPropertyOp30
 70
     1
102
RTVSPropertyOp31
 70
     1
102
RTVSPropertyOp32
 70
     1
102
RTVSPropertyOp33
 70
     1
102
RTVSPropertyOp34
 70
     1
102
RTVSPropertyOp35
 70
     1
102
RTVSPropertyOp36
 70
     1
102
RTVSPropertyOp37
 70
     1
102
RTVSPropertyOp38
 70
     1
102
RTVSPropertyOp39
 70
     1
102
RTVSPropertyOp40
 70
     1
102
RTVSPropertyOp41
 70
     1
102
RTVSPropertyOp42
 70
     1
102
RTVSPropertyOp43
 70
     1
102
RTVSPropertyOp44
 70
     1
102
RTVSPropertyOp45
 70
     1
102
RTVSPropertyOp46
 70
     1
102
RTVSPropertyOp47
 70
     1
102
RTVSPropertyOp48
 70
     1
102
RTVSPropertyOp49
 70
     1
102
RTVSPropertyOp50
 70
     1
102
RTVSPropertyOp51
 70
     0
102
RTVSPropertyOp52
 70
     0
102
RTVSPropertyOp53
 70
     1
102
RTVSPropertyOp54
 70
     1
102
RTVSPropertyOp55
 70
     1
102
RTVSPropertyOp56
 70
     1
102
RTVSPropertyOp57
 70
     1
102
RTVSPropertyOp58
 70
     1
102
RTVSPropertyOp59
 70
     1
102
RTVSPropertyOp60
 70
     1
102
RTVSPropertyOp61
 70
     1
102
RTVSPropertyOp62
 70
     1
  0
XRECORD
  5
1ADFA
102
{ACAD_REACTORS
330
1ADF9
102
}
330
1ADF9
100
AcDbXrecord
280
     1
102
RTVSPost2010Prop28
280
     0
102
RTVSPost2010PropOp28
 70
     1
102
RTVSPost2010Prop29
280
     1
102
RTVSPost2010PropOp29
 70
     1
102
RTVSPost2010Prop30
280
     1
102
RTVSPost2010PropOp30
 70
     1
102
RTVSPost2010Prop31
280
     0
102
RTVSPost2010PropOp31
 70
     1
102
RTVSPost2010Prop32
280
     0
102
RTVSPost2010PropOp32
 70
     1
102
RTVSPost2010Prop33
280
     0
102
RTVSPost2010PropOp33
 70
     1
102
RTVSPost2010Prop34
280
     0
102
RTVSPost2010PropOp34
 70
     1
102
RTVSPost2010Prop35
280
     0
102
RTVSPost2010PropOp35
 70
     1
102
RTVSPost2010Prop36
280
     0
102
RTVSPost2010PropOp36
 70
     1
102
RTVSPost2010Prop37
 90
       50
102
RTVSPost2010PropOp37
 70
     1
102
RTVSPost2010Prop38
140
0.0
102
RTVSPost2010PropOp38
 70
     1
102
RTVSPost2010Prop39
140
1.0
102
RTVSPost2010PropOp39
 70
     1
102
RTVSPost2010Prop40
 90
        0
102
RTVSPost2010PropOp40
 70
     1
102
RTVSPost2010Prop41ColorIndex
 90
       18
102
RTVSPost2010Prop41ColorRGB
 90
        0
102
RTVSPost2010PropOp41
 70
     1
102
RTVSPost2010Prop42
 90
       50
102
RTVSPost2010PropOp42
 70
     1
102
RTVSPost2010Prop43
 90
        3
102
RTVSPost2010PropOp43
 70
     1
102
RTVSPost2010Prop44ColorIndex
 90
        5
102
RTVSPost2010Prop44ColorRGB
 90
      255
102
RTVSPost2010PropOp44
 70
     1
102
RTVSPost2010Prop45
280
     0
102
RTVSPost2010PropOp45
 70
     1
102
RTVSPost2010Prop46
 90
       50
102
RTVSPost2010PropOp46
 70
     1
102
RTVSPost2010Prop47
 90
       50
102
RTVSPost2010PropOp47
 70
     1
102
RTVSPost2010Prop48
 90
       50
102
RTVSPost2010PropOp48
 70
     1
102
RTVSPost2010Prop49
280
     0
102
RTVSPost2010PropOp49
 70
     1
102
RTVSPost2010Prop50
 90
       50
102
RTVSPost2010PropOp50
 70
     1
102
RTVSPost2010Prop51ColorIndex
 90
      256
102
RTVSPost2010Prop51ColorRGB
 90
-16777216
102
RTVSPost2010PropOp51
 70
     0
102
RTVSPost2010Prop52
140
1.0
102
RTVSPost2010PropOp52
 70
     0
102
RTVSPost2010Prop53
 90
        2
102
RTVSPost2010PropOp53
 70
     1
102
RTVSPost2010Prop54
  1
strokes_ogs.tif
102
RTVSPost2010PropOp54
 70
     1
102
RTVSPost2010Prop55
280
     0
102
RTVSPost2010PropOp55
 70
     1
102
RTVSPost2010Prop56
140
1.0
102
RTVSPost2010PropOp56
 70
     1
102
RTVSPost2010Prop57
140
1.0
102
RTVSPost2010PropOp57
 70
     1
102
RTVSPropertyOp0
 70
     1
102
RTVSPropertyOp1
 70
     1
102
RTVSPropertyOp2
 70
     1
102
RTVSPropertyOp3
 70
     1
102
RTVSPropertyOp4
 70
     1
102
RTVSPropertyOp5
 70
     1
102
RTVSPropertyOp6
 70
     1
102
RTVSPropertyOp7
 70
     1
102
RTVSPropertyOp8
 70
     1
102
RTVSPropertyOp9
 70
     1
102
RTVSPropertyOp10
 70
     1
102
RTVSPropertyOp11
 70
     1
102
RTVSPropertyOp12
 70
     1
102
RTVSPropertyOp13
 70
     1
102
RTVSPropertyOp14
 70
     1
102
RTVSPropertyOp15
 70
     1
102
RTVSPropertyOp16
 70
     1
102
RTVSPropertyOp17
 70
     1
102
RTVSPropertyOp18
 70
     1
102
RTVSPropertyOp19
 70
     1
102
RTVSPropertyOp20
 70
     1
102
RTVSPropertyOp21
 70
     1
102
RTVSPropertyOp22
 70
     1
102
RTVSPropertyOp23
 70
     1
102
RTVSPropertyOp24
 70
     1
102
RTVSPropertyOp25
 70
     1
102
RTVSPropertyOp26
 70
     1
102
RTVSPropertyOp27
 70
     1
102
RTVSPropertyOp28
 70
     1
102
RTVSPropertyOp29
 70
     1
102
RTVSPropertyOp30
 70
     1
102
RTVSPropertyOp31
 70
     1
102
RTVSPropertyOp32
 70
     1
102
RTVSPropertyOp33
 70
     1
102
RTVSPropertyOp34
 70
     1
102
RTVSPropertyOp35
 70
     1
102
RTVSPropertyOp36
 70
     1
102
RTVSPropertyOp37
 70
     1
102
RTVSPropertyOp38
 70
     1
102
RTVSPropertyOp39
 70
     1
102
RTVSPropertyOp40
 70
     1
102
RTVSPropertyOp41
 70
     1
102
RTVSPropertyOp42
 70
     1
102
RTVSPropertyOp43
 70
     1
102
RTVSPropertyOp44
 70
     1
102
RTVSPropertyOp45
 70
     1
102
RTVSPropertyOp46
 70
     1
102
RTVSPropertyOp47
 70
     1
102
RTVSPropertyOp48
 70
     1
102
RTVSPropertyOp49
 70
     1
102
RTVSPropertyOp50
 70
     1
102
RTVSPropertyOp51
 70
     0
102
RTVSPropertyOp52
 70
     0
102
RTVSPropertyOp53
 70
     1
102
RTVSPropertyOp54
 70
     1
102
RTVSPropertyOp55
 70
     1
102
RTVSPropertyOp56
 70
     1
102
RTVSPropertyOp57
 70
     1
102
RTVSPropertyOp58
 70
     1
102
RTVSPropertyOp59
 70
     1
102
RTVSPropertyOp60
 70
     1
102
RTVSPropertyOp61
 70
     1
102
RTVSPropertyOp62
 70
     1
  0
XRECORD
  5
1ADF8
102
{ACAD_REACTORS
330
1ADF7
102
}
330
1ADF7
100
AcDbXrecord
280
     1
102
RTVSPost2010Prop28
280
     0
102
RTVSPost2010PropOp28
 70
     1
102
RTVSPost2010Prop29
280
     1
102
RTVSPost2010PropOp29
 70
     1
102
RTVSPost2010Prop30
280
     1
102
RTVSPost2010PropOp30
 70
     1
102
RTVSPost2010Prop31
280
     0
102
RTVSPost2010PropOp31
 70
     1
102
RTVSPost2010Prop32
280
     0
102
RTVSPost2010PropOp32
 70
     1
102
RTVSPost2010Prop33
280
     0
102
RTVSPost2010PropOp33
 70
     1
102
RTVSPost2010Prop34
280
     0
102
RTVSPost2010PropOp34
 70
     1
102
RTVSPost2010Prop35
280
     0
102
RTVSPost2010PropOp35
 70
     1
102
RTVSPost2010Prop36
280
     0
102
RTVSPost2010PropOp36
 70
     1
102
RTVSPost2010Prop37
 90
       50
102
RTVSPost2010PropOp37
 70
     1
102
RTVSPost2010Prop38
140
0.0
102
RTVSPost2010PropOp38
 70
     1
102
RTVSPost2010Prop39
140
1.0
102
RTVSPost2010PropOp39
 70
     1
102
RTVSPost2010Prop40
 90
        0
102
RTVSPost2010PropOp40
 70
     1
102
RTVSPost2010Prop41ColorIndex
 90
       18
102
RTVSPost2010Prop41ColorRGB
 90
        0
102
RTVSPost2010PropOp41
 70
     1
102
RTVSPost2010Prop42
 90
       50
102
RTVSPost2010PropOp42
 70
     1
102
RTVSPost2010Prop43
 90
        3
102
RTVSPost2010PropOp43
 70
     1
102
RTVSPost2010Prop44ColorIndex
 90
        5
102
RTVSPost2010Prop44ColorRGB
 90
      255
102
RTVSPost2010PropOp44
 70
     1
102
RTVSPost2010Prop45
280
     0
102
RTVSPost2010PropOp45
 70
     1
102
RTVSPost2010Prop46
 90
       50
102
RTVSPost2010PropOp46
 70
     1
102
RTVSPost2010Prop47
 90
       50
102
RTVSPost2010PropOp47
 70
     1
102
RTVSPost2010Prop48
 90
       50
102
RTVSPost2010PropOp48
 70
     1
102
RTVSPost2010Prop49
280
     0
102
RTVSPost2010PropOp49
 70
     1
102
RTVSPost2010Prop50
 90
       50
102
RTVSPost2010PropOp50
 70
     1
102
RTVSPost2010Prop51ColorIndex
 90
      256
102
RTVSPost2010Prop51ColorRGB
 90
-16777216
102
RTVSPost2010PropOp51
 70
     0
102
RTVSPost2010Prop52
140
1.0
102
RTVSPost2010PropOp52
 70
     0
102
RTVSPost2010Prop53
 90
        2
102
RTVSPost2010PropOp53
 70
     1
102
RTVSPost2010Prop54
  1
strokes_ogs.tif
102
RTVSPost2010PropOp54
 70
     1
102
RTVSPost2010Prop55
280
     0
102
RTVSPost2010PropOp55
 70
     1
102
RTVSPost2010Prop56
140
1.0
102
RTVSPost2010PropOp56
 70
     1
102
RTVSPost2010Prop57
140
1.0
102
RTVSPost2010PropOp57
 70
     1
102
RTVSPropertyOp0
 70
     1
102
RTVSPropertyOp1
 70
     1
102
RTVSPropertyOp2
 70
     1
102
RTVSPropertyOp3
 70
     1
102
RTVSPropertyOp4
 70
     1
102
RTVSPropertyOp5
 70
     1
102
RTVSPropertyOp6
 70
     1
102
RTVSPropertyOp7
 70
     1
102
RTVSPropertyOp8
 70
     1
102
RTVSPropertyOp9
 70
     1
102
RTVSPropertyOp10
 70
     1
102
RTVSPropertyOp11
 70
     1
102
RTVSPropertyOp12
 70
     1
102
RTVSPropertyOp13
 70
     1
102
RTVSPropertyOp14
 70
     1
102
RTVSPropertyOp15
 70
     1
102
RTVSPropertyOp16
 70
     1
102
RTVSPropertyOp17
 70
     1
102
RTVSPropertyOp18
 70
     1
102
RTVSPropertyOp19
 70
     1
102
RTVSPropertyOp20
 70
     1
102
RTVSPropertyOp21
 70
     1
102
RTVSPropertyOp22
 70
     1
102
RTVSPropertyOp23
 70
     1
102
RTVSPropertyOp24
 70
     1
102
RTVSPropertyOp25
 70
     1
102
RTVSPropertyOp26
 70
     1
102
RTVSPropertyOp27
 70
     1
102
RTVSPropertyOp28
 70
     1
102
RTVSPropertyOp29
 70
     1
102
RTVSPropertyOp30
 70
     1
102
RTVSPropertyOp31
 70
     1
102
RTVSPropertyOp32
 70
     1
102
RTVSPropertyOp33
 70
     1
102
RTVSPropertyOp34
 70
     1
102
RTVSPropertyOp35
 70
     1
102
RTVSPropertyOp36
 70
     1
102
RTVSPropertyOp37
 70
     1
102
RTVSPropertyOp38
 70
     1
102
RTVSPropertyOp39
 70
     1
102
RTVSPropertyOp40
 70
     1
102
RTVSPropertyOp41
 70
     1
102
RTVSPropertyOp42
 70
     1
102
RTVSPropertyOp43
 70
     1
102
RTVSPropertyOp44
 70
     1
102
RTVSPropertyOp45
 70
     1
102
RTVSPropertyOp46
 70
     1
102
RTVSPropertyOp47
 70
     1
102
RTVSPropertyOp48
 70
     1
102
RTVSPropertyOp49
 70
     1
102
RTVSPropertyOp50
 70
     1
102
RTVSPropertyOp51
 70
     0
102
RTVSPropertyOp52
 70
     0
102
RTVSPropertyOp53
 70
     1
102
RTVSPropertyOp54
 70
     1
102
RTVSPropertyOp55
 70
     1
102
RTVSPropertyOp56
 70
     1
102
RTVSPropertyOp57
 70
     1
102
RTVSPropertyOp58
 70
     1
102
RTVSPropertyOp59
 70
     1
102
RTVSPropertyOp60
 70
     1
102
RTVSPropertyOp61
 70
     1
102
RTVSPropertyOp62
 70
     1
  0
XRECORD
  5
1ADF4
102
{ACAD_REACTORS
330
1ADF3
102
}
330
1ADF3
100
AcDbXrecord
280
     1
102
RTVSPost2010Prop28
280
     0
102
RTVSPost2010PropOp28
 70
     1
102
RTVSPost2010Prop29
280
     1
102
RTVSPost2010PropOp29
 70
     1
102
RTVSPost2010Prop30
280
     1
102
RTVSPost2010PropOp30
 70
     1
102
RTVSPost2010Prop31
280
     0
102
RTVSPost2010PropOp31
 70
     1
102
RTVSPost2010Prop32
280
     0
102
RTVSPost2010PropOp32
 70
     1
102
RTVSPost2010Prop33
280
     0
102
RTVSPost2010PropOp33
 70
     1
102
RTVSPost2010Prop34
280
     0
102
RTVSPost2010PropOp34
 70
     1
102
RTVSPost2010Prop35
280
     0
102
RTVSPost2010PropOp35
 70
     1
102
RTVSPost2010Prop36
280
     0
102
RTVSPost2010PropOp36
 70
     1
102
RTVSPost2010Prop37
 90
       50
102
RTVSPost2010PropOp37
 70
     1
102
RTVSPost2010Prop38
140
0.0
102
RTVSPost2010PropOp38
 70
     1
102
RTVSPost2010Prop39
140
1.0
102
RTVSPost2010PropOp39
 70
     1
102
RTVSPost2010Prop40
 90
        0
102
RTVSPost2010PropOp40
 70
     1
102
RTVSPost2010Prop41ColorIndex
 90
       18
102
RTVSPost2010Prop41ColorRGB
 90
        0
102
RTVSPost2010PropOp41
 70
     1
102
RTVSPost2010Prop42
 90
       50
102
RTVSPost2010PropOp42
 70
     1
102
RTVSPost2010Prop43
 90
        3
102
RTVSPost2010PropOp43
 70
     1
102
RTVSPost2010Prop44ColorIndex
 90
        5
102
RTVSPost2010Prop44ColorRGB
 90
      255
102
RTVSPost2010PropOp44
 70
     1
102
RTVSPost2010Prop45
280
     0
102
RTVSPost2010PropOp45
 70
     1
102
RTVSPost2010Prop46
 90
       50
102
RTVSPost2010PropOp46
 70
     1
102
RTVSPost2010Prop47
 90
       50
102
RTVSPost2010PropOp47
 70
     1
102
RTVSPost2010Prop48
 90
       50
102
RTVSPost2010PropOp48
 70
     1
102
RTVSPost2010Prop49
280
     0
102
RTVSPost2010PropOp49
 70
     1
102
RTVSPost2010Prop50
 90
       50
102
RTVSPost2010PropOp50
 70
     1
102
RTVSPost2010Prop51ColorIndex
 90
      256
102
RTVSPost2010Prop51ColorRGB
 90
-16777216
102
RTVSPost2010PropOp51
 70
     0
102
RTVSPost2010Prop52
140
1.0
102
RTVSPost2010PropOp52
 70
     0
102
RTVSPost2010Prop53
 90
        2
102
RTVSPost2010PropOp53
 70
     1
102
RTVSPost2010Prop54
  1
strokes_ogs.tif
102
RTVSPost2010PropOp54
 70
     1
102
RTVSPost2010Prop55
280
     0
102
RTVSPost2010PropOp55
 70
     1
102
RTVSPost2010Prop56
140
1.0
102
RTVSPost2010PropOp56
 70
     1
102
RTVSPost2010Prop57
140
1.0
102
RTVSPost2010PropOp57
 70
     1
102
RTVSPropertyOp0
 70
     1
102
RTVSPropertyOp1
 70
     1
102
RTVSPropertyOp2
 70
     1
102
RTVSPropertyOp3
 70
     1
102
RTVSPropertyOp4
 70
     1
102
RTVSPropertyOp5
 70
     1
102
RTVSPropertyOp6
 70
     1
102
RTVSPropertyOp7
 70
     1
102
RTVSPropertyOp8
 70
     1
102
RTVSPropertyOp9
 70
     1
102
RTVSPropertyOp10
 70
     1
102
RTVSPropertyOp11
 70
     1
102
RTVSPropertyOp12
 70
     1
102
RTVSPropertyOp13
 70
     1
102
RTVSPropertyOp14
 70
     1
102
RTVSPropertyOp15
 70
     1
102
RTVSPropertyOp16
 70
     1
102
RTVSPropertyOp17
 70
     1
102
RTVSPropertyOp18
 70
     1
102
RTVSPropertyOp19
 70
     1
102
RTVSPropertyOp20
 70
     1
102
RTVSPropertyOp21
 70
     1
102
RTVSPropertyOp22
 70
     1
102
RTVSPropertyOp23
 70
     1
102
RTVSPropertyOp24
 70
     1
102
RTVSPropertyOp25
 70
     1
102
RTVSPropertyOp26
 70
     1
102
RTVSPropertyOp27
 70
     1
102
RTVSPropertyOp28
 70
     1
102
RTVSPropertyOp29
 70
     1
102
RTVSPropertyOp30
 70
     1
102
RTVSPropertyOp31
 70
     1
102
RTVSPropertyOp32
 70
     1
102
RTVSPropertyOp33
 70
     1
102
RTVSPropertyOp34
 70
     1
102
RTVSPropertyOp35
 70
     1
102
RTVSPropertyOp36
 70
     1
102
RTVSPropertyOp37
 70
     1
102
RTVSPropertyOp38
 70
     1
102
RTVSPropertyOp39
 70
     1
102
RTVSPropertyOp40
 70
     1
102
RTVSPropertyOp41
 70
     1
102
RTVSPropertyOp42
 70
     1
102
RTVSPropertyOp43
 70
     1
102
RTVSPropertyOp44
 70
     1
102
RTVSPropertyOp45
 70
     1
102
RTVSPropertyOp46
 70
     1
102
RTVSPropertyOp47
 70
     1
102
RTVSPropertyOp48
 70
     1
102
RTVSPropertyOp49
 70
     1
102
RTVSPropertyOp50
 70
     1
102
RTVSPropertyOp51
 70
     0
102
RTVSPropertyOp52
 70
     0
102
RTVSPropertyOp53
 70
     1
102
RTVSPropertyOp54
 70
     1
102
RTVSPropertyOp55
 70
     1
102
RTVSPropertyOp56
 70
     1
102
RTVSPropertyOp57
 70
     1
102
RTVSPropertyOp58
 70
     1
102
RTVSPropertyOp59
 70
     1
102
RTVSPropertyOp60
 70
     1
102
RTVSPropertyOp61
 70
     1
102
RTVSPropertyOp62
 70
     1
  0
XRECORD
  5
1AE02
102
{ACAD_REACTORS
330
1AE01
102
}
330
1AE01
100
AcDbXrecord
280
     1
102
RTVSPost2010Prop28
280
     0
102
RTVSPost2010PropOp28
 70
     1
102
RTVSPost2010Prop29
280
     1
102
RTVSPost2010PropOp29
 70
     1
102
RTVSPost2010Prop30
280
     1
102
RTVSPost2010PropOp30
 70
     1
102
RTVSPost2010Prop31
280
     0
102
RTVSPost2010PropOp31
 70
     1
102
RTVSPost2010Prop32
280
     0
102
RTVSPost2010PropOp32
 70
     1
102
RTVSPost2010Prop33
280
     0
102
RTVSPost2010PropOp33
 70
     1
102
RTVSPost2010Prop34
280
     0
102
RTVSPost2010PropOp34
 70
     1
102
RTVSPost2010Prop35
280
     0
102
RTVSPost2010PropOp35
 70
     1
102
RTVSPost2010Prop36
280
     0
102
RTVSPost2010PropOp36
 70
     1
102
RTVSPost2010Prop37
 90
       50
102
RTVSPost2010PropOp37
 70
     1
102
RTVSPost2010Prop38
140
0.0
102
RTVSPost2010PropOp38
 70
     1
102
RTVSPost2010Prop39
140
1.0
102
RTVSPost2010PropOp39
 70
     1
102
RTVSPost2010Prop40
 90
        0
102
RTVSPost2010PropOp40
 70
     1
102
RTVSPost2010Prop41ColorIndex
 90
       18
102
RTVSPost2010Prop41ColorRGB
 90
        0
102
RTVSPost2010PropOp41
 70
     1
102
RTVSPost2010Prop42
 90
       50
102
RTVSPost2010PropOp42
 70
     1
102
RTVSPost2010Prop43
 90
        3
102
RTVSPost2010PropOp43
 70
     1
102
RTVSPost2010Prop44ColorIndex
 90
        5
102
RTVSPost2010Prop44ColorRGB
 90
      255
102
RTVSPost2010PropOp44
 70
     1
102
RTVSPost2010Prop45
280
     0
102
RTVSPost2010PropOp45
 70
     1
102
RTVSPost2010Prop46
 90
       50
102
RTVSPost2010PropOp46
 70
     1
102
RTVSPost2010Prop47
 90
       50
102
RTVSPost2010PropOp47
 70
     1
102
RTVSPost2010Prop48
 90
       50
102
RTVSPost2010PropOp48
 70
     1
102
RTVSPost2010Prop49
280
     0
102
RTVSPost2010PropOp49
 70
     1
102
RTVSPost2010Prop50
 90
       50
102
RTVSPost2010PropOp50
 70
     1
102
RTVSPost2010Prop51ColorIndex
 90
      256
102
RTVSPost2010Prop51ColorRGB
 90
-16777216
102
RTVSPost2010PropOp51
 70
     0
102
RTVSPost2010Prop52
140
1.0
102
RTVSPost2010PropOp52
 70
     0
102
RTVSPost2010Prop53
 90
        2
102
RTVSPost2010PropOp53
 70
     1
102
RTVSPost2010Prop54
  1
strokes_ogs.tif
102
RTVSPost2010PropOp54
 70
     1
102
RTVSPost2010Prop55
280
     0
102
RTVSPost2010PropOp55
 70
     1
102
RTVSPost2010Prop56
140
1.0
102
RTVSPost2010PropOp56
 70
     1
102
RTVSPost2010Prop57
140
1.0
102
RTVSPost2010PropOp57
 70
     1
102
RTVSPropertyOp0
 70
     1
102
RTVSPropertyOp1
 70
     1
102
RTVSPropertyOp2
 70
     1
102
RTVSPropertyOp3
 70
     1
102
RTVSPropertyOp4
 70
     1
102
RTVSPropertyOp5
 70
     1
102
RTVSPropertyOp6
 70
     1
102
RTVSPropertyOp7
 70
     1
102
RTVSPropertyOp8
 70
     1
102
RTVSPropertyOp9
 70
     1
102
RTVSPropertyOp10
 70
     1
102
RTVSPropertyOp11
 70
     1
102
RTVSPropertyOp12
 70
     1
102
RTVSPropertyOp13
 70
     1
102
RTVSPropertyOp14
 70
     1
102
RTVSPropertyOp15
 70
     1
102
RTVSPropertyOp16
 70
     1
102
RTVSPropertyOp17
 70
     1
102
RTVSPropertyOp18
 70
     1
102
RTVSPropertyOp19
 70
     1
102
RTVSPropertyOp20
 70
     1
102
RTVSPropertyOp21
 70
     1
102
RTVSPropertyOp22
 70
     1
102
RTVSPropertyOp23
 70
     1
102
RTVSPropertyOp24
 70
     1
102
RTVSPropertyOp25
 70
     1
102
RTVSPropertyOp26
 70
     1
102
RTVSPropertyOp27
 70
     1
102
RTVSPropertyOp28
 70
     1
102
RTVSPropertyOp29
 70
     1
102
RTVSPropertyOp30
 70
     1
102
RTVSPropertyOp31
 70
     1
102
RTVSPropertyOp32
 70
     1
102
RTVSPropertyOp33
 70
     1
102
RTVSPropertyOp34
 70
     1
102
RTVSPropertyOp35
 70
     1
102
RTVSPropertyOp36
 70
     1
102
RTVSPropertyOp37
 70
     1
102
RTVSPropertyOp38
 70
     1
102
RTVSPropertyOp39
 70
     1
102
RTVSPropertyOp40
 70
     1
102
RTVSPropertyOp41
 70
     1
102
RTVSPropertyOp42
 70
     1
102
RTVSPropertyOp43
 70
     1
102
RTVSPropertyOp44
 70
     1
102
RTVSPropertyOp45
 70
     1
102
RTVSPropertyOp46
 70
     1
102
RTVSPropertyOp47
 70
     1
102
RTVSPropertyOp48
 70
     1
102
RTVSPropertyOp49
 70
     1
102
RTVSPropertyOp50
 70
     1
102
RTVSPropertyOp51
 70
     0
102
RTVSPropertyOp52
 70
     0
102
RTVSPropertyOp53
 70
     1
102
RTVSPropertyOp54
 70
     1
102
RTVSPropertyOp55
 70
     1
102
RTVSPropertyOp56
 70
     1
102
RTVSPropertyOp57
 70
     1
102
RTVSPropertyOp58
 70
     1
102
RTVSPropertyOp59
 70
     1
102
RTVSPropertyOp60
 70
     1
102
RTVSPropertyOp61
 70
     1
102
RTVSPropertyOp62
 70
     1
  0
XRECORD
  5
1AE0A
102
{ACAD_REACTORS
330
1AE09
102
}
330
1AE09
100
AcDbXrecord
280
     1
102
RTVSPost2010Prop28
280
     0
102
RTVSPost2010PropOp28
 70
     1
102
RTVSPost2010Prop29
280
     1
102
RTVSPost2010PropOp29
 70
     1
102
RTVSPost2010Prop30
280
     1
102
RTVSPost2010PropOp30
 70
     1
102
RTVSPost2010Prop31
280
     0
102
RTVSPost2010PropOp31
 70
     1
102
RTVSPost2010Prop32
280
     0
102
RTVSPost2010PropOp32
 70
     1
102
RTVSPost2010Prop33
280
     0
102
RTVSPost2010PropOp33
 70
     1
102
RTVSPost2010Prop34
280
     0
102
RTVSPost2010PropOp34
 70
     1
102
RTVSPost2010Prop35
280
     0
102
RTVSPost2010PropOp35
 70
     1
102
RTVSPost2010Prop36
280
     0
102
RTVSPost2010PropOp36
 70
     1
102
RTVSPost2010Prop37
 90
       50
102
RTVSPost2010PropOp37
 70
     1
102
RTVSPost2010Prop38
140
0.0
102
RTVSPost2010PropOp38
 70
     1
102
RTVSPost2010Prop39
140
1.0
102
RTVSPost2010PropOp39
 70
     1
102
RTVSPost2010Prop40
 90
        0
102
RTVSPost2010PropOp40
 70
     1
102
RTVSPost2010Prop41ColorIndex
 90
       18
102
RTVSPost2010Prop41ColorRGB
 90
        0
102
RTVSPost2010PropOp41
 70
     1
102
RTVSPost2010Prop42
 90
       50
102
RTVSPost2010PropOp42
 70
     1
102
RTVSPost2010Prop43
 90
        3
102
RTVSPost2010PropOp43
 70
     1
102
RTVSPost2010Prop44ColorIndex
 90
        5
102
RTVSPost2010Prop44ColorRGB
 90
      255
102
RTVSPost2010PropOp44
 70
     1
102
RTVSPost2010Prop45
280
     0
102
RTVSPost2010PropOp45
 70
     1
102
RTVSPost2010Prop46
 90
       50
102
RTVSPost2010PropOp46
 70
     1
102
RTVSPost2010Prop47
 90
       50
102
RTVSPost2010PropOp47
 70
     1
102
RTVSPost2010Prop48
 90
       50
102
RTVSPost2010PropOp48
 70
     1
102
RTVSPost2010Prop49
280
     0
102
RTVSPost2010PropOp49
 70
     1
102
RTVSPost2010Prop50
 90
       50
102
RTVSPost2010PropOp50
 70
     1
102
RTVSPost2010Prop51ColorIndex
 90
      256
102
RTVSPost2010Prop51ColorRGB
 90
-16777216
102
RTVSPost2010PropOp51
 70
     0
102
RTVSPost2010Prop52
140
1.0
102
RTVSPost2010PropOp52
 70
     0
102
RTVSPost2010Prop53
 90
        2
102
RTVSPost2010PropOp53
 70
     1
102
RTVSPost2010Prop54
  1
strokes_ogs.tif
102
RTVSPost2010PropOp54
 70
     1
102
RTVSPost2010Prop55
280
     0
102
RTVSPost2010PropOp55
 70
     1
102
RTVSPost2010Prop56
140
1.0
102
RTVSPost2010PropOp56
 70
     1
102
RTVSPost2010Prop57
140
1.0
102
RTVSPost2010PropOp57
 70
     1
102
RTVSPropertyOp0
 70
     1
102
RTVSPropertyOp1
 70
     1
102
RTVSPropertyOp2
 70
     1
102
RTVSPropertyOp3
 70
     1
102
RTVSPropertyOp4
 70
     1
102
RTVSPropertyOp5
 70
     1
102
RTVSPropertyOp6
 70
     1
102
RTVSPropertyOp7
 70
     1
102
RTVSPropertyOp8
 70
     1
102
RTVSPropertyOp9
 70
     1
102
RTVSPropertyOp10
 70
     1
102
RTVSPropertyOp11
 70
     1
102
RTVSPropertyOp12
 70
     1
102
RTVSPropertyOp13
 70
     1
102
RTVSPropertyOp14
 70
     1
102
RTVSPropertyOp15
 70
     1
102
RTVSPropertyOp16
 70
     1
102
RTVSPropertyOp17
 70
     1
102
RTVSPropertyOp18
 70
     1
102
RTVSPropertyOp19
 70
     1
102
RTVSPropertyOp20
 70
     1
102
RTVSPropertyOp21
 70
     1
102
RTVSPropertyOp22
 70
     1
102
RTVSPropertyOp23
 70
     1
102
RTVSPropertyOp24
 70
     1
102
RTVSPropertyOp25
 70
     1
102
RTVSPropertyOp26
 70
     1
102
RTVSPropertyOp27
 70
     1
102
RTVSPropertyOp28
 70
     1
102
RTVSPropertyOp29
 70
     1
102
RTVSPropertyOp30
 70
     1
102
RTVSPropertyOp31
 70
     1
102
RTVSPropertyOp32
 70
     1
102
RTVSPropertyOp33
 70
     1
102
RTVSPropertyOp34
 70
     1
102
RTVSPropertyOp35
 70
     1
102
RTVSPropertyOp36
 70
     1
102
RTVSPropertyOp37
 70
     1
102
RTVSPropertyOp38
 70
     1
102
RTVSPropertyOp39
 70
     1
102
RTVSPropertyOp40
 70
     1
102
RTVSPropertyOp41
 70
     1
102
RTVSPropertyOp42
 70
     1
102
RTVSPropertyOp43
 70
     1
102
RTVSPropertyOp44
 70
     1
102
RTVSPropertyOp45
 70
     1
102
RTVSPropertyOp46
 70
     1
102
RTVSPropertyOp47
 70
     1
102
RTVSPropertyOp48
 70
     1
102
RTVSPropertyOp49
 70
     1
102
RTVSPropertyOp50
 70
     1
102
RTVSPropertyOp51
 70
     0
102
RTVSPropertyOp52
 70
     0
102
RTVSPropertyOp53
 70
     1
102
RTVSPropertyOp54
 70
     1
102
RTVSPropertyOp55
 70
     1
102
RTVSPropertyOp56
 70
     1
102
RTVSPropertyOp57
 70
     1
102
RTVSPropertyOp58
 70
     1
102
RTVSPropertyOp59
 70
     1
102
RTVSPropertyOp60
 70
     1
102
RTVSPropertyOp61
 70
     1
102
RTVSPropertyOp62
 70
     1
  0
XRECORD
  5
1ADFC
102
{ACAD_REACTORS
330
1ADFB
102
}
330
1ADFB
100
AcDbXrecord
280
     1
102
RTVSPost2010Prop28
280
     0
102
RTVSPost2010PropOp28
 70
     1
102
RTVSPost2010Prop29
280
     1
102
RTVSPost2010PropOp29
 70
     1
102
RTVSPost2010Prop30
280
     1
102
RTVSPost2010PropOp30
 70
     1
102
RTVSPost2010Prop31
280
     0
102
RTVSPost2010PropOp31
 70
     1
102
RTVSPost2010Prop32
280
     0
102
RTVSPost2010PropOp32
 70
     1
102
RTVSPost2010Prop33
280
     0
102
RTVSPost2010PropOp33
 70
     1
102
RTVSPost2010Prop34
280
     0
102
RTVSPost2010PropOp34
 70
     1
102
RTVSPost2010Prop35
280
     0
102
RTVSPost2010PropOp35
 70
     1
102
RTVSPost2010Prop36
280
     0
102
RTVSPost2010PropOp36
 70
     1
102
RTVSPost2010Prop37
 90
       50
102
RTVSPost2010PropOp37
 70
     1
102
RTVSPost2010Prop38
140
0.0
102
RTVSPost2010PropOp38
 70
     1
102
RTVSPost2010Prop39
140
1.0
102
RTVSPost2010PropOp39
 70
     1
102
RTVSPost2010Prop40
 90
        0
102
RTVSPost2010PropOp40
 70
     1
102
RTVSPost2010Prop41ColorIndex
 90
       18
102
RTVSPost2010Prop41ColorRGB
 90
        0
102
RTVSPost2010PropOp41
 70
     1
102
RTVSPost2010Prop42
 90
       50
102
RTVSPost2010PropOp42
 70
     1
102
RTVSPost2010Prop43
 90
        3
102
RTVSPost2010PropOp43
 70
     1
102
RTVSPost2010Prop44ColorIndex
 90
        5
102
RTVSPost2010Prop44ColorRGB
 90
      255
102
RTVSPost2010PropOp44
 70
     1
102
RTVSPost2010Prop45
280
     0
102
RTVSPost2010PropOp45
 70
     1
102
RTVSPost2010Prop46
 90
       50
102
RTVSPost2010PropOp46
 70
     1
102
RTVSPost2010Prop47
 90
       50
102
RTVSPost2010PropOp47
 70
     1
102
RTVSPost2010Prop48
 90
       50
102
RTVSPost2010PropOp48
 70
     1
102
RTVSPost2010Prop49
280
     0
102
RTVSPost2010PropOp49
 70
     1
102
RTVSPost2010Prop50
 90
       50
102
RTVSPost2010PropOp50
 70
     1
102
RTVSPost2010Prop51ColorIndex
 90
      256
102
RTVSPost2010Prop51ColorRGB
 90
-16777216
102
RTVSPost2010PropOp51
 70
     0
102
RTVSPost2010Prop52
140
1.0
102
RTVSPost2010PropOp52
 70
     0
102
RTVSPost2010Prop53
 90
        2
102
RTVSPost2010PropOp53
 70
     1
102
RTVSPost2010Prop54
  1
strokes_ogs.tif
102
RTVSPost2010PropOp54
 70
     1
102
RTVSPost2010Prop55
280
     0
102
RTVSPost2010PropOp55
 70
     1
102
RTVSPost2010Prop56
140
1.0
102
RTVSPost2010PropOp56
 70
     1
102
RTVSPost2010Prop57
140
1.0
102
RTVSPost2010PropOp57
 70
     1
102
RTVSPropertyOp0
 70
     1
102
RTVSPropertyOp1
 70
     1
102
RTVSPropertyOp2
 70
     1
102
RTVSPropertyOp3
 70
     1
102
RTVSPropertyOp4
 70
     1
102
RTVSPropertyOp5
 70
     1
102
RTVSPropertyOp6
 70
     1
102
RTVSPropertyOp7
 70
     1
102
RTVSPropertyOp8
 70
     1
102
RTVSPropertyOp9
 70
     1
102
RTVSPropertyOp10
 70
     1
102
RTVSPropertyOp11
 70
     1
102
RTVSPropertyOp12
 70
     1
102
RTVSPropertyOp13
 70
     1
102
RTVSPropertyOp14
 70
     1
102
RTVSPropertyOp15
 70
     1
102
RTVSPropertyOp16
 70
     1
102
RTVSPropertyOp17
 70
     1
102
RTVSPropertyOp18
 70
     1
102
RTVSPropertyOp19
 70
     1
102
RTVSPropertyOp20
 70
     1
102
RTVSPropertyOp21
 70
     1
102
RTVSPropertyOp22
 70
     1
102
RTVSPropertyOp23
 70
     1
102
RTVSPropertyOp24
 70
     1
102
RTVSPropertyOp25
 70
     1
102
RTVSPropertyOp26
 70
     1
102
RTVSPropertyOp27
 70
     1
102
RTVSPropertyOp28
 70
     1
102
RTVSPropertyOp29
 70
     1
102
RTVSPropertyOp30
 70
     1
102
RTVSPropertyOp31
 70
     1
102
RTVSPropertyOp32
 70
     1
102
RTVSPropertyOp33
 70
     1
102
RTVSPropertyOp34
 70
     1
102
RTVSPropertyOp35
 70
     1
102
RTVSPropertyOp36
 70
     1
102
RTVSPropertyOp37
 70
     1
102
RTVSPropertyOp38
 70
     1
102
RTVSPropertyOp39
 70
     1
102
RTVSPropertyOp40
 70
     1
102
RTVSPropertyOp41
 70
     1
102
RTVSPropertyOp42
 70
     1
102
RTVSPropertyOp43
 70
     1
102
RTVSPropertyOp44
 70
     1
102
RTVSPropertyOp45
 70
     1
102
RTVSPropertyOp46
 70
     1
102
RTVSPropertyOp47
 70
     1
102
RTVSPropertyOp48
 70
     1
102
RTVSPropertyOp49
 70
     1
102
RTVSPropertyOp50
 70
     1
102
RTVSPropertyOp51
 70
     0
102
RTVSPropertyOp52
 70
     0
102
RTVSPropertyOp53
 70
     1
102
RTVSPropertyOp54
 70
     1
102
RTVSPropertyOp55
 70
     1
102
RTVSPropertyOp56
 70
     1
102
RTVSPropertyOp57
 70
     1
102
RTVSPropertyOp58
 70
     1
102
RTVSPropertyOp59
 70
     1
102
RTVSPropertyOp60
 70
     1
102
RTVSPropertyOp61
 70
     1
102
RTVSPropertyOp62
 70
     1
  0
XRECORD
  5
1AE00
102
{ACAD_REACTORS
330
1ADFF
102
}
330
1ADFF
100
AcDbXrecord
280
     1
102
RTVSPost2010Prop28
280
     0
102
RTVSPost2010PropOp28
 70
     1
102
RTVSPost2010Prop29
280
     1
102
RTVSPost2010PropOp29
 70
     1
102
RTVSPost2010Prop30
280
     1
102
RTVSPost2010PropOp30
 70
     1
102
RTVSPost2010Prop31
280
     0
102
RTVSPost2010PropOp31
 70
     1
102
RTVSPost2010Prop32
280
     0
102
RTVSPost2010PropOp32
 70
     1
102
RTVSPost2010Prop33
280
     0
102
RTVSPost2010PropOp33
 70
     1
102
RTVSPost2010Prop34
280
     0
102
RTVSPost2010PropOp34
 70
     1
102
RTVSPost2010Prop35
280
     0
102
RTVSPost2010PropOp35
 70
     1
102
RTVSPost2010Prop36
280
     0
102
RTVSPost2010PropOp36
 70
     1
102
RTVSPost2010Prop37
 90
       50
102
RTVSPost2010PropOp37
 70
     1
102
RTVSPost2010Prop38
140
0.0
102
RTVSPost2010PropOp38
 70
     1
102
RTVSPost2010Prop39
140
1.0
102
RTVSPost2010PropOp39
 70
     1
102
RTVSPost2010Prop40
 90
        0
102
RTVSPost2010PropOp40
 70
     1
102
RTVSPost2010Prop41ColorIndex
 90
       18
102
RTVSPost2010Prop41ColorRGB
 90
        0
102
RTVSPost2010PropOp41
 70
     1
102
RTVSPost2010Prop42
 90
       50
102
RTVSPost2010PropOp42
 70
     1
102
RTVSPost2010Prop43
 90
        3
102
RTVSPost2010PropOp43
 70
     1
102
RTVSPost2010Prop44ColorIndex
 90
        5
102
RTVSPost2010Prop44ColorRGB
 90
      255
102
RTVSPost2010PropOp44
 70
     1
102
RTVSPost2010Prop45
280
     0
102
RTVSPost2010PropOp45
 70
     1
102
RTVSPost2010Prop46
 90
       50
102
RTVSPost2010PropOp46
 70
     1
102
RTVSPost2010Prop47
 90
       50
102
RTVSPost2010PropOp47
 70
     1
102
RTVSPost2010Prop48
 90
       50
102
RTVSPost2010PropOp48
 70
     1
102
RTVSPost2010Prop49
280
     0
102
RTVSPost2010PropOp49
 70
     1
102
RTVSPost2010Prop50
 90
       50
102
RTVSPost2010PropOp50
 70
     1
102
RTVSPost2010Prop51ColorIndex
 90
      256
102
RTVSPost2010Prop51ColorRGB
 90
-16777216
102
RTVSPost2010PropOp51
 70
     0
102
RTVSPost2010Prop52
140
1.0
102
RTVSPost2010PropOp52
 70
     0
102
RTVSPost2010Prop53
 90
        2
102
RTVSPost2010PropOp53
 70
     1
102
RTVSPost2010Prop54
  1
strokes_ogs.tif
102
RTVSPost2010PropOp54
 70
     1
102
RTVSPost2010Prop55
280
     0
102
RTVSPost2010PropOp55
 70
     1
102
RTVSPost2010Prop56
140
1.0
102
RTVSPost2010PropOp56
 70
     1
102
RTVSPost2010Prop57
140
1.0
102
RTVSPost2010PropOp57
 70
     1
102
RTVSPropertyOp0
 70
     1
102
RTVSPropertyOp1
 70
     1
102
RTVSPropertyOp2
 70
     1
102
RTVSPropertyOp3
 70
     1
102
RTVSPropertyOp4
 70
     1
102
RTVSPropertyOp5
 70
     1
102
RTVSPropertyOp6
 70
     1
102
RTVSPropertyOp7
 70
     1
102
RTVSPropertyOp8
 70
     1
102
RTVSPropertyOp9
 70
     1
102
RTVSPropertyOp10
 70
     1
102
RTVSPropertyOp11
 70
     1
102
RTVSPropertyOp12
 70
     1
102
RTVSPropertyOp13
 70
     1
102
RTVSPropertyOp14
 70
     1
102
RTVSPropertyOp15
 70
     1
102
RTVSPropertyOp16
 70
     1
102
RTVSPropertyOp17
 70
     1
102
RTVSPropertyOp18
 70
     1
102
RTVSPropertyOp19
 70
     1
102
RTVSPropertyOp20
 70
     1
102
RTVSPropertyOp21
 70
     1
102
RTVSPropertyOp22
 70
     1
102
RTVSPropertyOp23
 70
     1
102
RTVSPropertyOp24
 70
     1
102
RTVSPropertyOp25
 70
     1
102
RTVSPropertyOp26
 70
     1
102
RTVSPropertyOp27
 70
     1
102
RTVSPropertyOp28
 70
     1
102
RTVSPropertyOp29
 70
     1
102
RTVSPropertyOp30
 70
     1
102
RTVSPropertyOp31
 70
     1
102
RTVSPropertyOp32
 70
     1
102
RTVSPropertyOp33
 70
     1
102
RTVSPropertyOp34
 70
     1
102
RTVSPropertyOp35
 70
     1
102
RTVSPropertyOp36
 70
     1
102
RTVSPropertyOp37
 70
     1
102
RTVSPropertyOp38
 70
     1
102
RTVSPropertyOp39
 70
     1
102
RTVSPropertyOp40
 70
     1
102
RTVSPropertyOp41
 70
     1
102
RTVSPropertyOp42
 70
     1
102
RTVSPropertyOp43
 70
     1
102
RTVSPropertyOp44
 70
     1
102
RTVSPropertyOp45
 70
     1
102
RTVSPropertyOp46
 70
     1
102
RTVSPropertyOp47
 70
     1
102
RTVSPropertyOp48
 70
     1
102
RTVSPropertyOp49
 70
     1
102
RTVSPropertyOp50
 70
     1
102
RTVSPropertyOp51
 70
     0
102
RTVSPropertyOp52
 70
     0
102
RTVSPropertyOp53
 70
     1
102
RTVSPropertyOp54
 70
     1
102
RTVSPropertyOp55
 70
     1
102
RTVSPropertyOp56
 70
     1
102
RTVSPropertyOp57
 70
     1
102
RTVSPropertyOp58
 70
     1
102
RTVSPropertyOp59
 70
     1
102
RTVSPropertyOp60
 70
     1
102
RTVSPropertyOp61
 70
     1
102
RTVSPropertyOp62
 70
     1
  0
XRECORD
  5
1AE21
102
{ACAD_REACTORS
330
1AE20
102
}
330
1AE20
100
AcDbXrecord
280
     1
102
RTVSPost2010Prop28
280
     0
102
RTVSPost2010PropOp28
 70
     0
102
RTVSPost2010Prop29
280
     1
102
RTVSPost2010PropOp29
 70
     0
102
RTVSPost2010Prop30
280
     1
102
RTVSPost2010PropOp30
 70
     0
102
RTVSPost2010Prop31
280
     0
102
RTVSPost2010PropOp31
 70
     0
102
RTVSPost2010Prop32
280
     0
102
RTVSPost2010PropOp32
 70
     0
102
RTVSPost2010Prop33
280
     0
102
RTVSPost2010PropOp33
 70
     0
102
RTVSPost2010Prop34
280
     0
102
RTVSPost2010PropOp34
 70
     0
102
RTVSPost2010Prop35
280
     0
102
RTVSPost2010PropOp35
 70
     0
102
RTVSPost2010Prop36
280
     0
102
RTVSPost2010PropOp36
 70
     0
102
RTVSPost2010Prop37
 90
       50
102
RTVSPost2010PropOp37
 70
     0
102
RTVSPost2010Prop38
140
0.0
102
RTVSPost2010PropOp38
 70
     0
102
RTVSPost2010Prop39
140
1.0
102
RTVSPost2010PropOp39
 70
     0
102
RTVSPost2010Prop40
 90
        0
102
RTVSPost2010PropOp40
 70
     0
102
RTVSPost2010Prop41ColorIndex
 90
       18
102
RTVSPost2010Prop41ColorRGB
 90
        0
102
RTVSPost2010PropOp41
 70
     0
102
RTVSPost2010Prop42
 90
       50
102
RTVSPost2010PropOp42
 70
     0
102
RTVSPost2010Prop43
 90
        3
102
RTVSPost2010PropOp43
 70
     0
102
RTVSPost2010Prop44ColorIndex
 90
        5
102
RTVSPost2010Prop44ColorRGB
 90
      255
102
RTVSPost2010PropOp44
 70
     0
102
RTVSPost2010Prop45
280
     0
102
RTVSPost2010PropOp45
 70
     0
102
RTVSPost2010Prop46
 90
       50
102
RTVSPost2010PropOp46
 70
     0
102
RTVSPost2010Prop47
 90
       50
102
RTVSPost2010PropOp47
 70
     0
102
RTVSPost2010Prop48
 90
       50
102
RTVSPost2010PropOp48
 70
     0
102
RTVSPost2010Prop49
280
     0
102
RTVSPost2010PropOp49
 70
     0
102
RTVSPost2010Prop50
 90
       50
102
RTVSPost2010PropOp50
 70
     0
102
RTVSPost2010Prop51ColorIndex
 90
      256
102
RTVSPost2010Prop51ColorRGB
 90
-16777216
102
RTVSPost2010PropOp51
 70
     0
102
RTVSPost2010Prop52
140
1.0
102
RTVSPost2010PropOp52
 70
     0
102
RTVSPost2010Prop53
 90
        2
102
RTVSPost2010PropOp53
 70
     0
102
RTVSPost2010Prop54
  1
strokes_ogs.tif
102
RTVSPost2010PropOp54
 70
     0
102
RTVSPost2010Prop55
280
     0
102
RTVSPost2010PropOp55
 70
     0
102
RTVSPost2010Prop56
140
1.0
102
RTVSPost2010PropOp56
 70
     0
102
RTVSPost2010Prop57
140
1.0
102
RTVSPost2010PropOp57
 70
     0
102
RTVSPropertyOp0
 70
     0
102
RTVSPropertyOp1
 70
     0
102
RTVSPropertyOp2
 70
     0
102
RTVSPropertyOp3
 70
     0
102
RTVSPropertyOp4
 70
     0
102
RTVSPropertyOp5
 70
     0
102
RTVSPropertyOp6
 70
     0
102
RTVSPropertyOp7
 70
     0
102
RTVSPropertyOp8
 70
     0
102
RTVSPropertyOp9
 70
     0
102
RTVSPropertyOp10
 70
     0
102
RTVSPropertyOp11
 70
     0
102
RTVSPropertyOp12
 70
     0
102
RTVSPropertyOp13
 70
     0
102
RTVSPropertyOp14
 70
     2
102
RTVSPropertyOp15
 70
     0
102
RTVSPropertyOp16
 70
     0
102
RTVSPropertyOp17
 70
     0
102
RTVSPropertyOp18
 70
     0
102
RTVSPropertyOp19
 70
     0
102
RTVSPropertyOp20
 70
     0
102
RTVSPropertyOp21
 70
     0
102
RTVSPropertyOp22
 70
     0
102
RTVSPropertyOp23
 70
     0
102
RTVSPropertyOp24
 70
     0
102
RTVSPropertyOp25
 70
     0
102
RTVSPropertyOp26
 70
     0
102
RTVSPropertyOp27
 70
     0
102
RTVSPropertyOp28
 70
     0
102
RTVSPropertyOp29
 70
     0
102
RTVSPropertyOp30
 70
     0
102
RTVSPropertyOp31
 70
     0
102
RTVSPropertyOp32
 70
     0
102
RTVSPropertyOp33
 70
     0
102
RTVSPropertyOp34
 70
     0
102
RTVSPropertyOp35
 70
     0
102
RTVSPropertyOp36
 70
     0
102
RTVSPropertyOp37
 70
     0
102
RTVSPropertyOp38
 70
     0
102
RTVSPropertyOp39
 70
     0
102
RTVSPropertyOp40
 70
     0
102
RTVSPropertyOp41
 70
     0
102
RTVSPropertyOp42
 70
     0
102
RTVSPropertyOp43
 70
     0
102
RTVSPropertyOp44
 70
     0
102
RTVSPropertyOp45
 70
     0
102
RTVSPropertyOp46
 70
     0
102
RTVSPropertyOp47
 70
     0
102
RTVSPropertyOp48
 70
     0
102
RTVSPropertyOp49
 70
     0
102
RTVSPropertyOp50
 70
     0
102
RTVSPropertyOp51
 70
     0
102
RTVSPropertyOp52
 70
     0
102
RTVSPropertyOp53
 70
     0
102
RTVSPropertyOp54
 70
     0
102
RTVSPropertyOp55
 70
     0
102
RTVSPropertyOp56
 70
     0
102
RTVSPropertyOp57
 70
     0
102
RTVSPropertyOp58
 70
     0
102
RTVSPropertyOp59
 70
     0
102
RTVSPropertyOp60
 70
     0
102
RTVSPropertyOp61
 70
     0
102
RTVSPropertyOp62
 70
     0
  0
XRECORD
  5
1AE08
102
{ACAD_REACTORS
330
1AE07
102
}
330
1AE07
100
AcDbXrecord
280
     1
102
RTVSPost2010Prop28
280
     0
102
RTVSPost2010PropOp28
 70
     1
102
RTVSPost2010Prop29
280
     1
102
RTVSPost2010PropOp29
 70
     1
102
RTVSPost2010Prop30
280
     1
102
RTVSPost2010PropOp30
 70
     1
102
RTVSPost2010Prop31
280
     0
102
RTVSPost2010PropOp31
 70
     1
102
RTVSPost2010Prop32
280
     0
102
RTVSPost2010PropOp32
 70
     1
102
RTVSPost2010Prop33
280
     0
102
RTVSPost2010PropOp33
 70
     1
102
RTVSPost2010Prop34
280
     0
102
RTVSPost2010PropOp34
 70
     1
102
RTVSPost2010Prop35
280
     0
102
RTVSPost2010PropOp35
 70
     1
102
RTVSPost2010Prop36
280
     0
102
RTVSPost2010PropOp36
 70
     1
102
RTVSPost2010Prop37
 90
       50
102
RTVSPost2010PropOp37
 70
     1
102
RTVSPost2010Prop38
140
0.0
102
RTVSPost2010PropOp38
 70
     1
102
RTVSPost2010Prop39
140
1.0
102
RTVSPost2010PropOp39
 70
     1
102
RTVSPost2010Prop40
 90
        0
102
RTVSPost2010PropOp40
 70
     1
102
RTVSPost2010Prop41ColorIndex
 90
       18
102
RTVSPost2010Prop41ColorRGB
 90
        0
102
RTVSPost2010PropOp41
 70
     1
102
RTVSPost2010Prop42
 90
       50
102
RTVSPost2010PropOp42
 70
     1
102
RTVSPost2010Prop43
 90
        3
102
RTVSPost2010PropOp43
 70
     1
102
RTVSPost2010Prop44ColorIndex
 90
        5
102
RTVSPost2010Prop44ColorRGB
 90
      255
102
RTVSPost2010PropOp44
 70
     1
102
RTVSPost2010Prop45
280
     0
102
RTVSPost2010PropOp45
 70
     1
102
RTVSPost2010Prop46
 90
       50
102
RTVSPost2010PropOp46
 70
     1
102
RTVSPost2010Prop47
 90
       50
102
RTVSPost2010PropOp47
 70
     1
102
RTVSPost2010Prop48
 90
       50
102
RTVSPost2010PropOp48
 70
     1
102
RTVSPost2010Prop49
280
     0
102
RTVSPost2010PropOp49
 70
     1
102
RTVSPost2010Prop50
 90
       50
102
RTVSPost2010PropOp50
 70
     1
102
RTVSPost2010Prop51ColorIndex
 90
      256
102
RTVSPost2010Prop51ColorRGB
 90
-16777216
102
RTVSPost2010PropOp51
 70
     0
102
RTVSPost2010Prop52
140
1.0
102
RTVSPost2010PropOp52
 70
     0
102
RTVSPost2010Prop53
 90
        2
102
RTVSPost2010PropOp53
 70
     1
102
RTVSPost2010Prop54
  1
strokes_ogs.tif
102
RTVSPost2010PropOp54
 70
     1
102
RTVSPost2010Prop55
280
     0
102
RTVSPost2010PropOp55
 70
     1
102
RTVSPost2010Prop56
140
1.0
102
RTVSPost2010PropOp56
 70
     1
102
RTVSPost2010Prop57
140
1.0
102
RTVSPost2010PropOp57
 70
     1
102
RTVSPropertyOp0
 70
     1
102
RTVSPropertyOp1
 70
     1
102
RTVSPropertyOp2
 70
     1
102
RTVSPropertyOp3
 70
     1
102
RTVSPropertyOp4
 70
     1
102
RTVSPropertyOp5
 70
     1
102
RTVSPropertyOp6
 70
     1
102
RTVSPropertyOp7
 70
     1
102
RTVSPropertyOp8
 70
     1
102
RTVSPropertyOp9
 70
     1
102
RTVSPropertyOp10
 70
     1
102
RTVSPropertyOp11
 70
     1
102
RTVSPropertyOp12
 70
     1
102
RTVSPropertyOp13
 70
     1
102
RTVSPropertyOp14
 70
     1
102
RTVSPropertyOp15
 70
     1
102
RTVSPropertyOp16
 70
     1
102
RTVSPropertyOp17
 70
     1
102
RTVSPropertyOp18
 70
     1
102
RTVSPropertyOp19
 70
     1
102
RTVSPropertyOp20
 70
     1
102
RTVSPropertyOp21
 70
     1
102
RTVSPropertyOp22
 70
     1
102
RTVSPropertyOp23
 70
     1
102
RTVSPropertyOp24
 70
     1
102
RTVSPropertyOp25
 70
     1
102
RTVSPropertyOp26
 70
     1
102
RTVSPropertyOp27
 70
     1
102
RTVSPropertyOp28
 70
     1
102
RTVSPropertyOp29
 70
     1
102
RTVSPropertyOp30
 70
     1
102
RTVSPropertyOp31
 70
     1
102
RTVSPropertyOp32
 70
     1
102
RTVSPropertyOp33
 70
     1
102
RTVSPropertyOp34
 70
     1
102
RTVSPropertyOp35
 70
     1
102
RTVSPropertyOp36
 70
     1
102
RTVSPropertyOp37
 70
     1
102
RTVSPropertyOp38
 70
     1
102
RTVSPropertyOp39
 70
     1
102
RTVSPropertyOp40
 70
     1
102
RTVSPropertyOp41
 70
     1
102
RTVSPropertyOp42
 70
     1
102
RTVSPropertyOp43
 70
     1
102
RTVSPropertyOp44
 70
     1
102
RTVSPropertyOp45
 70
     1
102
RTVSPropertyOp46
 70
     1
102
RTVSPropertyOp47
 70
     1
102
RTVSPropertyOp48
 70
     1
102
RTVSPropertyOp49
 70
     1
102
RTVSPropertyOp50
 70
     1
102
RTVSPropertyOp51
 70
     0
102
RTVSPropertyOp52
 70
     0
102
RTVSPropertyOp53
 70
     1
102
RTVSPropertyOp54
 70
     1
102
RTVSPropertyOp55
 70
     1
102
RTVSPropertyOp56
 70
     1
102
RTVSPropertyOp57
 70
     1
102
RTVSPropertyOp58
 70
     1
102
RTVSPropertyOp59
 70
     1
102
RTVSPropertyOp60
 70
     1
102
RTVSPropertyOp61
 70
     1
102
RTVSPropertyOp62
 70
     1
  0
XRECORD
  5
1ADEC
102
{ACAD_REACTORS
330
1ADEB
102
}
330
1ADEB
100
AcDbXrecord
280
     1
102
RTVSPost2010Prop28
280
     0
102
RTVSPost2010PropOp28
 70
     1
102
RTVSPost2010Prop29
280
     1
102
RTVSPost2010PropOp29
 70
     1
102
RTVSPost2010Prop30
280
     1
102
RTVSPost2010PropOp30
 70
     1
102
RTVSPost2010Prop31
280
     0
102
RTVSPost2010PropOp31
 70
     1
102
RTVSPost2010Prop32
280
     0
102
RTVSPost2010PropOp32
 70
     1
102
RTVSPost2010Prop33
280
     0
102
RTVSPost2010PropOp33
 70
     1
102
RTVSPost2010Prop34
280
     0
102
RTVSPost2010PropOp34
 70
     1
102
RTVSPost2010Prop35
280
     0
102
RTVSPost2010PropOp35
 70
     1
102
RTVSPost2010Prop36
280
     0
102
RTVSPost2010PropOp36
 70
     1
102
RTVSPost2010Prop37
 90
       50
102
RTVSPost2010PropOp37
 70
     1
102
RTVSPost2010Prop38
140
0.0
102
RTVSPost2010PropOp38
 70
     1
102
RTVSPost2010Prop39
140
1.0
102
RTVSPost2010PropOp39
 70
     1
102
RTVSPost2010Prop40
 90
        0
102
RTVSPost2010PropOp40
 70
     1
102
RTVSPost2010Prop41ColorIndex
 90
       18
102
RTVSPost2010Prop41ColorRGB
 90
        0
102
RTVSPost2010PropOp41
 70
     1
102
RTVSPost2010Prop42
 90
       50
102
RTVSPost2010PropOp42
 70
     1
102
RTVSPost2010Prop43
 90
        3
102
RTVSPost2010PropOp43
 70
     1
102
RTVSPost2010Prop44ColorIndex
 90
        5
102
RTVSPost2010Prop44ColorRGB
 90
      255
102
RTVSPost2010PropOp44
 70
     1
102
RTVSPost2010Prop45
280
     0
102
RTVSPost2010PropOp45
 70
     1
102
RTVSPost2010Prop46
 90
       50
102
RTVSPost2010PropOp46
 70
     1
102
RTVSPost2010Prop47
 90
       50
102
RTVSPost2010PropOp47
 70
     1
102
RTVSPost2010Prop48
 90
       50
102
RTVSPost2010PropOp48
 70
     1
102
RTVSPost2010Prop49
280
     0
102
RTVSPost2010PropOp49
 70
     1
102
RTVSPost2010Prop50
 90
       50
102
RTVSPost2010PropOp50
 70
     1
102
RTVSPost2010Prop51ColorIndex
 90
      256
102
RTVSPost2010Prop51ColorRGB
 90
-16777216
102
RTVSPost2010PropOp51
 70
     0
102
RTVSPost2010Prop52
140
1.0
102
RTVSPost2010PropOp52
 70
     0
102
RTVSPost2010Prop53
 90
        2
102
RTVSPost2010PropOp53
 70
     1
102
RTVSPost2010Prop54
  1
strokes_ogs.tif
102
RTVSPost2010PropOp54
 70
     1
102
RTVSPost2010Prop55
280
     0
102
RTVSPost2010PropOp55
 70
     1
102
RTVSPost2010Prop56
140
1.0
102
RTVSPost2010PropOp56
 70
     1
102
RTVSPost2010Prop57
140
1.0
102
RTVSPost2010PropOp57
 70
     1
102
RTVSPropertyOp0
 70
     1
102
RTVSPropertyOp1
 70
     1
102
RTVSPropertyOp2
 70
     1
102
RTVSPropertyOp3
 70
     1
102
RTVSPropertyOp4
 70
     1
102
RTVSPropertyOp5
 70
     1
102
RTVSPropertyOp6
 70
     1
102
RTVSPropertyOp7
 70
     1
102
RTVSPropertyOp8
 70
     1
102
RTVSPropertyOp9
 70
     1
102
RTVSPropertyOp10
 70
     1
102
RTVSPropertyOp11
 70
     1
102
RTVSPropertyOp12
 70
     1
102
RTVSPropertyOp13
 70
     1
102
RTVSPropertyOp14
 70
     1
102
RTVSPropertyOp15
 70
     1
102
RTVSPropertyOp16
 70
     1
102
RTVSPropertyOp17
 70
     1
102
RTVSPropertyOp18
 70
     1
102
RTVSPropertyOp19
 70
     1
102
RTVSPropertyOp20
 70
     1
102
RTVSPropertyOp21
 70
     1
102
RTVSPropertyOp22
 70
     1
102
RTVSPropertyOp23
 70
     1
102
RTVSPropertyOp24
 70
     1
102
RTVSPropertyOp25
 70
     1
102
RTVSPropertyOp26
 70
     1
102
RTVSPropertyOp27
 70
     1
102
RTVSPropertyOp28
 70
     1
102
RTVSPropertyOp29
 70
     1
102
RTVSPropertyOp30
 70
     1
102
RTVSPropertyOp31
 70
     1
102
RTVSPropertyOp32
 70
     1
102
RTVSPropertyOp33
 70
     1
102
RTVSPropertyOp34
 70
     1
102
RTVSPropertyOp35
 70
     1
102
RTVSPropertyOp36
 70
     1
102
RTVSPropertyOp37
 70
     1
102
RTVSPropertyOp38
 70
     1
102
RTVSPropertyOp39
 70
     1
102
RTVSPropertyOp40
 70
     1
102
RTVSPropertyOp41
 70
     1
102
RTVSPropertyOp42
 70
     1
102
RTVSPropertyOp43
 70
     1
102
RTVSPropertyOp44
 70
     1
102
RTVSPropertyOp45
 70
     1
102
RTVSPropertyOp46
 70
     1
102
RTVSPropertyOp47
 70
     1
102
RTVSPropertyOp48
 70
     1
102
RTVSPropertyOp49
 70
     1
102
RTVSPropertyOp50
 70
     1
102
RTVSPropertyOp51
 70
     0
102
RTVSPropertyOp52
 70
     0
102
RTVSPropertyOp53
 70
     1
102
RTVSPropertyOp54
 70
     1
102
RTVSPropertyOp55
 70
     1
102
RTVSPropertyOp56
 70
     1
102
RTVSPropertyOp57
 70
     1
102
RTVSPropertyOp58
 70
     1
102
RTVSPropertyOp59
 70
     1
102
RTVSPropertyOp60
 70
     1
102
RTVSPropertyOp61
 70
     1
102
RTVSPropertyOp62
 70
     1
  0
XRECORD
  5
1ADEE
102
{ACAD_REACTORS
330
1ADED
102
}
330
1ADED
100
AcDbXrecord
280
     1
102
RTVSPost2010Prop28
280
     0
102
RTVSPost2010PropOp28
 70
     1
102
RTVSPost2010Prop29
280
     1
102
RTVSPost2010PropOp29
 70
     1
102
RTVSPost2010Prop30
280
     1
102
RTVSPost2010PropOp30
 70
     1
102
RTVSPost2010Prop31
280
     0
102
RTVSPost2010PropOp31
 70
     1
102
RTVSPost2010Prop32
280
     0
102
RTVSPost2010PropOp32
 70
     1
102
RTVSPost2010Prop33
280
     0
102
RTVSPost2010PropOp33
 70
     1
102
RTVSPost2010Prop34
280
     0
102
RTVSPost2010PropOp34
 70
     1
102
RTVSPost2010Prop35
280
     0
102
RTVSPost2010PropOp35
 70
     1
102
RTVSPost2010Prop36
280
     0
102
RTVSPost2010PropOp36
 70
     1
102
RTVSPost2010Prop37
 90
       50
102
RTVSPost2010PropOp37
 70
     1
102
RTVSPost2010Prop38
140
0.0
102
RTVSPost2010PropOp38
 70
     1
102
RTVSPost2010Prop39
140
1.0
102
RTVSPost2010PropOp39
 70
     1
102
RTVSPost2010Prop40
 90
        0
102
RTVSPost2010PropOp40
 70
     1
102
RTVSPost2010Prop41ColorIndex
 90
       18
102
RTVSPost2010Prop41ColorRGB
 90
        0
102
RTVSPost2010PropOp41
 70
     1
102
RTVSPost2010Prop42
 90
       50
102
RTVSPost2010PropOp42
 70
     1
102
RTVSPost2010Prop43
 90
        3
102
RTVSPost2010PropOp43
 70
     1
102
RTVSPost2010Prop44ColorIndex
 90
        5
102
RTVSPost2010Prop44ColorRGB
 90
      255
102
RTVSPost2010PropOp44
 70
     1
102
RTVSPost2010Prop45
280
     0
102
RTVSPost2010PropOp45
 70
     1
102
RTVSPost2010Prop46
 90
       50
102
RTVSPost2010PropOp46
 70
     1
102
RTVSPost2010Prop47
 90
       50
102
RTVSPost2010PropOp47
 70
     1
102
RTVSPost2010Prop48
 90
       50
102
RTVSPost2010PropOp48
 70
     1
102
RTVSPost2010Prop49
280
     0
102
RTVSPost2010PropOp49
 70
     1
102
RTVSPost2010Prop50
 90
       50
102
RTVSPost2010PropOp50
 70
     1
102
RTVSPost2010Prop51ColorIndex
 90
      256
102
RTVSPost2010Prop51ColorRGB
 90
-16777216
102
RTVSPost2010PropOp51
 70
     0
102
RTVSPost2010Prop52
140
1.0
102
RTVSPost2010PropOp52
 70
     0
102
RTVSPost2010Prop53
 90
        2
102
RTVSPost2010PropOp53
 70
     1
102
RTVSPost2010Prop54
  1
strokes_ogs.tif
102
RTVSPost2010PropOp54
 70
     1
102
RTVSPost2010Prop55
280
     0
102
RTVSPost2010PropOp55
 70
     1
102
RTVSPost2010Prop56
140
1.0
102
RTVSPost2010PropOp56
 70
     1
102
RTVSPost2010Prop57
140
1.0
102
RTVSPost2010PropOp57
 70
     1
102
RTVSPropertyOp0
 70
     1
102
RTVSPropertyOp1
 70
     1
102
RTVSPropertyOp2
 70
     1
102
RTVSPropertyOp3
 70
     1
102
RTVSPropertyOp4
 70
     1
102
RTVSPropertyOp5
 70
     1
102
RTVSPropertyOp6
 70
     1
102
RTVSPropertyOp7
 70
     1
102
RTVSPropertyOp8
 70
     1
102
RTVSPropertyOp9
 70
     1
102
RTVSPropertyOp10
 70
     1
102
RTVSPropertyOp11
 70
     1
102
RTVSPropertyOp12
 70
     1
102
RTVSPropertyOp13
 70
     1
102
RTVSPropertyOp14
 70
     1
102
RTVSPropertyOp15
 70
     1
102
RTVSPropertyOp16
 70
     1
102
RTVSPropertyOp17
 70
     1
102
RTVSPropertyOp18
 70
     1
102
RTVSPropertyOp19
 70
     1
102
RTVSPropertyOp20
 70
     1
102
RTVSPropertyOp21
 70
     1
102
RTVSPropertyOp22
 70
     1
102
RTVSPropertyOp23
 70
     1
102
RTVSPropertyOp24
 70
     1
102
RTVSPropertyOp25
 70
     1
102
RTVSPropertyOp26
 70
     1
102
RTVSPropertyOp27
 70
     1
102
RTVSPropertyOp28
 70
     1
102
RTVSPropertyOp29
 70
     1
102
RTVSPropertyOp30
 70
     1
102
RTVSPropertyOp31
 70
     1
102
RTVSPropertyOp32
 70
     1
102
RTVSPropertyOp33
 70
     1
102
RTVSPropertyOp34
 70
     1
102
RTVSPropertyOp35
 70
     1
102
RTVSPropertyOp36
 70
     1
102
RTVSPropertyOp37
 70
     1
102
RTVSPropertyOp38
 70
     1
102
RTVSPropertyOp39
 70
     1
102
RTVSPropertyOp40
 70
     1
102
RTVSPropertyOp41
 70
     1
102
RTVSPropertyOp42
 70
     1
102
RTVSPropertyOp43
 70
     1
102
RTVSPropertyOp44
 70
     1
102
RTVSPropertyOp45
 70
     1
102
RTVSPropertyOp46
 70
     1
102
RTVSPropertyOp47
 70
     1
102
RTVSPropertyOp48
 70
     1
102
RTVSPropertyOp49
 70
     1
102
RTVSPropertyOp50
 70
     1
102
RTVSPropertyOp51
 70
     0
102
RTVSPropertyOp52
 70
     0
102
RTVSPropertyOp53
 70
     1
102
RTVSPropertyOp54
 70
     1
102
RTVSPropertyOp55
 70
     1
102
RTVSPropertyOp56
 70
     1
102
RTVSPropertyOp57
 70
     1
102
RTVSPropertyOp58
 70
     1
102
RTVSPropertyOp59
 70
     1
102
RTVSPropertyOp60
 70
     1
102
RTVSPropertyOp61
 70
     1
102
RTVSPropertyOp62
 70
     1
  0
XRECORD
  5
1ADF0
102
{ACAD_REACTORS
330
1ADEF
102
}
330
1ADEF
100
AcDbXrecord
280
     1
102
RTVSPost2010Prop28
280
     0
102
RTVSPost2010PropOp28
 70
     1
102
RTVSPost2010Prop29
280
     1
102
RTVSPost2010PropOp29
 70
     1
102
RTVSPost2010Prop30
280
     1
102
RTVSPost2010PropOp30
 70
     1
102
RTVSPost2010Prop31
280
     0
102
RTVSPost2010PropOp31
 70
     1
102
RTVSPost2010Prop32
280
     0
102
RTVSPost2010PropOp32
 70
     1
102
RTVSPost2010Prop33
280
     0
102
RTVSPost2010PropOp33
 70
     1
102
RTVSPost2010Prop34
280
     0
102
RTVSPost2010PropOp34
 70
     1
102
RTVSPost2010Prop35
280
     0
102
RTVSPost2010PropOp35
 70
     1
102
RTVSPost2010Prop36
280
     0
102
RTVSPost2010PropOp36
 70
     1
102
RTVSPost2010Prop37
 90
       50
102
RTVSPost2010PropOp37
 70
     1
102
RTVSPost2010Prop38
140
0.0
102
RTVSPost2010PropOp38
 70
     1
102
RTVSPost2010Prop39
140
1.0
102
RTVSPost2010PropOp39
 70
     1
102
RTVSPost2010Prop40
 90
        0
102
RTVSPost2010PropOp40
 70
     1
102
RTVSPost2010Prop41ColorIndex
 90
       18
102
RTVSPost2010Prop41ColorRGB
 90
        0
102
RTVSPost2010PropOp41
 70
     1
102
RTVSPost2010Prop42
 90
       50
102
RTVSPost2010PropOp42
 70
     1
102
RTVSPost2010Prop43
 90
        3
102
RTVSPost2010PropOp43
 70
     1
102
RTVSPost2010Prop44ColorIndex
 90
        5
102
RTVSPost2010Prop44ColorRGB
 90
      255
102
RTVSPost2010PropOp44
 70
     1
102
RTVSPost2010Prop45
280
     0
102
RTVSPost2010PropOp45
 70
     1
102
RTVSPost2010Prop46
 90
       50
102
RTVSPost2010PropOp46
 70
     1
102
RTVSPost2010Prop47
 90
       50
102
RTVSPost2010PropOp47
 70
     1
102
RTVSPost2010Prop48
 90
       50
102
RTVSPost2010PropOp48
 70
     1
102
RTVSPost2010Prop49
280
     0
102
RTVSPost2010PropOp49
 70
     1
102
RTVSPost2010Prop50
 90
       50
102
RTVSPost2010PropOp50
 70
     1
102
RTVSPost2010Prop51ColorIndex
 90
      256
102
RTVSPost2010Prop51ColorRGB
 90
-16777216
102
RTVSPost2010PropOp51
 70
     0
102
RTVSPost2010Prop52
140
1.0
102
RTVSPost2010PropOp52
 70
     0
102
RTVSPost2010Prop53
 90
        2
102
RTVSPost2010PropOp53
 70
     1
102
RTVSPost2010Prop54
  1
strokes_ogs.tif
102
RTVSPost2010PropOp54
 70
     1
102
RTVSPost2010Prop55
280
     0
102
RTVSPost2010PropOp55
 70
     1
102
RTVSPost2010Prop56
140
1.0
102
RTVSPost2010PropOp56
 70
     1
102
RTVSPost2010Prop57
140
1.0
102
RTVSPost2010PropOp57
 70
     1
102
RTVSPropertyOp0
 70
     1
102
RTVSPropertyOp1
 70
     1
102
RTVSPropertyOp2
 70
     1
102
RTVSPropertyOp3
 70
     1
102
RTVSPropertyOp4
 70
     1
102
RTVSPropertyOp5
 70
     1
102
RTVSPropertyOp6
 70
     1
102
RTVSPropertyOp7
 70
     1
102
RTVSPropertyOp8
 70
     1
102
RTVSPropertyOp9
 70
     1
102
RTVSPropertyOp10
 70
     1
102
RTVSPropertyOp11
 70
     1
102
RTVSPropertyOp12
 70
     1
102
RTVSPropertyOp13
 70
     1
102
RTVSPropertyOp14
 70
     1
102
RTVSPropertyOp15
 70
     1
102
RTVSPropertyOp16
 70
     1
102
RTVSPropertyOp17
 70
     1
102
RTVSPropertyOp18
 70
     1
102
RTVSPropertyOp19
 70
     1
102
RTVSPropertyOp20
 70
     1
102
RTVSPropertyOp21
 70
     1
102
RTVSPropertyOp22
 70
     1
102
RTVSPropertyOp23
 70
     1
102
RTVSPropertyOp24
 70
     1
102
RTVSPropertyOp25
 70
     1
102
RTVSPropertyOp26
 70
     1
102
RTVSPropertyOp27
 70
     1
102
RTVSPropertyOp28
 70
     1
102
RTVSPropertyOp29
 70
     1
102
RTVSPropertyOp30
 70
     1
102
RTVSPropertyOp31
 70
     1
102
RTVSPropertyOp32
 70
     1
102
RTVSPropertyOp33
 70
     1
102
RTVSPropertyOp34
 70
     1
102
RTVSPropertyOp35
 70
     1
102
RTVSPropertyOp36
 70
     1
102
RTVSPropertyOp37
 70
     1
102
RTVSPropertyOp38
 70
     1
102
RTVSPropertyOp39
 70
     1
102
RTVSPropertyOp40
 70
     1
102
RTVSPropertyOp41
 70
     1
102
RTVSPropertyOp42
 70
     1
102
RTVSPropertyOp43
 70
     1
102
RTVSPropertyOp44
 70
     1
102
RTVSPropertyOp45
 70
     1
102
RTVSPropertyOp46
 70
     1
102
RTVSPropertyOp47
 70
     1
102
RTVSPropertyOp48
 70
     1
102
RTVSPropertyOp49
 70
     1
102
RTVSPropertyOp50
 70
     1
102
RTVSPropertyOp51
 70
     0
102
RTVSPropertyOp52
 70
     0
102
RTVSPropertyOp53
 70
     1
102
RTVSPropertyOp54
 70
     1
102
RTVSPropertyOp55
 70
     1
102
RTVSPropertyOp56
 70
     1
102
RTVSPropertyOp57
 70
     1
102
RTVSPropertyOp58
 70
     1
102
RTVSPropertyOp59
 70
     1
102
RTVSPropertyOp60
 70
     1
102
RTVSPropertyOp61
 70
     1
102
RTVSPropertyOp62
 70
     1
  0
XRECORD
  5
1ADF2
102
{ACAD_REACTORS
330
1ADF1
102
}
330
1ADF1
100
AcDbXrecord
280
     1
102
RTVSPost2010Prop28
280
     0
102
RTVSPost2010PropOp28
 70
     1
102
RTVSPost2010Prop29
280
     1
102
RTVSPost2010PropOp29
 70
     1
102
RTVSPost2010Prop30
280
     1
102
RTVSPost2010PropOp30
 70
     1
102
RTVSPost2010Prop31
280
     0
102
RTVSPost2010PropOp31
 70
     1
102
RTVSPost2010Prop32
280
     0
102
RTVSPost2010PropOp32
 70
     1
102
RTVSPost2010Prop33
280
     0
102
RTVSPost2010PropOp33
 70
     1
102
RTVSPost2010Prop34
280
     0
102
RTVSPost2010PropOp34
 70
     1
102
RTVSPost2010Prop35
280
     0
102
RTVSPost2010PropOp35
 70
     1
102
RTVSPost2010Prop36
280
     0
102
RTVSPost2010PropOp36
 70
     1
102
RTVSPost2010Prop37
 90
       50
102
RTVSPost2010PropOp37
 70
     1
102
RTVSPost2010Prop38
140
0.0
102
RTVSPost2010PropOp38
 70
     1
102
RTVSPost2010Prop39
140
1.0
102
RTVSPost2010PropOp39
 70
     1
102
RTVSPost2010Prop40
 90
        0
102
RTVSPost2010PropOp40
 70
     1
102
RTVSPost2010Prop41ColorIndex
 90
       18
102
RTVSPost2010Prop41ColorRGB
 90
        0
102
RTVSPost2010PropOp41
 70
     1
102
RTVSPost2010Prop42
 90
       50
102
RTVSPost2010PropOp42
 70
     1
102
RTVSPost2010Prop43
 90
        3
102
RTVSPost2010PropOp43
 70
     1
102
RTVSPost2010Prop44ColorIndex
 90
        5
102
RTVSPost2010Prop44ColorRGB
 90
      255
102
RTVSPost2010PropOp44
 70
     1
102
RTVSPost2010Prop45
280
     0
102
RTVSPost2010PropOp45
 70
     1
102
RTVSPost2010Prop46
 90
       50
102
RTVSPost2010PropOp46
 70
     1
102
RTVSPost2010Prop47
 90
       50
102
RTVSPost2010PropOp47
 70
     1
102
RTVSPost2010Prop48
 90
       50
102
RTVSPost2010PropOp48
 70
     1
102
RTVSPost2010Prop49
280
     0
102
RTVSPost2010PropOp49
 70
     1
102
RTVSPost2010Prop50
 90
       50
102
RTVSPost2010PropOp50
 70
     1
102
RTVSPost2010Prop51ColorIndex
 90
      256
102
RTVSPost2010Prop51ColorRGB
 90
-16777216
102
RTVSPost2010PropOp51
 70
     0
102
RTVSPost2010Prop52
140
1.0
102
RTVSPost2010PropOp52
 70
     0
102
RTVSPost2010Prop53
 90
        2
102
RTVSPost2010PropOp53
 70
     1
102
RTVSPost2010Prop54
  1
strokes_ogs.tif
102
RTVSPost2010PropOp54
 70
     1
102
RTVSPost2010Prop55
280
     0
102
RTVSPost2010PropOp55
 70
     1
102
RTVSPost2010Prop56
140
1.0
102
RTVSPost2010PropOp56
 70
     1
102
RTVSPost2010Prop57
140
1.0
102
RTVSPost2010PropOp57
 70
     1
102
RTVSPropertyOp0
 70
     1
102
RTVSPropertyOp1
 70
     1
102
RTVSPropertyOp2
 70
     1
102
RTVSPropertyOp3
 70
     1
102
RTVSPropertyOp4
 70
     1
102
RTVSPropertyOp5
 70
     1
102
RTVSPropertyOp6
 70
     1
102
RTVSPropertyOp7
 70
     1
102
RTVSPropertyOp8
 70
     1
102
RTVSPropertyOp9
 70
     1
102
RTVSPropertyOp10
 70
     1
102
RTVSPropertyOp11
 70
     1
102
RTVSPropertyOp12
 70
     1
102
RTVSPropertyOp13
 70
     1
102
RTVSPropertyOp14
 70
     1
102
RTVSPropertyOp15
 70
     1
102
RTVSPropertyOp16
 70
     1
102
RTVSPropertyOp17
 70
     1
102
RTVSPropertyOp18
 70
     1
102
RTVSPropertyOp19
 70
     1
102
RTVSPropertyOp20
 70
     1
102
RTVSPropertyOp21
 70
     1
102
RTVSPropertyOp22
 70
     1
102
RTVSPropertyOp23
 70
     1
102
RTVSPropertyOp24
 70
     1
102
RTVSPropertyOp25
 70
     1
102
RTVSPropertyOp26
 70
     1
102
RTVSPropertyOp27
 70
     1
102
RTVSPropertyOp28
 70
     1
102
RTVSPropertyOp29
 70
     1
102
RTVSPropertyOp30
 70
     1
102
RTVSPropertyOp31
 70
     1
102
RTVSPropertyOp32
 70
     1
102
RTVSPropertyOp33
 70
     1
102
RTVSPropertyOp34
 70
     1
102
RTVSPropertyOp35
 70
     1
102
RTVSPropertyOp36
 70
     1
102
RTVSPropertyOp37
 70
     1
102
RTVSPropertyOp38
 70
     1
102
RTVSPropertyOp39
 70
     1
102
RTVSPropertyOp40
 70
     1
102
RTVSPropertyOp41
 70
     1
102
RTVSPropertyOp42
 70
     1
102
RTVSPropertyOp43
 70
     1
102
RTVSPropertyOp44
 70
     1
102
RTVSPropertyOp45
 70
     1
102
RTVSPropertyOp46
 70
     1
102
RTVSPropertyOp47
 70
     1
102
RTVSPropertyOp48
 70
     1
102
RTVSPropertyOp49
 70
     1
102
RTVSPropertyOp50
 70
     1
102
RTVSPropertyOp51
 70
     0
102
RTVSPropertyOp52
 70
     0
102
RTVSPropertyOp53
 70
     1
102
RTVSPropertyOp54
 70
     1
102
RTVSPropertyOp55
 70
     1
102
RTVSPropertyOp56
 70
     1
102
RTVSPropertyOp57
 70
     1
102
RTVSPropertyOp58
 70
     1
102
RTVSPropertyOp59
 70
     1
102
RTVSPropertyOp60
 70
     1
102
RTVSPropertyOp61
 70
     1
102
RTVSPropertyOp62
 70
     1
  0
XRECORD
  5
1AE11
102
{ACAD_REACTORS
330
1AE10
102
}
330
1AE10
100
AcDbXrecord
280
     1
102
RTVSPost2010Prop28
280
     0
102
RTVSPost2010PropOp28
 70
     1
102
RTVSPost2010Prop29
280
     1
102
RTVSPost2010PropOp29
 70
     1
102
RTVSPost2010Prop30
280
     1
102
RTVSPost2010PropOp30
 70
     1
102
RTVSPost2010Prop31
280
     0
102
RTVSPost2010PropOp31
 70
     1
102
RTVSPost2010Prop32
280
     0
102
RTVSPost2010PropOp32
 70
     1
102
RTVSPost2010Prop33
280
     0
102
RTVSPost2010PropOp33
 70
     1
102
RTVSPost2010Prop34
280
     0
102
RTVSPost2010PropOp34
 70
     1
102
RTVSPost2010Prop35
280
     0
102
RTVSPost2010PropOp35
 70
     1
102
RTVSPost2010Prop36
280
     0
102
RTVSPost2010PropOp36
 70
     1
102
RTVSPost2010Prop37
 90
       50
102
RTVSPost2010PropOp37
 70
     1
102
RTVSPost2010Prop38
140
0.0
102
RTVSPost2010PropOp38
 70
     1
102
RTVSPost2010Prop39
140
1.0
102
RTVSPost2010PropOp39
 70
     1
102
RTVSPost2010Prop40
 90
        0
102
RTVSPost2010PropOp40
 70
     1
102
RTVSPost2010Prop41ColorIndex
 90
       18
102
RTVSPost2010Prop41ColorRGB
 90
        0
102
RTVSPost2010PropOp41
 70
     1
102
RTVSPost2010Prop42
 90
       50
102
RTVSPost2010PropOp42
 70
     1
102
RTVSPost2010Prop43
 90
        3
102
RTVSPost2010PropOp43
 70
     1
102
RTVSPost2010Prop44ColorIndex
 90
        5
102
RTVSPost2010Prop44ColorRGB
 90
      255
102
RTVSPost2010PropOp44
 70
     1
102
RTVSPost2010Prop45
280
     0
102
RTVSPost2010PropOp45
 70
     1
102
RTVSPost2010Prop46
 90
       50
102
RTVSPost2010PropOp46
 70
     1
102
RTVSPost2010Prop47
 90
       50
102
RTVSPost2010PropOp47
 70
     1
102
RTVSPost2010Prop48
 90
       50
102
RTVSPost2010PropOp48
 70
     1
102
RTVSPost2010Prop49
280
     0
102
RTVSPost2010PropOp49
 70
     1
102
RTVSPost2010Prop50
 90
       50
102
RTVSPost2010PropOp50
 70
     1
102
RTVSPost2010Prop51ColorIndex
 90
      256
102
RTVSPost2010Prop51ColorRGB
 90
-16777216
102
RTVSPost2010PropOp51
 70
     0
102
RTVSPost2010Prop52
140
1.0
102
RTVSPost2010PropOp52
 70
     0
102
RTVSPost2010Prop53
 90
        2
102
RTVSPost2010PropOp53
 70
     1
102
RTVSPost2010Prop54
  1
strokes_ogs.tif
102
RTVSPost2010PropOp54
 70
     1
102
RTVSPost2010Prop55
280
     0
102
RTVSPost2010PropOp55
 70
     1
102
RTVSPost2010Prop56
140
1.0
102
RTVSPost2010PropOp56
 70
     1
102
RTVSPost2010Prop57
140
1.0
102
RTVSPost2010PropOp57
 70
     1
102
RTVSPropertyOp0
 70
     1
102
RTVSPropertyOp1
 70
     1
102
RTVSPropertyOp2
 70
     1
102
RTVSPropertyOp3
 70
     1
102
RTVSPropertyOp4
 70
     1
102
RTVSPropertyOp5
 70
     1
102
RTVSPropertyOp6
 70
     1
102
RTVSPropertyOp7
 70
     1
102
RTVSPropertyOp8
 70
     1
102
RTVSPropertyOp9
 70
     1
102
RTVSPropertyOp10
 70
     1
102
RTVSPropertyOp11
 70
     1
102
RTVSPropertyOp12
 70
     1
102
RTVSPropertyOp13
 70
     1
102
RTVSPropertyOp14
 70
     1
102
RTVSPropertyOp15
 70
     1
102
RTVSPropertyOp16
 70
     1
102
RTVSPropertyOp17
 70
     1
102
RTVSPropertyOp18
 70
     1
102
RTVSPropertyOp19
 70
     1
102
RTVSPropertyOp20
 70
     1
102
RTVSPropertyOp21
 70
     1
102
RTVSPropertyOp22
 70
     1
102
RTVSPropertyOp23
 70
     1
102
RTVSPropertyOp24
 70
     1
102
RTVSPropertyOp25
 70
     1
102
RTVSPropertyOp26
 70
     1
102
RTVSPropertyOp27
 70
     1
102
RTVSPropertyOp28
 70
     1
102
RTVSPropertyOp29
 70
     1
102
RTVSPropertyOp30
 70
     1
102
RTVSPropertyOp31
 70
     1
102
RTVSPropertyOp32
 70
     1
102
RTVSPropertyOp33
 70
     1
102
RTVSPropertyOp34
 70
     1
102
RTVSPropertyOp35
 70
     1
102
RTVSPropertyOp36
 70
     1
102
RTVSPropertyOp37
 70
     1
102
RTVSPropertyOp38
 70
     1
102
RTVSPropertyOp39
 70
     1
102
RTVSPropertyOp40
 70
     1
102
RTVSPropertyOp41
 70
     1
102
RTVSPropertyOp42
 70
     1
102
RTVSPropertyOp43
 70
     1
102
RTVSPropertyOp44
 70
     1
102
RTVSPropertyOp45
 70
     1
102
RTVSPropertyOp46
 70
     1
102
RTVSPropertyOp47
 70
     1
102
RTVSPropertyOp48
 70
     1
102
RTVSPropertyOp49
 70
     1
102
RTVSPropertyOp50
 70
     1
102
RTVSPropertyOp51
 70
     0
102
RTVSPropertyOp52
 70
     0
102
RTVSPropertyOp53
 70
     1
102
RTVSPropertyOp54
 70
     1
102
RTVSPropertyOp55
 70
     1
102
RTVSPropertyOp56
 70
     1
102
RTVSPropertyOp57
 70
     1
102
RTVSPropertyOp58
 70
     1
102
RTVSPropertyOp59
 70
     1
102
RTVSPropertyOp60
 70
     1
102
RTVSPropertyOp61
 70
     1
102
RTVSPropertyOp62
 70
     1
  0
XRECORD
  5
1AE1D
102
{ACAD_REACTORS
330
1AE1C
102
}
330
1AE1C
100
AcDbXrecord
280
     1
102
RTVSPost2010Prop28
280
     0
102
RTVSPost2010PropOp28
 70
     0
102
RTVSPost2010Prop29
280
     1
102
RTVSPost2010PropOp29
 70
     0
102
RTVSPost2010Prop30
280
     1
102
RTVSPost2010PropOp30
 70
     0
102
RTVSPost2010Prop31
280
     0
102
RTVSPost2010PropOp31
 70
     0
102
RTVSPost2010Prop32
280
     0
102
RTVSPost2010PropOp32
 70
     0
102
RTVSPost2010Prop33
280
     0
102
RTVSPost2010PropOp33
 70
     0
102
RTVSPost2010Prop34
280
     0
102
RTVSPost2010PropOp34
 70
     0
102
RTVSPost2010Prop35
280
     0
102
RTVSPost2010PropOp35
 70
     0
102
RTVSPost2010Prop36
280
     0
102
RTVSPost2010PropOp36
 70
     0
102
RTVSPost2010Prop37
 90
       50
102
RTVSPost2010PropOp37
 70
     0
102
RTVSPost2010Prop38
140
0.0
102
RTVSPost2010PropOp38
 70
     0
102
RTVSPost2010Prop39
140
1.0
102
RTVSPost2010PropOp39
 70
     0
102
RTVSPost2010Prop40
 90
        0
102
RTVSPost2010PropOp40
 70
     0
102
RTVSPost2010Prop41ColorIndex
 90
       18
102
RTVSPost2010Prop41ColorRGB
 90
        0
102
RTVSPost2010PropOp41
 70
     0
102
RTVSPost2010Prop42
 90
       50
102
RTVSPost2010PropOp42
 70
     0
102
RTVSPost2010Prop43
 90
        3
102
RTVSPost2010PropOp43
 70
     0
102
RTVSPost2010Prop44ColorIndex
 90
        5
102
RTVSPost2010Prop44ColorRGB
 90
      255
102
RTVSPost2010PropOp44
 70
     0
102
RTVSPost2010Prop45
280
     0
102
RTVSPost2010PropOp45
 70
     0
102
RTVSPost2010Prop46
 90
       50
102
RTVSPost2010PropOp46
 70
     0
102
RTVSPost2010Prop47
 90
       50
102
RTVSPost2010PropOp47
 70
     0
102
RTVSPost2010Prop48
 90
       50
102
RTVSPost2010PropOp48
 70
     0
102
RTVSPost2010Prop49
280
     0
102
RTVSPost2010PropOp49
 70
     0
102
RTVSPost2010Prop50
 90
       50
102
RTVSPost2010PropOp50
 70
     0
102
RTVSPost2010Prop51ColorIndex
 90
      256
102
RTVSPost2010Prop51ColorRGB
 90
-16777216
102
RTVSPost2010PropOp51
 70
     0
102
RTVSPost2010Prop52
140
1.0
102
RTVSPost2010PropOp52
 70
     0
102
RTVSPost2010Prop53
 90
        2
102
RTVSPost2010PropOp53
 70
     0
102
RTVSPost2010Prop54
  1
strokes_ogs.tif
102
RTVSPost2010PropOp54
 70
     0
102
RTVSPost2010Prop55
280
     0
102
RTVSPost2010PropOp55
 70
     0
102
RTVSPost2010Prop56
140
1.0
102
RTVSPost2010PropOp56
 70
     0
102
RTVSPost2010Prop57
140
1.0
102
RTVSPost2010PropOp57
 70
     0
102
RTVSPropertyOp0
 70
     0
102
RTVSPropertyOp1
 70
     0
102
RTVSPropertyOp2
 70
     0
102
RTVSPropertyOp3
 70
     0
102
RTVSPropertyOp4
 70
     0
102
RTVSPropertyOp5
 70
     0
102
RTVSPropertyOp6
 70
     0
102
RTVSPropertyOp7
 70
     0
102
RTVSPropertyOp8
 70
     0
102
RTVSPropertyOp9
 70
     0
102
RTVSPropertyOp10
 70
     0
102
RTVSPropertyOp11
 70
     0
102
RTVSPropertyOp12
 70
     0
102
RTVSPropertyOp13
 70
     0
102
RTVSPropertyOp14
 70
     2
102
RTVSPropertyOp15
 70
     0
102
RTVSPropertyOp16
 70
     0
102
RTVSPropertyOp17
 70
     0
102
RTVSPropertyOp18
 70
     0
102
RTVSPropertyOp19
 70
     0
102
RTVSPropertyOp20
 70
     0
102
RTVSPropertyOp21
 70
     0
102
RTVSPropertyOp22
 70
     0
102
RTVSPropertyOp23
 70
     0
102
RTVSPropertyOp24
 70
     0
102
RTVSPropertyOp25
 70
     0
102
RTVSPropertyOp26
 70
     0
102
RTVSPropertyOp27
 70
     0
102
RTVSPropertyOp28
 70
     0
102
RTVSPropertyOp29
 70
     0
102
RTVSPropertyOp30
 70
     0
102
RTVSPropertyOp31
 70
     0
102
RTVSPropertyOp32
 70
     0
102
RTVSPropertyOp33
 70
     0
102
RTVSPropertyOp34
 70
     0
102
RTVSPropertyOp35
 70
     0
102
RTVSPropertyOp36
 70
     0
102
RTVSPropertyOp37
 70
     0
102
RTVSPropertyOp38
 70
     0
102
RTVSPropertyOp39
 70
     0
102
RTVSPropertyOp40
 70
     0
102
RTVSPropertyOp41
 70
     0
102
RTVSPropertyOp42
 70
     0
102
RTVSPropertyOp43
 70
     0
102
RTVSPropertyOp44
 70
     0
102
RTVSPropertyOp45
 70
     0
102
RTVSPropertyOp46
 70
     0
102
RTVSPropertyOp47
 70
     0
102
RTVSPropertyOp48
 70
     0
102
RTVSPropertyOp49
 70
     0
102
RTVSPropertyOp50
 70
     0
102
RTVSPropertyOp51
 70
     0
102
RTVSPropertyOp52
 70
     0
102
RTVSPropertyOp53
 70
     0
102
RTVSPropertyOp54
 70
     0
102
RTVSPropertyOp55
 70
     0
102
RTVSPropertyOp56
 70
     0
102
RTVSPropertyOp57
 70
     0
102
RTVSPropertyOp58
 70
     0
102
RTVSPropertyOp59
 70
     0
102
RTVSPropertyOp60
 70
     0
102
RTVSPropertyOp61
 70
     0
102
RTVSPropertyOp62
 70
     0
  0
XRECORD
  5
1AE06
102
{ACAD_REACTORS
330
1AE05
102
}
330
1AE05
100
AcDbXrecord
280
     1
102
RTVSPost2010Prop28
280
     0
102
RTVSPost2010PropOp28
 70
     1
102
RTVSPost2010Prop29
280
     1
102
RTVSPost2010PropOp29
 70
     1
102
RTVSPost2010Prop30
280
     1
102
RTVSPost2010PropOp30
 70
     1
102
RTVSPost2010Prop31
280
     0
102
RTVSPost2010PropOp31
 70
     1
102
RTVSPost2010Prop32
280
     0
102
RTVSPost2010PropOp32
 70
     1
102
RTVSPost2010Prop33
280
     0
102
RTVSPost2010PropOp33
 70
     1
102
RTVSPost2010Prop34
280
     0
102
RTVSPost2010PropOp34
 70
     1
102
RTVSPost2010Prop35
280
     0
102
RTVSPost2010PropOp35
 70
     1
102
RTVSPost2010Prop36
280
     0
102
RTVSPost2010PropOp36
 70
     1
102
RTVSPost2010Prop37
 90
       50
102
RTVSPost2010PropOp37
 70
     1
102
RTVSPost2010Prop38
140
0.0
102
RTVSPost2010PropOp38
 70
     1
102
RTVSPost2010Prop39
140
1.0
102
RTVSPost2010PropOp39
 70
     1
102
RTVSPost2010Prop40
 90
        0
102
RTVSPost2010PropOp40
 70
     1
102
RTVSPost2010Prop41ColorIndex
 90
       18
102
RTVSPost2010Prop41ColorRGB
 90
        0
102
RTVSPost2010PropOp41
 70
     1
102
RTVSPost2010Prop42
 90
       50
102
RTVSPost2010PropOp42
 70
     1
102
RTVSPost2010Prop43
 90
        3
102
RTVSPost2010PropOp43
 70
     1
102
RTVSPost2010Prop44ColorIndex
 90
        5
102
RTVSPost2010Prop44ColorRGB
 90
      255
102
RTVSPost2010PropOp44
 70
     1
102
RTVSPost2010Prop45
280
     0
102
RTVSPost2010PropOp45
 70
     1
102
RTVSPost2010Prop46
 90
       50
102
RTVSPost2010PropOp46
 70
     1
102
RTVSPost2010Prop47
 90
       50
102
RTVSPost2010PropOp47
 70
     1
102
RTVSPost2010Prop48
 90
       50
102
RTVSPost2010PropOp48
 70
     1
102
RTVSPost2010Prop49
280
     0
102
RTVSPost2010PropOp49
 70
     1
102
RTVSPost2010Prop50
 90
       50
102
RTVSPost2010PropOp50
 70
     1
102
RTVSPost2010Prop51ColorIndex
 90
      256
102
RTVSPost2010Prop51ColorRGB
 90
-16777216
102
RTVSPost2010PropOp51
 70
     0
102
RTVSPost2010Prop52
140
1.0
102
RTVSPost2010PropOp52
 70
     0
102
RTVSPost2010Prop53
 90
        2
102
RTVSPost2010PropOp53
 70
     1
102
RTVSPost2010Prop54
  1
strokes_ogs.tif
102
RTVSPost2010PropOp54
 70
     1
102
RTVSPost2010Prop55
280
     0
102
RTVSPost2010PropOp55
 70
     1
102
RTVSPost2010Prop56
140
1.0
102
RTVSPost2010PropOp56
 70
     1
102
RTVSPost2010Prop57
140
1.0
102
RTVSPost2010PropOp57
 70
     1
102
RTVSPropertyOp0
 70
     1
102
RTVSPropertyOp1
 70
     1
102
RTVSPropertyOp2
 70
     1
102
RTVSPropertyOp3
 70
     1
102
RTVSPropertyOp4
 70
     1
102
RTVSPropertyOp5
 70
     1
102
RTVSPropertyOp6
 70
     1
102
RTVSPropertyOp7
 70
     1
102
RTVSPropertyOp8
 70
     1
102
RTVSPropertyOp9
 70
     1
102
RTVSPropertyOp10
 70
     1
102
RTVSPropertyOp11
 70
     1
102
RTVSPropertyOp12
 70
     1
102
RTVSPropertyOp13
 70
     1
102
RTVSPropertyOp14
 70
     1
102
RTVSPropertyOp15
 70
     1
102
RTVSPropertyOp16
 70
     1
102
RTVSPropertyOp17
 70
     1
102
RTVSPropertyOp18
 70
     1
102
RTVSPropertyOp19
 70
     1
102
RTVSPropertyOp20
 70
     1
102
RTVSPropertyOp21
 70
     1
102
RTVSPropertyOp22
 70
     1
102
RTVSPropertyOp23
 70
     1
102
RTVSPropertyOp24
 70
     1
102
RTVSPropertyOp25
 70
     1
102
RTVSPropertyOp26
 70
     1
102
RTVSPropertyOp27
 70
     1
102
RTVSPropertyOp28
 70
     1
102
RTVSPropertyOp29
 70
     1
102
RTVSPropertyOp30
 70
     1
102
RTVSPropertyOp31
 70
     1
102
RTVSPropertyOp32
 70
     1
102
RTVSPropertyOp33
 70
     1
102
RTVSPropertyOp34
 70
     1
102
RTVSPropertyOp35
 70
     1
102
RTVSPropertyOp36
 70
     1
102
RTVSPropertyOp37
 70
     1
102
RTVSPropertyOp38
 70
     1
102
RTVSPropertyOp39
 70
     1
102
RTVSPropertyOp40
 70
     1
102
RTVSPropertyOp41
 70
     1
102
RTVSPropertyOp42
 70
     1
102
RTVSPropertyOp43
 70
     1
102
RTVSPropertyOp44
 70
     1
102
RTVSPropertyOp45
 70
     1
102
RTVSPropertyOp46
 70
     1
102
RTVSPropertyOp47
 70
     1
102
RTVSPropertyOp48
 70
     1
102
RTVSPropertyOp49
 70
     1
102
RTVSPropertyOp50
 70
     1
102
RTVSPropertyOp51
 70
     0
102
RTVSPropertyOp52
 70
     0
102
RTVSPropertyOp53
 70
     1
102
RTVSPropertyOp54
 70
     1
102
RTVSPropertyOp55
 70
     1
102
RTVSPropertyOp56
 70
     1
102
RTVSPropertyOp57
 70
     1
102
RTVSPropertyOp58
 70
     1
102
RTVSPropertyOp59
 70
     1
102
RTVSPropertyOp60
 70
     1
102
RTVSPropertyOp61
 70
     1
102
RTVSPropertyOp62
 70
     1
  0
XRECORD
  5
1AE1F
102
{ACAD_REACTORS
330
1AE1E
102
}
330
1AE1E
100
AcDbXrecord
280
     1
102
RTVSPost2010Prop28
280
     0
102
RTVSPost2010PropOp28
 70
     0
102
RTVSPost2010Prop29
280
     1
102
RTVSPost2010PropOp29
 70
     0
102
RTVSPost2010Prop30
280
     1
102
RTVSPost2010PropOp30
 70
     0
102
RTVSPost2010Prop31
280
     0
102
RTVSPost2010PropOp31
 70
     0
102
RTVSPost2010Prop32
280
     0
102
RTVSPost2010PropOp32
 70
     0
102
RTVSPost2010Prop33
280
     0
102
RTVSPost2010PropOp33
 70
     0
102
RTVSPost2010Prop34
280
     0
102
RTVSPost2010PropOp34
 70
     0
102
RTVSPost2010Prop35
280
     0
102
RTVSPost2010PropOp35
 70
     0
102
RTVSPost2010Prop36
280
     0
102
RTVSPost2010PropOp36
 70
     0
102
RTVSPost2010Prop37
 90
       50
102
RTVSPost2010PropOp37
 70
     0
102
RTVSPost2010Prop38
140
0.0
102
RTVSPost2010PropOp38
 70
     0
102
RTVSPost2010Prop39
140
1.0
102
RTVSPost2010PropOp39
 70
     0
102
RTVSPost2010Prop40
 90
        0
102
RTVSPost2010PropOp40
 70
     0
102
RTVSPost2010Prop41ColorIndex
 90
       18
102
RTVSPost2010Prop41ColorRGB
 90
        0
102
RTVSPost2010PropOp41
 70
     0
102
RTVSPost2010Prop42
 90
       50
102
RTVSPost2010PropOp42
 70
     0
102
RTVSPost2010Prop43
 90
        3
102
RTVSPost2010PropOp43
 70
     0
102
RTVSPost2010Prop44ColorIndex
 90
        5
102
RTVSPost2010Prop44ColorRGB
 90
      255
102
RTVSPost2010PropOp44
 70
     0
102
RTVSPost2010Prop45
280
     0
102
RTVSPost2010PropOp45
 70
     0
102
RTVSPost2010Prop46
 90
       50
102
RTVSPost2010PropOp46
 70
     0
102
RTVSPost2010Prop47
 90
       50
102
RTVSPost2010PropOp47
 70
     0
102
RTVSPost2010Prop48
 90
       50
102
RTVSPost2010PropOp48
 70
     0
102
RTVSPost2010Prop49
280
     0
102
RTVSPost2010PropOp49
 70
     0
102
RTVSPost2010Prop50
 90
       50
102
RTVSPost2010PropOp50
 70
     0
102
RTVSPost2010Prop51ColorIndex
 90
      256
102
RTVSPost2010Prop51ColorRGB
 90
-16777216
102
RTVSPost2010PropOp51
 70
     0
102
RTVSPost2010Prop52
140
1.0
102
RTVSPost2010PropOp52
 70
     0
102
RTVSPost2010Prop53
 90
        2
102
RTVSPost2010PropOp53
 70
     0
102
RTVSPost2010Prop54
  1
strokes_ogs.tif
102
RTVSPost2010PropOp54
 70
     0
102
RTVSPost2010Prop55
280
     0
102
RTVSPost2010PropOp55
 70
     0
102
RTVSPost2010Prop56
140
1.0
102
RTVSPost2010PropOp56
 70
     0
102
RTVSPost2010Prop57
140
1.0
102
RTVSPost2010PropOp57
 70
     0
102
RTVSPropertyOp0
 70
     0
102
RTVSPropertyOp1
 70
     0
102
RTVSPropertyOp2
 70
     0
102
RTVSPropertyOp3
 70
     0
102
RTVSPropertyOp4
 70
     0
102
RTVSPropertyOp5
 70
     0
102
RTVSPropertyOp6
 70
     0
102
RTVSPropertyOp7
 70
     0
102
RTVSPropertyOp8
 70
     0
102
RTVSPropertyOp9
 70
     0
102
RTVSPropertyOp10
 70
     0
102
RTVSPropertyOp11
 70
     0
102
RTVSPropertyOp12
 70
     0
102
RTVSPropertyOp13
 70
     0
102
RTVSPropertyOp14
 70
     2
102
RTVSPropertyOp15
 70
     0
102
RTVSPropertyOp16
 70
     0
102
RTVSPropertyOp17
 70
     0
102
RTVSPropertyOp18
 70
     0
102
RTVSPropertyOp19
 70
     0
102
RTVSPropertyOp20
 70
     0
102
RTVSPropertyOp21
 70
     0
102
RTVSPropertyOp22
 70
     0
102
RTVSPropertyOp23
 70
     0
102
RTVSPropertyOp24
 70
     0
102
RTVSPropertyOp25
 70
     0
102
RTVSPropertyOp26
 70
     0
102
RTVSPropertyOp27
 70
     0
102
RTVSPropertyOp28
 70
     0
102
RTVSPropertyOp29
 70
     0
102
RTVSPropertyOp30
 70
     0
102
RTVSPropertyOp31
 70
     0
102
RTVSPropertyOp32
 70
     0
102
RTVSPropertyOp33
 70
     0
102
RTVSPropertyOp34
 70
     0
102
RTVSPropertyOp35
 70
     0
102
RTVSPropertyOp36
 70
     0
102
RTVSPropertyOp37
 70
     0
102
RTVSPropertyOp38
 70
     0
102
RTVSPropertyOp39
 70
     0
102
RTVSPropertyOp40
 70
     0
102
RTVSPropertyOp41
 70
     0
102
RTVSPropertyOp42
 70
     0
102
RTVSPropertyOp43
 70
     0
102
RTVSPropertyOp44
 70
     0
102
RTVSPropertyOp45
 70
     0
102
RTVSPropertyOp46
 70
     0
102
RTVSPropertyOp47
 70
     0
102
RTVSPropertyOp48
 70
     0
102
RTVSPropertyOp49
 70
     0
102
RTVSPropertyOp50
 70
     0
102
RTVSPropertyOp51
 70
     0
102
RTVSPropertyOp52
 70
     0
102
RTVSPropertyOp53
 70
     0
102
RTVSPropertyOp54
 70
     0
102
RTVSPropertyOp55
 70
     0
102
RTVSPropertyOp56
 70
     0
102
RTVSPropertyOp57
 70
     0
102
RTVSPropertyOp58
 70
     0
102
RTVSPropertyOp59
 70
     0
102
RTVSPropertyOp60
 70
     0
102
RTVSPropertyOp61
 70
     0
102
RTVSPropertyOp62
 70
     0
  0
XRECORD
  5
1ADFE
102
{ACAD_REACTORS
330
1ADFD
102
}
330
1ADFD
100
AcDbXrecord
280
     1
102
RTVSPost2010Prop28
280
     0
102
RTVSPost2010PropOp28
 70
     1
102
RTVSPost2010Prop29
280
     1
102
RTVSPost2010PropOp29
 70
     1
102
RTVSPost2010Prop30
280
     1
102
RTVSPost2010PropOp30
 70
     1
102
RTVSPost2010Prop31
280
     0
102
RTVSPost2010PropOp31
 70
     1
102
RTVSPost2010Prop32
280
     0
102
RTVSPost2010PropOp32
 70
     1
102
RTVSPost2010Prop33
280
     0
102
RTVSPost2010PropOp33
 70
     1
102
RTVSPost2010Prop34
280
     0
102
RTVSPost2010PropOp34
 70
     1
102
RTVSPost2010Prop35
280
     0
102
RTVSPost2010PropOp35
 70
     1
102
RTVSPost2010Prop36
280
     0
102
RTVSPost2010PropOp36
 70
     1
102
RTVSPost2010Prop37
 90
       50
102
RTVSPost2010PropOp37
 70
     1
102
RTVSPost2010Prop38
140
0.0
102
RTVSPost2010PropOp38
 70
     1
102
RTVSPost2010Prop39
140
1.0
102
RTVSPost2010PropOp39
 70
     1
102
RTVSPost2010Prop40
 90
        0
102
RTVSPost2010PropOp40
 70
     1
102
RTVSPost2010Prop41ColorIndex
 90
       18
102
RTVSPost2010Prop41ColorRGB
 90
        0
102
RTVSPost2010PropOp41
 70
     1
102
RTVSPost2010Prop42
 90
       50
102
RTVSPost2010PropOp42
 70
     1
102
RTVSPost2010Prop43
 90
        3
102
RTVSPost2010PropOp43
 70
     1
102
RTVSPost2010Prop44ColorIndex
 90
        5
102
RTVSPost2010Prop44ColorRGB
 90
      255
102
RTVSPost2010PropOp44
 70
     1
102
RTVSPost2010Prop45
280
     0
102
RTVSPost2010PropOp45
 70
     1
102
RTVSPost2010Prop46
 90
       50
102
RTVSPost2010PropOp46
 70
     1
102
RTVSPost2010Prop47
 90
       50
102
RTVSPost2010PropOp47
 70
     1
102
RTVSPost2010Prop48
 90
       50
102
RTVSPost2010PropOp48
 70
     1
102
RTVSPost2010Prop49
280
     0
102
RTVSPost2010PropOp49
 70
     1
102
RTVSPost2010Prop50
 90
       50
102
RTVSPost2010PropOp50
 70
     1
102
RTVSPost2010Prop51ColorIndex
 90
      256
102
RTVSPost2010Prop51ColorRGB
 90
-16777216
102
RTVSPost2010PropOp51
 70
     0
102
RTVSPost2010Prop52
140
1.0
102
RTVSPost2010PropOp52
 70
     0
102
RTVSPost2010Prop53
 90
        2
102
RTVSPost2010PropOp53
 70
     1
102
RTVSPost2010Prop54
  1
strokes_ogs.tif
102
RTVSPost2010PropOp54
 70
     1
102
RTVSPost2010Prop55
280
     0
102
RTVSPost2010PropOp55
 70
     1
102
RTVSPost2010Prop56
140
1.0
102
RTVSPost2010PropOp56
 70
     1
102
RTVSPost2010Prop57
140
1.0
102
RTVSPost2010PropOp57
 70
     1
102
RTVSPropertyOp0
 70
     1
102
RTVSPropertyOp1
 70
     1
102
RTVSPropertyOp2
 70
     1
102
RTVSPropertyOp3
 70
     1
102
RTVSPropertyOp4
 70
     1
102
RTVSPropertyOp5
 70
     1
102
RTVSPropertyOp6
 70
     1
102
RTVSPropertyOp7
 70
     1
102
RTVSPropertyOp8
 70
     1
102
RTVSPropertyOp9
 70
     1
102
RTVSPropertyOp10
 70
     1
102
RTVSPropertyOp11
 70
     1
102
RTVSPropertyOp12
 70
     1
102
RTVSPropertyOp13
 70
     1
102
RTVSPropertyOp14
 70
     1
102
RTVSPropertyOp15
 70
     1
102
RTVSPropertyOp16
 70
     1
102
RTVSPropertyOp17
 70
     1
102
RTVSPropertyOp18
 70
     1
102
RTVSPropertyOp19
 70
     1
102
RTVSPropertyOp20
 70
     1
102
RTVSPropertyOp21
 70
     1
102
RTVSPropertyOp22
 70
     1
102
RTVSPropertyOp23
 70
     1
102
RTVSPropertyOp24
 70
     1
102
RTVSPropertyOp25
 70
     1
102
RTVSPropertyOp26
 70
     1
102
RTVSPropertyOp27
 70
     1
102
RTVSPropertyOp28
 70
     1
102
RTVSPropertyOp29
 70
     1
102
RTVSPropertyOp30
 70
     1
102
RTVSPropertyOp31
 70
     1
102
RTVSPropertyOp32
 70
     1
102
RTVSPropertyOp33
 70
     1
102
RTVSPropertyOp34
 70
     1
102
RTVSPropertyOp35
 70
     1
102
RTVSPropertyOp36
 70
     1
102
RTVSPropertyOp37
 70
     1
102
RTVSPropertyOp38
 70
     1
102
RTVSPropertyOp39
 70
     1
102
RTVSPropertyOp40
 70
     1
102
RTVSPropertyOp41
 70
     1
102
RTVSPropertyOp42
 70
     1
102
RTVSPropertyOp43
 70
     1
102
RTVSPropertyOp44
 70
     1
102
RTVSPropertyOp45
 70
     1
102
RTVSPropertyOp46
 70
     1
102
RTVSPropertyOp47
 70
     1
102
RTVSPropertyOp48
 70
     1
102
RTVSPropertyOp49
 70
     1
102
RTVSPropertyOp50
 70
     1
102
RTVSPropertyOp51
 70
     0
102
RTVSPropertyOp52
 70
     0
102
RTVSPropertyOp53
 70
     1
102
RTVSPropertyOp54
 70
     1
102
RTVSPropertyOp55
 70
     1
102
RTVSPropertyOp56
 70
     1
102
RTVSPropertyOp57
 70
     1
102
RTVSPropertyOp58
 70
     1
102
RTVSPropertyOp59
 70
     1
102
RTVSPropertyOp60
 70
     1
102
RTVSPropertyOp61
 70
     1
102
RTVSPropertyOp62
 70
     1
  0
XRECORD
  5
1AE1B
102
{ACAD_REACTORS
330
1AE1A
102
}
330
1AE1A
100
AcDbXrecord
280
     1
102
RTVSPost2010Prop28
280
     0
102
RTVSPost2010PropOp28
 70
     1
102
RTVSPost2010Prop29
280
     1
102
RTVSPost2010PropOp29
 70
     1
102
RTVSPost2010Prop30
280
     1
102
RTVSPost2010PropOp30
 70
     1
102
RTVSPost2010Prop31
280
     0
102
RTVSPost2010PropOp31
 70
     1
102
RTVSPost2010Prop32
280
     0
102
RTVSPost2010PropOp32
 70
     1
102
RTVSPost2010Prop33
280
     0
102
RTVSPost2010PropOp33
 70
     1
102
RTVSPost2010Prop34
280
     0
102
RTVSPost2010PropOp34
 70
     1
102
RTVSPost2010Prop35
280
     0
102
RTVSPost2010PropOp35
 70
     1
102
RTVSPost2010Prop36
280
     0
102
RTVSPost2010PropOp36
 70
     1
102
RTVSPost2010Prop37
 90
       50
102
RTVSPost2010PropOp37
 70
     1
102
RTVSPost2010Prop38
140
0.0
102
RTVSPost2010PropOp38
 70
     1
102
RTVSPost2010Prop39
140
1.0
102
RTVSPost2010PropOp39
 70
     1
102
RTVSPost2010Prop40
 90
        0
102
RTVSPost2010PropOp40
 70
     1
102
RTVSPost2010Prop41ColorIndex
 90
       18
102
RTVSPost2010Prop41ColorRGB
 90
        0
102
RTVSPost2010PropOp41
 70
     1
102
RTVSPost2010Prop42
 90
       50
102
RTVSPost2010PropOp42
 70
     1
102
RTVSPost2010Prop43
 90
        3
102
RTVSPost2010PropOp43
 70
     1
102
RTVSPost2010Prop44ColorIndex
 90
        5
102
RTVSPost2010Prop44ColorRGB
 90
      255
102
RTVSPost2010PropOp44
 70
     1
102
RTVSPost2010Prop45
280
     0
102
RTVSPost2010PropOp45
 70
     1
102
RTVSPost2010Prop46
 90
       50
102
RTVSPost2010PropOp46
 70
     1
102
RTVSPost2010Prop47
 90
       50
102
RTVSPost2010PropOp47
 70
     1
102
RTVSPost2010Prop48
 90
       50
102
RTVSPost2010PropOp48
 70
     1
102
RTVSPost2010Prop49
280
     0
102
RTVSPost2010PropOp49
 70
     1
102
RTVSPost2010Prop50
 90
       50
102
RTVSPost2010PropOp50
 70
     1
102
RTVSPost2010Prop51ColorIndex
 90
      256
102
RTVSPost2010Prop51ColorRGB
 90
-16777216
102
RTVSPost2010PropOp51
 70
     0
102
RTVSPost2010Prop52
140
1.0
102
RTVSPost2010PropOp52
 70
     0
102
RTVSPost2010Prop53
 90
        2
102
RTVSPost2010PropOp53
 70
     1
102
RTVSPost2010Prop54
  1
strokes_ogs.tif
102
RTVSPost2010PropOp54
 70
     1
102
RTVSPost2010Prop55
280
     0
102
RTVSPost2010PropOp55
 70
     1
102
RTVSPost2010Prop56
140
1.0
102
RTVSPost2010PropOp56
 70
     1
102
RTVSPost2010Prop57
140
1.0
102
RTVSPost2010PropOp57
 70
     1
102
RTVSPropertyOp0
 70
     1
102
RTVSPropertyOp1
 70
     1
102
RTVSPropertyOp2
 70
     1
102
RTVSPropertyOp3
 70
     1
102
RTVSPropertyOp4
 70
     1
102
RTVSPropertyOp5
 70
     1
102
RTVSPropertyOp6
 70
     1
102
RTVSPropertyOp7
 70
     1
102
RTVSPropertyOp8
 70
     1
102
RTVSPropertyOp9
 70
     1
102
RTVSPropertyOp10
 70
     1
102
RTVSPropertyOp11
 70
     1
102
RTVSPropertyOp12
 70
     1
102
RTVSPropertyOp13
 70
     1
102
RTVSPropertyOp14
 70
     1
102
RTVSPropertyOp15
 70
     1
102
RTVSPropertyOp16
 70
     1
102
RTVSPropertyOp17
 70
     1
102
RTVSPropertyOp18
 70
     1
102
RTVSPropertyOp19
 70
     1
102
RTVSPropertyOp20
 70
     1
102
RTVSPropertyOp21
 70
     1
102
RTVSPropertyOp22
 70
     1
102
RTVSPropertyOp23
 70
     1
102
RTVSPropertyOp24
 70
     1
102
RTVSPropertyOp25
 70
     1
102
RTVSPropertyOp26
 70
     1
102
RTVSPropertyOp27
 70
     1
102
RTVSPropertyOp28
 70
     1
102
RTVSPropertyOp29
 70
     1
102
RTVSPropertyOp30
 70
     1
102
RTVSPropertyOp31
 70
     1
102
RTVSPropertyOp32
 70
     1
102
RTVSPropertyOp33
 70
     1
102
RTVSPropertyOp34
 70
     1
102
RTVSPropertyOp35
 70
     1
102
RTVSPropertyOp36
 70
     1
102
RTVSPropertyOp37
 70
     1
102
RTVSPropertyOp38
 70
     1
102
RTVSPropertyOp39
 70
     1
102
RTVSPropertyOp40
 70
     1
102
RTVSPropertyOp41
 70
     1
102
RTVSPropertyOp42
 70
     1
102
RTVSPropertyOp43
 70
     1
102
RTVSPropertyOp44
 70
     1
102
RTVSPropertyOp45
 70
     1
102
RTVSPropertyOp46
 70
     1
102
RTVSPropertyOp47
 70
     1
102
RTVSPropertyOp48
 70
     1
102
RTVSPropertyOp49
 70
     1
102
RTVSPropertyOp50
 70
     1
102
RTVSPropertyOp51
 70
     0
102
RTVSPropertyOp52
 70
     0
102
RTVSPropertyOp53
 70
     1
102
RTVSPropertyOp54
 70
     1
102
RTVSPropertyOp55
 70
     1
102
RTVSPropertyOp56
 70
     1
102
RTVSPropertyOp57
 70
     1
102
RTVSPropertyOp58
 70
     1
102
RTVSPropertyOp59
 70
     1
102
RTVSPropertyOp60
 70
     1
102
RTVSPropertyOp61
 70
     1
102
RTVSPropertyOp62
 70
     1
  0
XRECORD
  5
1AE19
102
{ACAD_REACTORS
330
1AE18
102
}
330
1AE18
100
AcDbXrecord
280
     1
102
RTVSPost2010Prop28
280
     0
102
RTVSPost2010PropOp28
 70
     1
102
RTVSPost2010Prop29
280
     1
102
RTVSPost2010PropOp29
 70
     1
102
RTVSPost2010Prop30
280
     1
102
RTVSPost2010PropOp30
 70
     1
102
RTVSPost2010Prop31
280
     0
102
RTVSPost2010PropOp31
 70
     1
102
RTVSPost2010Prop32
280
     0
102
RTVSPost2010PropOp32
 70
     1
102
RTVSPost2010Prop33
280
     0
102
RTVSPost2010PropOp33
 70
     1
102
RTVSPost2010Prop34
280
     0
102
RTVSPost2010PropOp34
 70
     1
102
RTVSPost2010Prop35
280
     0
102
RTVSPost2010PropOp35
 70
     1
102
RTVSPost2010Prop36
280
     0
102
RTVSPost2010PropOp36
 70
     1
102
RTVSPost2010Prop37
 90
       50
102
RTVSPost2010PropOp37
 70
     1
102
RTVSPost2010Prop38
140
0.0
102
RTVSPost2010PropOp38
 70
     1
102
RTVSPost2010Prop39
140
1.0
102
RTVSPost2010PropOp39
 70
     1
102
RTVSPost2010Prop40
 90
        0
102
RTVSPost2010PropOp40
 70
     1
102
RTVSPost2010Prop41ColorIndex
 90
       18
102
RTVSPost2010Prop41ColorRGB
 90
        0
102
RTVSPost2010PropOp41
 70
     1
102
RTVSPost2010Prop42
 90
       50
102
RTVSPost2010PropOp42
 70
     1
102
RTVSPost2010Prop43
 90
        3
102
RTVSPost2010PropOp43
 70
     1
102
RTVSPost2010Prop44ColorIndex
 90
        5
102
RTVSPost2010Prop44ColorRGB
 90
      255
102
RTVSPost2010PropOp44
 70
     1
102
RTVSPost2010Prop45
280
     0
102
RTVSPost2010PropOp45
 70
     1
102
RTVSPost2010Prop46
 90
       50
102
RTVSPost2010PropOp46
 70
     1
102
RTVSPost2010Prop47
 90
       50
102
RTVSPost2010PropOp47
 70
     1
102
RTVSPost2010Prop48
 90
       50
102
RTVSPost2010PropOp48
 70
     1
102
RTVSPost2010Prop49
280
     0
102
RTVSPost2010PropOp49
 70
     1
102
RTVSPost2010Prop50
 90
       50
102
RTVSPost2010PropOp50
 70
     1
102
RTVSPost2010Prop51ColorIndex
 90
      256
102
RTVSPost2010Prop51ColorRGB
 90
-16777216
102
RTVSPost2010PropOp51
 70
     0
102
RTVSPost2010Prop52
140
1.0
102
RTVSPost2010PropOp52
 70
     0
102
RTVSPost2010Prop53
 90
        2
102
RTVSPost2010PropOp53
 70
     1
102
RTVSPost2010Prop54
  1
strokes_ogs.tif
102
RTVSPost2010PropOp54
 70
     1
102
RTVSPost2010Prop55
280
     0
102
RTVSPost2010PropOp55
 70
     1
102
RTVSPost2010Prop56
140
1.0
102
RTVSPost2010PropOp56
 70
     1
102
RTVSPost2010Prop57
140
1.0
102
RTVSPost2010PropOp57
 70
     1
102
RTVSPropertyOp0
 70
     1
102
RTVSPropertyOp1
 70
     1
102
RTVSPropertyOp2
 70
     1
102
RTVSPropertyOp3
 70
     1
102
RTVSPropertyOp4
 70
     1
102
RTVSPropertyOp5
 70
     1
102
RTVSPropertyOp6
 70
     1
102
RTVSPropertyOp7
 70
     1
102
RTVSPropertyOp8
 70
     1
102
RTVSPropertyOp9
 70
     1
102
RTVSPropertyOp10
 70
     1
102
RTVSPropertyOp11
 70
     1
102
RTVSPropertyOp12
 70
     1
102
RTVSPropertyOp13
 70
     1
102
RTVSPropertyOp14
 70
     1
102
RTVSPropertyOp15
 70
     1
102
RTVSPropertyOp16
 70
     1
102
RTVSPropertyOp17
 70
     1
102
RTVSPropertyOp18
 70
     1
102
RTVSPropertyOp19
 70
     1
102
RTVSPropertyOp20
 70
     1
102
RTVSPropertyOp21
 70
     1
102
RTVSPropertyOp22
 70
     1
102
RTVSPropertyOp23
 70
     1
102
RTVSPropertyOp24
 70
     1
102
RTVSPropertyOp25
 70
     1
102
RTVSPropertyOp26
 70
     1
102
RTVSPropertyOp27
 70
     1
102
RTVSPropertyOp28
 70
     1
102
RTVSPropertyOp29
 70
     1
102
RTVSPropertyOp30
 70
     1
102
RTVSPropertyOp31
 70
     1
102
RTVSPropertyOp32
 70
     1
102
RTVSPropertyOp33
 70
     1
102
RTVSPropertyOp34
 70
     1
102
RTVSPropertyOp35
 70
     1
102
RTVSPropertyOp36
 70
     1
102
RTVSPropertyOp37
 70
     1
102
RTVSPropertyOp38
 70
     1
102
RTVSPropertyOp39
 70
     1
102
RTVSPropertyOp40
 70
     1
102
RTVSPropertyOp41
 70
     1
102
RTVSPropertyOp42
 70
     1
102
RTVSPropertyOp43
 70
     1
102
RTVSPropertyOp44
 70
     1
102
RTVSPropertyOp45
 70
     1
102
RTVSPropertyOp46
 70
     1
102
RTVSPropertyOp47
 70
     1
102
RTVSPropertyOp48
 70
     1
102
RTVSPropertyOp49
 70
     1
102
RTVSPropertyOp50
 70
     1
102
RTVSPropertyOp51
 70
     0
102
RTVSPropertyOp52
 70
     0
102
RTVSPropertyOp53
 70
     1
102
RTVSPropertyOp54
 70
     1
102
RTVSPropertyOp55
 70
     1
102
RTVSPropertyOp56
 70
     1
102
RTVSPropertyOp57
 70
     1
102
RTVSPropertyOp58
 70
     1
102
RTVSPropertyOp59
 70
     1
102
RTVSPropertyOp60
 70
     1
102
RTVSPropertyOp61
 70
     1
102
RTVSPropertyOp62
 70
     1
  0
XRECORD
  5
1AE13
102
{ACAD_REACTORS
330
1AE12
102
}
330
1AE12
100
AcDbXrecord
280
     1
102
RTVSPost2010Prop28
280
     0
102
RTVSPost2010PropOp28
 70
     1
102
RTVSPost2010Prop29
280
     1
102
RTVSPost2010PropOp29
 70
     1
102
RTVSPost2010Prop30
280
     1
102
RTVSPost2010PropOp30
 70
     1
102
RTVSPost2010Prop31
280
     0
102
RTVSPost2010PropOp31
 70
     1
102
RTVSPost2010Prop32
280
     0
102
RTVSPost2010PropOp32
 70
     1
102
RTVSPost2010Prop33
280
     0
102
RTVSPost2010PropOp33
 70
     1
102
RTVSPost2010Prop34
280
     0
102
RTVSPost2010PropOp34
 70
     1
102
RTVSPost2010Prop35
280
     0
102
RTVSPost2010PropOp35
 70
     1
102
RTVSPost2010Prop36
280
     0
102
RTVSPost2010PropOp36
 70
     1
102
RTVSPost2010Prop37
 90
       50
102
RTVSPost2010PropOp37
 70
     1
102
RTVSPost2010Prop38
140
0.0
102
RTVSPost2010PropOp38
 70
     1
102
RTVSPost2010Prop39
140
1.0
102
RTVSPost2010PropOp39
 70
     1
102
RTVSPost2010Prop40
 90
        0
102
RTVSPost2010PropOp40
 70
     1
102
RTVSPost2010Prop41ColorIndex
 90
       18
102
RTVSPost2010Prop41ColorRGB
 90
        0
102
RTVSPost2010PropOp41
 70
     1
102
RTVSPost2010Prop42
 90
       50
102
RTVSPost2010PropOp42
 70
     1
102
RTVSPost2010Prop43
 90
        3
102
RTVSPost2010PropOp43
 70
     1
102
RTVSPost2010Prop44ColorIndex
 90
        5
102
RTVSPost2010Prop44ColorRGB
 90
      255
102
RTVSPost2010PropOp44
 70
     1
102
RTVSPost2010Prop45
280
     0
102
RTVSPost2010PropOp45
 70
     1
102
RTVSPost2010Prop46
 90
       50
102
RTVSPost2010PropOp46
 70
     1
102
RTVSPost2010Prop47
 90
       50
102
RTVSPost2010PropOp47
 70
     1
102
RTVSPost2010Prop48
 90
       50
102
RTVSPost2010PropOp48
 70
     1
102
RTVSPost2010Prop49
280
     0
102
RTVSPost2010PropOp49
 70
     1
102
RTVSPost2010Prop50
 90
       50
102
RTVSPost2010PropOp50
 70
     1
102
RTVSPost2010Prop51ColorIndex
 90
      256
102
RTVSPost2010Prop51ColorRGB
 90
-16777216
102
RTVSPost2010PropOp51
 70
     0
102
RTVSPost2010Prop52
140
1.0
102
RTVSPost2010PropOp52
 70
     0
102
RTVSPost2010Prop53
 90
        2
102
RTVSPost2010PropOp53
 70
     1
102
RTVSPost2010Prop54
  1
strokes_ogs.tif
102
RTVSPost2010PropOp54
 70
     1
102
RTVSPost2010Prop55
280
     0
102
RTVSPost2010PropOp55
 70
     1
102
RTVSPost2010Prop56
140
1.0
102
RTVSPost2010PropOp56
 70
     1
102
RTVSPost2010Prop57
140
1.0
102
RTVSPost2010PropOp57
 70
     1
102
RTVSPropertyOp0
 70
     1
102
RTVSPropertyOp1
 70
     1
102
RTVSPropertyOp2
 70
     1
102
RTVSPropertyOp3
 70
     1
102
RTVSPropertyOp4
 70
     1
102
RTVSPropertyOp5
 70
     1
102
RTVSPropertyOp6
 70
     1
102
RTVSPropertyOp7
 70
     1
102
RTVSPropertyOp8
 70
     1
102
RTVSPropertyOp9
 70
     1
102
RTVSPropertyOp10
 70
     1
102
RTVSPropertyOp11
 70
     1
102
RTVSPropertyOp12
 70
     1
102
RTVSPropertyOp13
 70
     1
102
RTVSPropertyOp14
 70
     1
102
RTVSPropertyOp15
 70
     1
102
RTVSPropertyOp16
 70
     1
102
RTVSPropertyOp17
 70
     1
102
RTVSPropertyOp18
 70
     1
102
RTVSPropertyOp19
 70
     1
102
RTVSPropertyOp20
 70
     1
102
RTVSPropertyOp21
 70
     1
102
RTVSPropertyOp22
 70
     1
102
RTVSPropertyOp23
 70
     1
102
RTVSPropertyOp24
 70
     1
102
RTVSPropertyOp25
 70
     1
102
RTVSPropertyOp26
 70
     1
102
RTVSPropertyOp27
 70
     1
102
RTVSPropertyOp28
 70
     1
102
RTVSPropertyOp29
 70
     1
102
RTVSPropertyOp30
 70
     1
102
RTVSPropertyOp31
 70
     1
102
RTVSPropertyOp32
 70
     1
102
RTVSPropertyOp33
 70
     1
102
RTVSPropertyOp34
 70
     1
102
RTVSPropertyOp35
 70
     1
102
RTVSPropertyOp36
 70
     1
102
RTVSPropertyOp37
 70
     1
102
RTVSPropertyOp38
 70
     1
102
RTVSPropertyOp39
 70
     1
102
RTVSPropertyOp40
 70
     1
102
RTVSPropertyOp41
 70
     1
102
RTVSPropertyOp42
 70
     1
102
RTVSPropertyOp43
 70
     1
102
RTVSPropertyOp44
 70
     1
102
RTVSPropertyOp45
 70
     1
102
RTVSPropertyOp46
 70
     1
102
RTVSPropertyOp47
 70
     1
102
RTVSPropertyOp48
 70
     1
102
RTVSPropertyOp49
 70
     1
102
RTVSPropertyOp50
 70
     1
102
RTVSPropertyOp51
 70
     0
102
RTVSPropertyOp52
 70
     0
102
RTVSPropertyOp53
 70
     1
102
RTVSPropertyOp54
 70
     1
102
RTVSPropertyOp55
 70
     1
102
RTVSPropertyOp56
 70
     1
102
RTVSPropertyOp57
 70
     1
102
RTVSPropertyOp58
 70
     1
102
RTVSPropertyOp59
 70
     1
102
RTVSPropertyOp60
 70
     1
102
RTVSPropertyOp61
 70
     1
102
RTVSPropertyOp62
 70
     1
  0
XRECORD
  5
1AE15
102
{ACAD_REACTORS
330
1AE14
102
}
330
1AE14
100
AcDbXrecord
280
     1
102
RTVSPost2010Prop28
280
     0
102
RTVSPost2010PropOp28
 70
     1
102
RTVSPost2010Prop29
280
     1
102
RTVSPost2010PropOp29
 70
     1
102
RTVSPost2010Prop30
280
     1
102
RTVSPost2010PropOp30
 70
     1
102
RTVSPost2010Prop31
280
     0
102
RTVSPost2010PropOp31
 70
     1
102
RTVSPost2010Prop32
280
     0
102
RTVSPost2010PropOp32
 70
     1
102
RTVSPost2010Prop33
280
     0
102
RTVSPost2010PropOp33
 70
     1
102
RTVSPost2010Prop34
280
     0
102
RTVSPost2010PropOp34
 70
     1
102
RTVSPost2010Prop35
280
     0
102
RTVSPost2010PropOp35
 70
     1
102
RTVSPost2010Prop36
280
     0
102
RTVSPost2010PropOp36
 70
     1
102
RTVSPost2010Prop37
 90
       50
102
RTVSPost2010PropOp37
 70
     1
102
RTVSPost2010Prop38
140
0.0
102
RTVSPost2010PropOp38
 70
     1
102
RTVSPost2010Prop39
140
1.0
102
RTVSPost2010PropOp39
 70
     1
102
RTVSPost2010Prop40
 90
        0
102
RTVSPost2010PropOp40
 70
     1
102
RTVSPost2010Prop41ColorIndex
 90
       18
102
RTVSPost2010Prop41ColorRGB
 90
        0
102
RTVSPost2010PropOp41
 70
     1
102
RTVSPost2010Prop42
 90
       50
102
RTVSPost2010PropOp42
 70
     1
102
RTVSPost2010Prop43
 90
        3
102
RTVSPost2010PropOp43
 70
     1
102
RTVSPost2010Prop44ColorIndex
 90
        5
102
RTVSPost2010Prop44ColorRGB
 90
      255
102
RTVSPost2010PropOp44
 70
     1
102
RTVSPost2010Prop45
280
     0
102
RTVSPost2010PropOp45
 70
     1
102
RTVSPost2010Prop46
 90
       50
102
RTVSPost2010PropOp46
 70
     1
102
RTVSPost2010Prop47
 90
       50
102
RTVSPost2010PropOp47
 70
     1
102
RTVSPost2010Prop48
 90
       50
102
RTVSPost2010PropOp48
 70
     1
102
RTVSPost2010Prop49
280
     0
102
RTVSPost2010PropOp49
 70
     1
102
RTVSPost2010Prop50
 90
       50
102
RTVSPost2010PropOp50
 70
     1
102
RTVSPost2010Prop51ColorIndex
 90
      256
102
RTVSPost2010Prop51ColorRGB
 90
-16777216
102
RTVSPost2010PropOp51
 70
     0
102
RTVSPost2010Prop52
140
1.0
102
RTVSPost2010PropOp52
 70
     0
102
RTVSPost2010Prop53
 90
        2
102
RTVSPost2010PropOp53
 70
     1
102
RTVSPost2010Prop54
  1
strokes_ogs.tif
102
RTVSPost2010PropOp54
 70
     1
102
RTVSPost2010Prop55
280
     0
102
RTVSPost2010PropOp55
 70
     1
102
RTVSPost2010Prop56
140
1.0
102
RTVSPost2010PropOp56
 70
     1
102
RTVSPost2010Prop57
140
1.0
102
RTVSPost2010PropOp57
 70
     1
102
RTVSPropertyOp0
 70
     1
102
RTVSPropertyOp1
 70
     1
102
RTVSPropertyOp2
 70
     1
102
RTVSPropertyOp3
 70
     1
102
RTVSPropertyOp4
 70
     1
102
RTVSPropertyOp5
 70
     1
102
RTVSPropertyOp6
 70
     1
102
RTVSPropertyOp7
 70
     1
102
RTVSPropertyOp8
 70
     1
102
RTVSPropertyOp9
 70
     1
102
RTVSPropertyOp10
 70
     1
102
RTVSPropertyOp11
 70
     1
102
RTVSPropertyOp12
 70
     1
102
RTVSPropertyOp13
 70
     1
102
RTVSPropertyOp14
 70
     1
102
RTVSPropertyOp15
 70
     1
102
RTVSPropertyOp16
 70
     1
102
RTVSPropertyOp17
 70
     1
102
RTVSPropertyOp18
 70
     1
102
RTVSPropertyOp19
 70
     1
102
RTVSPropertyOp20
 70
     1
102
RTVSPropertyOp21
 70
     1
102
RTVSPropertyOp22
 70
     1
102
RTVSPropertyOp23
 70
     1
102
RTVSPropertyOp24
 70
     1
102
RTVSPropertyOp25
 70
     1
102
RTVSPropertyOp26
 70
     1
102
RTVSPropertyOp27
 70
     1
102
RTVSPropertyOp28
 70
     1
102
RTVSPropertyOp29
 70
     1
102
RTVSPropertyOp30
 70
     1
102
RTVSPropertyOp31
 70
     1
102
RTVSPropertyOp32
 70
     1
102
RTVSPropertyOp33
 70
     1
102
RTVSPropertyOp34
 70
     1
102
RTVSPropertyOp35
 70
     1
102
RTVSPropertyOp36
 70
     1
102
RTVSPropertyOp37
 70
     1
102
RTVSPropertyOp38
 70
     1
102
RTVSPropertyOp39
 70
     1
102
RTVSPropertyOp40
 70
     1
102
RTVSPropertyOp41
 70
     1
102
RTVSPropertyOp42
 70
     1
102
RTVSPropertyOp43
 70
     1
102
RTVSPropertyOp44
 70
     1
102
RTVSPropertyOp45
 70
     1
102
RTVSPropertyOp46
 70
     1
102
RTVSPropertyOp47
 70
     1
102
RTVSPropertyOp48
 70
     1
102
RTVSPropertyOp49
 70
     1
102
RTVSPropertyOp50
 70
     1
102
RTVSPropertyOp51
 70
     0
102
RTVSPropertyOp52
 70
     0
102
RTVSPropertyOp53
 70
     1
102
RTVSPropertyOp54
 70
     1
102
RTVSPropertyOp55
 70
     1
102
RTVSPropertyOp56
 70
     1
102
RTVSPropertyOp57
 70
     1
102
RTVSPropertyOp58
 70
     1
102
RTVSPropertyOp59
 70
     1
102
RTVSPropertyOp60
 70
     1
102
RTVSPropertyOp61
 70
     1
102
RTVSPropertyOp62
 70
     1
  0
XRECORD
  5
1AE04
102
{ACAD_REACTORS
330
1AE03
102
}
330
1AE03
100
AcDbXrecord
280
     1
102
RTVSPost2010Prop28
280
     0
102
RTVSPost2010PropOp28
 70
     1
102
RTVSPost2010Prop29
280
     1
102
RTVSPost2010PropOp29
 70
     1
102
RTVSPost2010Prop30
280
     1
102
RTVSPost2010PropOp30
 70
     1
102
RTVSPost2010Prop31
280
     0
102
RTVSPost2010PropOp31
 70
     1
102
RTVSPost2010Prop32
280
     0
102
RTVSPost2010PropOp32
 70
     1
102
RTVSPost2010Prop33
280
     0
102
RTVSPost2010PropOp33
 70
     1
102
RTVSPost2010Prop34
280
     0
102
RTVSPost2010PropOp34
 70
     1
102
RTVSPost2010Prop35
280
     0
102
RTVSPost2010PropOp35
 70
     1
102
RTVSPost2010Prop36
280
     0
102
RTVSPost2010PropOp36
 70
     1
102
RTVSPost2010Prop37
 90
       50
102
RTVSPost2010PropOp37
 70
     1
102
RTVSPost2010Prop38
140
0.0
102
RTVSPost2010PropOp38
 70
     1
102
RTVSPost2010Prop39
140
1.0
102
RTVSPost2010PropOp39
 70
     1
102
RTVSPost2010Prop40
 90
        0
102
RTVSPost2010PropOp40
 70
     1
102
RTVSPost2010Prop41ColorIndex
 90
       18
102
RTVSPost2010Prop41ColorRGB
 90
        0
102
RTVSPost2010PropOp41
 70
     1
102
RTVSPost2010Prop42
 90
       50
102
RTVSPost2010PropOp42
 70
     1
102
RTVSPost2010Prop43
 90
        3
102
RTVSPost2010PropOp43
 70
     1
102
RTVSPost2010Prop44ColorIndex
 90
        5
102
RTVSPost2010Prop44ColorRGB
 90
      255
102
RTVSPost2010PropOp44
 70
     1
102
RTVSPost2010Prop45
280
     0
102
RTVSPost2010PropOp45
 70
     1
102
RTVSPost2010Prop46
 90
       50
102
RTVSPost2010PropOp46
 70
     1
102
RTVSPost2010Prop47
 90
       50
102
RTVSPost2010PropOp47
 70
     1
102
RTVSPost2010Prop48
 90
       50
102
RTVSPost2010PropOp48
 70
     1
102
RTVSPost2010Prop49
280
     0
102
RTVSPost2010PropOp49
 70
     1
102
RTVSPost2010Prop50
 90
       50
102
RTVSPost2010PropOp50
 70
     1
102
RTVSPost2010Prop51ColorIndex
 90
      256
102
RTVSPost2010Prop51ColorRGB
 90
-16777216
102
RTVSPost2010PropOp51
 70
     0
102
RTVSPost2010Prop52
140
1.0
102
RTVSPost2010PropOp52
 70
     0
102
RTVSPost2010Prop53
 90
        2
102
RTVSPost2010PropOp53
 70
     1
102
RTVSPost2010Prop54
  1
strokes_ogs.tif
102
RTVSPost2010PropOp54
 70
     1
102
RTVSPost2010Prop55
280
     0
102
RTVSPost2010PropOp55
 70
     1
102
RTVSPost2010Prop56
140
1.0
102
RTVSPost2010PropOp56
 70
     1
102
RTVSPost2010Prop57
140
1.0
102
RTVSPost2010PropOp57
 70
     1
102
RTVSPropertyOp0
 70
     1
102
RTVSPropertyOp1
 70
     1
102
RTVSPropertyOp2
 70
     1
102
RTVSPropertyOp3
 70
     1
102
RTVSPropertyOp4
 70
     1
102
RTVSPropertyOp5
 70
     1
102
RTVSPropertyOp6
 70
     1
102
RTVSPropertyOp7
 70
     1
102
RTVSPropertyOp8
 70
     1
102
RTVSPropertyOp9
 70
     1
102
RTVSPropertyOp10
 70
     1
102
RTVSPropertyOp11
 70
     1
102
RTVSPropertyOp12
 70
     1
102
RTVSPropertyOp13
 70
     1
102
RTVSPropertyOp14
 70
     1
102
RTVSPropertyOp15
 70
     1
102
RTVSPropertyOp16
 70
     1
102
RTVSPropertyOp17
 70
     1
102
RTVSPropertyOp18
 70
     1
102
RTVSPropertyOp19
 70
     1
102
RTVSPropertyOp20
 70
     1
102
RTVSPropertyOp21
 70
     1
102
RTVSPropertyOp22
 70
     1
102
RTVSPropertyOp23
 70
     1
102
RTVSPropertyOp24
 70
     1
102
RTVSPropertyOp25
 70
     1
102
RTVSPropertyOp26
 70
     1
102
RTVSPropertyOp27
 70
     1
102
RTVSPropertyOp28
 70
     1
102
RTVSPropertyOp29
 70
     1
102
RTVSPropertyOp30
 70
     1
102
RTVSPropertyOp31
 70
     1
102
RTVSPropertyOp32
 70
     1
102
RTVSPropertyOp33
 70
     1
102
RTVSPropertyOp34
 70
     1
102
RTVSPropertyOp35
 70
     1
102
RTVSPropertyOp36
 70
     1
102
RTVSPropertyOp37
 70
     1
102
RTVSPropertyOp38
 70
     1
102
RTVSPropertyOp39
 70
     1
102
RTVSPropertyOp40
 70
     1
102
RTVSPropertyOp41
 70
     1
102
RTVSPropertyOp42
 70
     1
102
RTVSPropertyOp43
 70
     1
102
RTVSPropertyOp44
 70
     1
102
RTVSPropertyOp45
 70
     1
102
RTVSPropertyOp46
 70
     1
102
RTVSPropertyOp47
 70
     1
102
RTVSPropertyOp48
 70
     1
102
RTVSPropertyOp49
 70
     1
102
RTVSPropertyOp50
 70
     1
102
RTVSPropertyOp51
 70
     0
102
RTVSPropertyOp52
 70
     0
102
RTVSPropertyOp53
 70
     1
102
RTVSPropertyOp54
 70
     1
102
RTVSPropertyOp55
 70
     1
102
RTVSPropertyOp56
 70
     1
102
RTVSPropertyOp57
 70
     1
102
RTVSPropertyOp58
 70
     1
102
RTVSPropertyOp59
 70
     1
102
RTVSPropertyOp60
 70
     1
102
RTVSPropertyOp61
 70
     1
102
RTVSPropertyOp62
 70
     1
  0
XRECORD
  5
1AE0F
102
{ACAD_REACTORS
330
1AE0E
102
}
330
1AE0E
100
AcDbXrecord
280
     1
102
RTVSPost2010Prop28
280
     0
102
RTVSPost2010PropOp28
 70
     1
102
RTVSPost2010Prop29
280
     1
102
RTVSPost2010PropOp29
 70
     1
102
RTVSPost2010Prop30
280
     1
102
RTVSPost2010PropOp30
 70
     1
102
RTVSPost2010Prop31
280
     0
102
RTVSPost2010PropOp31
 70
     1
102
RTVSPost2010Prop32
280
     0
102
RTVSPost2010PropOp32
 70
     1
102
RTVSPost2010Prop33
280
     0
102
RTVSPost2010PropOp33
 70
     1
102
RTVSPost2010Prop34
280
     0
102
RTVSPost2010PropOp34
 70
     1
102
RTVSPost2010Prop35
280
     0
102
RTVSPost2010PropOp35
 70
     1
102
RTVSPost2010Prop36
280
     0
102
RTVSPost2010PropOp36
 70
     1
102
RTVSPost2010Prop37
 90
       50
102
RTVSPost2010PropOp37
 70
     1
102
RTVSPost2010Prop38
140
0.0
102
RTVSPost2010PropOp38
 70
     1
102
RTVSPost2010Prop39
140
1.0
102
RTVSPost2010PropOp39
 70
     1
102
RTVSPost2010Prop40
 90
        0
102
RTVSPost2010PropOp40
 70
     1
102
RTVSPost2010Prop41ColorIndex
 90
       18
102
RTVSPost2010Prop41ColorRGB
 90
        0
102
RTVSPost2010PropOp41
 70
     1
102
RTVSPost2010Prop42
 90
       50
102
RTVSPost2010PropOp42
 70
     1
102
RTVSPost2010Prop43
 90
        3
102
RTVSPost2010PropOp43
 70
     1
102
RTVSPost2010Prop44ColorIndex
 90
        5
102
RTVSPost2010Prop44ColorRGB
 90
      255
102
RTVSPost2010PropOp44
 70
     1
102
RTVSPost2010Prop45
280
     0
102
RTVSPost2010PropOp45
 70
     1
102
RTVSPost2010Prop46
 90
       50
102
RTVSPost2010PropOp46
 70
     1
102
RTVSPost2010Prop47
 90
       50
102
RTVSPost2010PropOp47
 70
     1
102
RTVSPost2010Prop48
 90
       50
102
RTVSPost2010PropOp48
 70
     1
102
RTVSPost2010Prop49
280
     0
102
RTVSPost2010PropOp49
 70
     1
102
RTVSPost2010Prop50
 90
       50
102
RTVSPost2010PropOp50
 70
     1
102
RTVSPost2010Prop51ColorIndex
 90
      256
102
RTVSPost2010Prop51ColorRGB
 90
-16777216
102
RTVSPost2010PropOp51
 70
     0
102
RTVSPost2010Prop52
140
1.0
102
RTVSPost2010PropOp52
 70
     0
102
RTVSPost2010Prop53
 90
        2
102
RTVSPost2010PropOp53
 70
     1
102
RTVSPost2010Prop54
  1
strokes_ogs.tif
102
RTVSPost2010PropOp54
 70
     1
102
RTVSPost2010Prop55
280
     0
102
RTVSPost2010PropOp55
 70
     1
102
RTVSPost2010Prop56
140
1.0
102
RTVSPost2010PropOp56
 70
     1
102
RTVSPost2010Prop57
140
1.0
102
RTVSPost2010PropOp57
 70
     1
102
RTVSPropertyOp0
 70
     1
102
RTVSPropertyOp1
 70
     1
102
RTVSPropertyOp2
 70
     1
102
RTVSPropertyOp3
 70
     1
102
RTVSPropertyOp4
 70
     1
102
RTVSPropertyOp5
 70
     1
102
RTVSPropertyOp6
 70
     1
102
RTVSPropertyOp7
 70
     1
102
RTVSPropertyOp8
 70
     1
102
RTVSPropertyOp9
 70
     1
102
RTVSPropertyOp10
 70
     1
102
RTVSPropertyOp11
 70
     1
102
RTVSPropertyOp12
 70
     1
102
RTVSPropertyOp13
 70
     1
102
RTVSPropertyOp14
 70
     1
102
RTVSPropertyOp15
 70
     1
102
RTVSPropertyOp16
 70
     1
102
RTVSPropertyOp17
 70
     1
102
RTVSPropertyOp18
 70
     1
102
RTVSPropertyOp19
 70
     1
102
RTVSPropertyOp20
 70
     1
102
RTVSPropertyOp21
 70
     1
102
RTVSPropertyOp22
 70
     1
102
RTVSPropertyOp23
 70
     1
102
RTVSPropertyOp24
 70
     1
102
RTVSPropertyOp25
 70
     1
102
RTVSPropertyOp26
 70
     1
102
RTVSPropertyOp27
 70
     1
102
RTVSPropertyOp28
 70
     1
102
RTVSPropertyOp29
 70
     1
102
RTVSPropertyOp30
 70
     1
102
RTVSPropertyOp31
 70
     1
102
RTVSPropertyOp32
 70
     1
102
RTVSPropertyOp33
 70
     1
102
RTVSPropertyOp34
 70
     1
102
RTVSPropertyOp35
 70
     1
102
RTVSPropertyOp36
 70
     1
102
RTVSPropertyOp37
 70
     1
102
RTVSPropertyOp38
 70
     1
102
RTVSPropertyOp39
 70
     1
102
RTVSPropertyOp40
 70
     1
102
RTVSPropertyOp41
 70
     1
102
RTVSPropertyOp42
 70
     1
102
RTVSPropertyOp43
 70
     1
102
RTVSPropertyOp44
 70
     1
102
RTVSPropertyOp45
 70
     1
102
RTVSPropertyOp46
 70
     1
102
RTVSPropertyOp47
 70
     1
102
RTVSPropertyOp48
 70
     1
102
RTVSPropertyOp49
 70
     1
102
RTVSPropertyOp50
 70
     1
102
RTVSPropertyOp51
 70
     0
102
RTVSPropertyOp52
 70
     0
102
RTVSPropertyOp53
 70
     1
102
RTVSPropertyOp54
 70
     1
102
RTVSPropertyOp55
 70
     1
102
RTVSPropertyOp56
 70
     1
102
RTVSPropertyOp57
 70
     1
102
RTVSPropertyOp58
 70
     1
102
RTVSPropertyOp59
 70
     1
102
RTVSPropertyOp60
 70
     1
102
RTVSPropertyOp61
 70
     1
102
RTVSPropertyOp62
 70
     1
  0
XRECORD
  5
1AE17
102
{ACAD_REACTORS
330
1AE16
102
}
330
1AE16
100
AcDbXrecord
280
     1
102
RTVSPost2010Prop28
280
     0
102
RTVSPost2010PropOp28
 70
     1
102
RTVSPost2010Prop29
280
     1
102
RTVSPost2010PropOp29
 70
     1
102
RTVSPost2010Prop30
280
     1
102
RTVSPost2010PropOp30
 70
     1
102
RTVSPost2010Prop31
280
     0
102
RTVSPost2010PropOp31
 70
     1
102
RTVSPost2010Prop32
280
     0
102
RTVSPost2010PropOp32
 70
     1
102
RTVSPost2010Prop33
280
     0
102
RTVSPost2010PropOp33
 70
     1
102
RTVSPost2010Prop34
280
     0
102
RTVSPost2010PropOp34
 70
     1
102
RTVSPost2010Prop35
280
     0
102
RTVSPost2010PropOp35
 70
     1
102
RTVSPost2010Prop36
280
     0
102
RTVSPost2010PropOp36
 70
     1
102
RTVSPost2010Prop37
 90
       50
102
RTVSPost2010PropOp37
 70
     1
102
RTVSPost2010Prop38
140
0.0
102
RTVSPost2010PropOp38
 70
     1
102
RTVSPost2010Prop39
140
1.0
102
RTVSPost2010PropOp39
 70
     1
102
RTVSPost2010Prop40
 90
        0
102
RTVSPost2010PropOp40
 70
     1
102
RTVSPost2010Prop41ColorIndex
 90
       18
102
RTVSPost2010Prop41ColorRGB
 90
        0
102
RTVSPost2010PropOp41
 70
     1
102
RTVSPost2010Prop42
 90
       50
102
RTVSPost2010PropOp42
 70
     1
102
RTVSPost2010Prop43
 90
        3
102
RTVSPost2010PropOp43
 70
     1
102
RTVSPost2010Prop44ColorIndex
 90
        5
102
RTVSPost2010Prop44ColorRGB
 90
      255
102
RTVSPost2010PropOp44
 70
     1
102
RTVSPost2010Prop45
280
     0
102
RTVSPost2010PropOp45
 70
     1
102
RTVSPost2010Prop46
 90
       50
102
RTVSPost2010PropOp46
 70
     1
102
RTVSPost2010Prop47
 90
       50
102
RTVSPost2010PropOp47
 70
     1
102
RTVSPost2010Prop48
 90
       50
102
RTVSPost2010PropOp48
 70
     1
102
RTVSPost2010Prop49
280
     0
102
RTVSPost2010PropOp49
 70
     1
102
RTVSPost2010Prop50
 90
       50
102
RTVSPost2010PropOp50
 70
     1
102
RTVSPost2010Prop51ColorIndex
 90
      256
102
RTVSPost2010Prop51ColorRGB
 90
-16777216
102
RTVSPost2010PropOp51
 70
     0
102
RTVSPost2010Prop52
140
1.0
102
RTVSPost2010PropOp52
 70
     0
102
RTVSPost2010Prop53
 90
        2
102
RTVSPost2010PropOp53
 70
     1
102
RTVSPost2010Prop54
  1
strokes_ogs.tif
102
RTVSPost2010PropOp54
 70
     1
102
RTVSPost2010Prop55
280
     0
102
RTVSPost2010PropOp55
 70
     1
102
RTVSPost2010Prop56
140
1.0
102
RTVSPost2010PropOp56
 70
     1
102
RTVSPost2010Prop57
140
1.0
102
RTVSPost2010PropOp57
 70
     1
102
RTVSPropertyOp0
 70
     1
102
RTVSPropertyOp1
 70
     1
102
RTVSPropertyOp2
 70
     1
102
RTVSPropertyOp3
 70
     1
102
RTVSPropertyOp4
 70
     1
102
RTVSPropertyOp5
 70
     1
102
RTVSPropertyOp6
 70
     1
102
RTVSPropertyOp7
 70
     1
102
RTVSPropertyOp8
 70
     1
102
RTVSPropertyOp9
 70
     1
102
RTVSPropertyOp10
 70
     1
102
RTVSPropertyOp11
 70
     1
102
RTVSPropertyOp12
 70
     1
102
RTVSPropertyOp13
 70
     1
102
RTVSPropertyOp14
 70
     1
102
RTVSPropertyOp15
 70
     1
102
RTVSPropertyOp16
 70
     1
102
RTVSPropertyOp17
 70
     1
102
RTVSPropertyOp18
 70
     1
102
RTVSPropertyOp19
 70
     1
102
RTVSPropertyOp20
 70
     1
102
RTVSPropertyOp21
 70
     1
102
RTVSPropertyOp22
 70
     1
102
RTVSPropertyOp23
 70
     1
102
RTVSPropertyOp24
 70
     1
102
RTVSPropertyOp25
 70
     1
102
RTVSPropertyOp26
 70
     1
102
RTVSPropertyOp27
 70
     1
102
RTVSPropertyOp28
 70
     1
102
RTVSPropertyOp29
 70
     1
102
RTVSPropertyOp30
 70
     1
102
RTVSPropertyOp31
 70
     1
102
RTVSPropertyOp32
 70
     1
102
RTVSPropertyOp33
 70
     1
102
RTVSPropertyOp34
 70
     1
102
RTVSPropertyOp35
 70
     1
102
RTVSPropertyOp36
 70
     1
102
RTVSPropertyOp37
 70
     1
102
RTVSPropertyOp38
 70
     1
102
RTVSPropertyOp39
 70
     1
102
RTVSPropertyOp40
 70
     1
102
RTVSPropertyOp41
 70
     1
102
RTVSPropertyOp42
 70
     1
102
RTVSPropertyOp43
 70
     1
102
RTVSPropertyOp44
 70
     1
102
RTVSPropertyOp45
 70
     1
102
RTVSPropertyOp46
 70
     1
102
RTVSPropertyOp47
 70
     1
102
RTVSPropertyOp48
 70
     1
102
RTVSPropertyOp49
 70
     1
102
RTVSPropertyOp50
 70
     1
102
RTVSPropertyOp51
 70
     0
102
RTVSPropertyOp52
 70
     0
102
RTVSPropertyOp53
 70
     1
102
RTVSPropertyOp54
 70
     1
102
RTVSPropertyOp55
 70
     1
102
RTVSPropertyOp56
 70
     1
102
RTVSPropertyOp57
 70
     1
102
RTVSPropertyOp58
 70
     1
102
RTVSPropertyOp59
 70
     1
102
RTVSPropertyOp60
 70
     1
102
RTVSPropertyOp61
 70
     1
102
RTVSPropertyOp62
 70
     1
  0
ENDSEC
  0
EOF
