  0
SECTION
  2
HEADER
  9
$ACADVER
  1
AC1018
  9
$ACADMAINTVER
 70
   104
  9
$DWGCODEPAGE
  3
ANSI_1252
  9
$LASTSAVEDBY
  1
Dennis
  9
$INSBASE
 10
0.0
 20
0.0
 30
0.0
  9
$EXTMIN
 10
-781.7368717700156
 20
73.53440456253884
 30
0.0
  9
$EXTMAX
 10
765.4307353928524
 20
1290.705439286437
 30
0.0
  9
$LIMMIN
 10
5738.196265089202
 20
22845.83300451853
  9
$LIMMAX
 10
53967.82076643742
 20
53381.89548560028
  9
$ORTHOMODE
 70
     0
  9
$REGENMODE
 70
     1
  9
$FILLMODE
 70
     1
  9
$QTEXTMODE
 70
     0
  9
$MIRRTEXT
 70
     0
  9
$LTSCALE
 40
1000.0
  9
$ATTMODE
 70
     1
  9
$TEXTSIZE
 40
20.0
  9
$TRACEWID
 40
300.0
  9
$TEXTSTYLE
  7
ROMANS
  9
$CLAYER
  8
HB_XDET_TEXT
  9
$CELTYPE
  6
BYLAYER
  9
$CECOLOR
 62
   256
  9
$CELTSCALE
 40
1.0
  9
$DISPSILH
 70
     0
  9
$DIMSCALE
 40
1.0
  9
$DIMASZ
 40
20.0
  9
$DIMEXO
 40
0.0
  9
$DIMDLI
 40
10.0
  9
$DIMRND
 40
0.0
  9
$DIMDLE
 40
10.0
  9
$DIMEXE
 40
10.0
  9
$DIMTP
 40
0.0
  9
$DIMTM
 40
0.0
  9
$DIMTXT
 40
20.0
  9
$DIMCEN
 40
10.0
  9
$DIMTSZ
 40
0.0
  9
$DIMTOL
 70
     0
  9
$DIMLIM
 70
     0
  9
$DIMTIH
 70
     0
  9
$DIMTOH
 70
     0
  9
$DIMSE1
 70
     0
  9
$DIMSE2
 70
     0
  9
$DIMTAD
 70
     1
  9
$DIMZIN
 70
     8
  9
$DIMBLK
  1

  9
$DIMASO
 70
     1
  9
$DIMSHO
 70
     1
  9
$DIMPOST
  1

  9
$DIMAPOST
  1

  9
$DIMALT
 70
     0
  9
$DIMALTD
 70
     4
  9
$DIMALTF
 40
0.0394
  9
$DIMLFAC
 40
1.0
  9
$DIMTOFL
 70
     1
  9
$DIMTVP
 40
0.0
  9
$DIMTIX
 70
     0
  9
$DIMSOXD
 70
     0
  9
$DIMSAH
 70
     1
  9
$DIMBLK1
  1
OBLIQUE
  9
$DIMBLK2
  1
OBLIQUE
  9
$DIMSTYLE
  2
HBD10
  9
$DIMCLRD
 70
     7
  9
$DIMCLRE
 70
     7
  9
$DIMCLRT
 70
     7
  9
$DIMTFAC
 40
1.0
  9
$DIMGAP
 40
10.0
  9
$DIMJUST
 70
     0
  9
$DIMSD1
 70
     0
  9
$DIMSD2
 70
     0
  9
$DIMTOLJ
 70
     1
  9
$DIMTZIN
 70
     0
  9
$DIMALTZ
 70
     0
  9
$DIMALTTZ
 70
     0
  9
$DIMUPT
 70
     0
  9
$DIMDEC
 70
     0
  9
$DIMTDEC
 70
     2
  9
$DIMALTU
 70
     8
  9
$DIMALTTD
 70
     4
  9
$DIMTXSTY
  7
ROMANS
  9
$DIMAUNIT
 70
     0
  9
$DIMADEC
 70
     0
  9
$DIMALTRND
 40
0.0
  9
$DIMAZIN
 70
     0
  9
$DIMDSEP
 70
    46
  9
$DIMATFIT
 70
     3
  9
$DIMFRAC
 70
     0
  9
$DIMLDRBLK
  1
OBLIQUE
  9
$DIMLUNIT
 70
     2
  9
$DIMLWD
 70
    -2
  9
$DIMLWE
 70
    -2
  9
$DIMTMOVE
 70
     2
  9
$LUNITS
 70
     2
  9
$LUPREC
 70
     0
  9
$SKETCHINC
 40
100.0
  9
$FILLETRAD
 40
0.0
  9
$AUNITS
 70
     0
  9
$AUPREC
 70
     1
  9
$MENU
  1
ACAD
  9
$ELEVATION
 40
0.0
  9
$PELEVATION
 40
0.0
  9
$THICKNESS
 40
0.0
  9
$LIMCHECK
 70
     0
  9
$CHAMFERA
 40
0.0
  9
$CHAMFERB
 40
0.0
  9
$CHAMFERC
 40
0.0
  9
$CHAMFERD
 40
0.0
  9
$SKPOLY
 70
     1
  9
$TDCREATE
 40
2452451.588192083
  9
$TDUCREATE
 40
2452451.088192084
  9
$TDUPDATE
 40
2456471.662352072
  9
$TDUUPDATE
 40
2456471.162352072
  9
$TDINDWG
 40
0.2247633565
  9
$TDUSRTIMER
 40
0.2247633565
  9
$USRTIMER
 70
     1
  9
$ANGBASE
 50
0.0
  9
$ANGDIR
 70
     0
  9
$PDMODE
 70
     0
  9
$PDSIZE
 40
1.0
  9
$PLINEWID
 40
0.0
  9
$SPLFRAME
 70
     0
  9
$SPLINETYPE
 70
     6
  9
$SPLINESEGS
 70
     8
  9
$HANDSEED
  5
1651
  9
$SURFTAB1
 70
     9
  9
$SURFTAB2
 70
     6
  9
$SURFTYPE
 70
     6
  9
$SURFU
 70
     6
  9
$SURFV
 70
     6
  9
$UCSBASE
  2

  9
$UCSNAME
  2

  9
$UCSORG
 10
0.0
 20
0.0
 30
0.0
  9
$UCSXDIR
 10
1.0
 20
0.0
 30
0.0
  9
$UCSYDIR
 10
0.0
 20
1.0
 30
0.0
  9
$UCSORTHOREF
  2

  9
$UCSORTHOVIEW
 70
     0
  9
$UCSORGTOP
 10
0.0
 20
0.0
 30
0.0
  9
$UCSORGBOTTOM
 10
0.0
 20
0.0
 30
0.0
  9
$UCSORGLEFT
 10
0.0
 20
0.0
 30
0.0
  9
$UCSORGRIGHT
 10
0.0
 20
0.0
 30
0.0
  9
$UCSORGFRONT
 10
0.0
 20
0.0
 30
0.0
  9
$UCSORGBACK
 10
0.0
 20
0.0
 30
0.0
  9
$PUCSBASE
  2

  9
$PUCSNAME
  2

  9
$PUCSORG
 10
0.0
 20
0.0
 30
0.0
  9
$PUCSXDIR
 10
1.0
 20
0.0
 30
0.0
  9
$PUCSYDIR
 10
0.0
 20
1.0
 30
0.0
  9
$PUCSORTHOREF
  2

  9
$PUCSORTHOVIEW
 70
     0
  9
$PUCSORGTOP
 10
0.0
 20
0.0
 30
0.0
  9
$PUCSORGBOTTOM
 10
0.0
 20
0.0
 30
0.0
  9
$PUCSORGLEFT
 10
0.0
 20
0.0
 30
0.0
  9
$PUCSORGRIGHT
 10
0.0
 20
0.0
 30
0.0
  9
$PUCSORGFRONT
 10
0.0
 20
0.0
 30
0.0
  9
$PUCSORGBACK
 10
0.0
 20
0.0
 30
0.0
  9
$USERI1
 70
    11
  9
$USERI2
 70
   110
  9
$USERI3
 70
     1
  9
$USERI4
 70
   250
  9
$USERI5
 70
   280
  9
$USERR1
 40
100.0
  9
$USERR2
 40
450.0
  9
$USERR3
 40
1.0
  9
$USERR4
 40
0.0
  9
$USERR5
 40
0.0
  9
$WORLDVIEW
 70
     0
  9
$SHADEDGE
 70
     3
  9
$SHADEDIF
 70
    70
  9
$TILEMODE
 70
     0
  9
$MAXACTVP
 70
    16
  9
$PINSBASE
 10
0.0
 20
0.0
 30
0.0
  9
$PLIMCHECK
 70
     0
  9
$PEXTMIN
 10
736.2835696952206
 20
-161.672124940874
 30
-0.0000000000112498
  9
$PEXTMAX
 10
926.4727462035633
 20
114.9398907441941
 30
0.0000000000002956
  9
$PLIMMIN
 10
725.4810417469615
 20
-172.8571580820512
  9
$PLIMMAX
 10
935.4543693836804
 20
124.1746717519332
  9
$UNITMODE
 70
     0
  9
$VISRETAIN
 70
     0
  9
$PLINEGEN
 70
     0
  9
$PSLTSCALE
 70
     0
  9
$TREEDEPTH
 70
     0
  9
$CMLSTYLE
  2
STANDARD
  9
$CMLJUST
 70
     0
  9
$CMLSCALE
 40
1.0
  9
$PROXYGRAPHICS
 70
     1
  9
$MEASUREMENT
 70
     0
  9
$CELWEIGHT
370
    -1
  9
$ENDCAPS
280
     0
  9
$JOINSTYLE
280
     0
  9
$LWDISPLAY
290
     1
  9
$INSUNITS
 70
     0
  9
$HYPERLINKBASE
  1

  9
$STYLESHEET
  1

  9
$XEDIT
290
     1
  9
$CEPSNTYPE
380
     0
  9
$PSTYLEMODE
290
     1
  9
$FINGERPRINTGUID
  2
{5A3FC32A-FC54-4DAD-82D6-3D422C96A59B}
  9
$VERSIONGUID
  2
{BDF10272-A327-4F7C-B6B1-A50E09534C2F}
  9
$EXTNAMES
290
     1
  9
$PSVPSCALE
 40
0.0
  9
$OLESTARTUP
290
     0
  9
$SORTENTS
280
   127
  9
$INDEXCTL
280
     0
  9
$HIDETEXT
280
     0
  9
$XCLIPFRAME
290
     0
  9
$HALOGAP
280
     0
  9
$OBSCOLOR
 70
   257
  9
$OBSLTYPE
280
     0
  9
$INTERSECTIONDISPLAY
280
     0
  9
$INTERSECTIONCOLOR
 70
   257
  9
$DIMASSOC
280
     2
  9
$PROJECTNAME
  1

  0
ENDSEC
  0
SECTION
  2
CLASSES
  0
CLASS
  1
DICTIONARYVAR
  2
AcDbDictionaryVar
  3
ObjectDBX Classes
 90
        0
 91
       10
280
     0
281
     0
  0
CLASS
  1
RASTERVARIABLES
  2
AcDbRasterVariables
  3
ISM
 90
        0
 91
        1
280
     0
281
     0
  0
CLASS
  1
ACDBDICTIONARYWDFLT
  2
AcDbDictionaryWithDefault
  3
ObjectDBX Classes
 90
        0
 91
        1
280
     0
281
     0
  0
CLASS
  1
MATERIAL
  2
AcDbMaterial
  3
ObjectDBX Classes
 90
     1153
 91
        3
280
     0
281
     0
  0
CLASS
  1
VISUALSTYLE
  2
AcDbVisualStyle
  3
ObjectDBX Classes
 90
     4095
 91
       26
280
     0
281
     0
  0
CLASS
  1
TABLESTYLE
  2
AcDbTableStyle
  3
ObjectDBX Classes
 90
     4095
 91
        1
280
     0
281
     0
  0
CLASS
  1
SCALE
  2
AcDbScale
  3
ObjectDBX Classes
 90
     1153
 91
       33
280
     0
281
     0
  0
CLASS
  1
MLEADERSTYLE
  2
AcDbMLeaderStyle
  3
ACDB_MLEADERSTYLE_CLASS
 90
     4095
 91
        1
280
     0
281
     0
  0
CLASS
  1
CELLSTYLEMAP
  2
AcDbCellStyleMap
  3
ObjectDBX Classes
 90
     1152
 91
        4
280
     0
281
     0
  0
CLASS
  1
IMAGE
  2
AcDbRasterImage
  3
ISM
 90
     2175
 91
        2
280
     0
281
     1
  0
CLASS
  1
IMAGEDEF_REACTOR
  2
AcDbRasterImageDefReactor
  3
ISM
 90
        1
 91
        2
280
     0
281
     0
  0
CLASS
  1
SORTENTSTABLE
  2
AcDbSortentsTable
  3
ObjectDBX Classes
 90
        0
 91
        3
280
     0
281
     0
  0
CLASS
  1
IMAGEDEF
  2
AcDbRasterImageDef
  3
ISM
 90
        0
 91
        3
280
     0
281
     0
  0
CLASS
  1
AEC_REFEDIT_STATUS_TRACKER
  2
AecDbRefEditStatusTracker
  3
AecArchBase50|Product Desc: Autodesk Architectural Desktop 2007 |Company: Autodesk,Inc. |WEB Address: www.autodesk.com
 90
      129
 91
        0
280
     0
281
     0
  0
CLASS
  1
NPOCOLLECTION
  2
AcDbImpNonPersistentObjectsCollection
  3
ObjectDBX Classes
 90
     1153
 91
        0
280
     0
281
     0
  0
CLASS
  1
ACDBSECTIONVIEWSTYLE
  2
AcDbSectionViewStyle
  3
ObjectDBX Classes
 90
     1025
 91
        1
280
     0
281
     0
  0
CLASS
  1
ACDBDETAILVIEWSTYLE
  2
AcDbDetailViewStyle
  3
ObjectDBX Classes
 90
     1025
 91
        1
280
     0
281
     0
  0
ENDSEC
  0
SECTION
  2
TABLES
  0
TABLE
  2
VPORT
  5
6A5
102
{ACAD_XDICTIONARY
360
124D
102
}
330
0
100
AcDbSymbolTable
 70
     1
  0
VPORT
  5
1035
330
6A5
100
AcDbSymbolTableRecord
100
AcDbViewportTableRecord
  2
*Active
 70
     0
 10
0.0
 20
0.0
 11
1.0
 21
1.0
 12
-23309.07795805085
 22
-33411.2480759016
 13
0.0
 23
0.0
 14
1.0
 24
1.0
 15
1900.0
 25
1900.0
 16
0.0
 26
0.0
 36
1.0
 17
23187.54216236222
 27
34067.94128341666
 37
1200.0
 40
1318.653291010534
 41
1.507482993197278
 42
50.0
 43
0.0
 44
0.0
 50
0.0
 51
0.0
 71
     0
 72
 20000
 73
     1
 74
     0
 75
     0
 76
     0
 77
     0
 78
     1
281
     0
 65
     1
110
0.0
120
0.0
130
0.0
111
1.0
121
0.0
131
0.0
112
0.0
122
1.0
132
0.0
 79
     0
146
0.0
  0
ENDTAB
  0
TABLE
  2
LTYPE
  5
6A0
330
0
100
AcDbSymbolTable
 70
     4
  0
LTYPE
  5
6A1
330
6A0
100
AcDbSymbolTableRecord
100
AcDbLinetypeTableRecord
  2
BYBLOCK
 70
     0
  3

 72
    65
 73
     0
 40
0.0
  0
LTYPE
  5
6A2
330
6A0
100
AcDbSymbolTableRecord
100
AcDbLinetypeTableRecord
  2
BYLAYER
 70
     0
  3

 72
    65
 73
     0
 40
0.0
  0
LTYPE
  5
5
330
6A0
100
AcDbSymbolTableRecord
100
AcDbLinetypeTableRecord
  2
CONTINUOUS
 70
     0
  3
Solid line
 72
    65
 73
     0
 40
0.0
  0
LTYPE
  5
128
330
6A0
100
AcDbSymbolTableRecord
100
AcDbLinetypeTableRecord
  2
HIDDEN
 70
     0
  3
Hidden __ __ __ __ __ __ __ __ __ __ __ __ __ _
 72
    65
 73
     2
 40
0.375
 49
0.25
 74
     0
 49
-0.125
 74
     0
  0
LTYPE
  5
12C
330
6A0
100
AcDbSymbolTableRecord
100
AcDbLinetypeTableRecord
  2
HIDDEN2
 70
     0
  3
_ _ _ _ _ _ _ _ _ _ _ _ _ _ _ _ _ _ _ _ _ _ _ _
 72
    65
 73
     2
 40
0.1875
 49
0.125
 74
     0
 49
-0.0625
 74
     0
  0
LTYPE
  5
152E
330
6A0
100
AcDbSymbolTableRecord
100
AcDbLinetypeTableRecord
  2
PHANTOM2
 70
     0
  3
Phantom (.5x) ___ _ _ ___ _ _ ___ _ _ ___ _ _
 72
    65
 73
     6
 40
1.25
 49
0.625
 74
     0
 49
-0.125
 74
     0
 49
0.125
 74
     0
 49
-0.125
 74
     0
 49
0.125
 74
     0
 49
-0.125
 74
     0
  0
ENDTAB
  0
TABLE
  2
LAYER
  5
69D
102
{ACAD_XDICTIONARY
360
C14
102
}
330
0
100
AcDbSymbolTable
 70
    10
  0
LAYER
  5
1A6
102
{ACAD_XDICTIONARY
360
123A
102
}
330
69D
100
AcDbSymbolTableRecord
100
AcDbLayerTableRecord
  2
0
 70
     0
 62
     7
  6
CONTINUOUS
370
    -3
390
6CD
  0
LAYER
  5
69A
330
69D
100
AcDbSymbolTableRecord
100
AcDbLayerTableRecord
  2
DEFPOINTS
 70
     0
 62
     7
  6
CONTINUOUS
290
     0
370
    -3
390
6CD
  0
LAYER
  5
4
102
{ACAD_XDICTIONARY
360
123C
102
}
330
69D
100
AcDbSymbolTableRecord
100
AcDbLayerTableRecord
  2
HB_PANELS
 70
     0
 62
     1
  6
CONTINUOUS
370
    -3
390
6CD
  0
LAYER
  5
122
102
{ACAD_XDICTIONARY
360
1240
102
}
330
69D
100
AcDbSymbolTableRecord
100
AcDbLayerTableRecord
  2
HB_TEXT
 70
     1
 62
     7
  6
CONTINUOUS
370
    -3
390
6CD
  0
LAYER
  5
6EB
102
{ACAD_XDICTIONARY
360
1242
102
}
330
69D
100
AcDbSymbolTableRecord
100
AcDbLayerTableRecord
  2
HB_XDET_TEXT
 70
     0
 62
     7
  6
CONTINUOUS
370
    -3
390
6CD
  0
LAYER
  5
6EF
102
{ACAD_XDICTIONARY
360
1244
102
}
330
69D
100
AcDbSymbolTableRecord
100
AcDbLayerTableRecord
  2
HB_DIMS
 70
     0
 62
     7
  6
CONTINUOUS
370
    -3
390
6CD
  0
LAYER
  5
1293
330
69D
100
AcDbSymbolTableRecord
100
AcDbLayerTableRecord
  2
Border
 70
     0
 62
     7
  6
CONTINUOUS
370
    -3
390
6CD
1001
AcAecLayerStandard
1000

1000

  0
LAYER
  5
129B
102
{ACAD_XDICTIONARY
360
129C
102
}
330
69D
100
AcDbSymbolTableRecord
100
AcDbLayerTableRecord
  2
3
 70
     0
 62
     2
  6
CONTINUOUS
370
    -3
390
6CD
1001
RAK
1000
{ACET-LAYISO
1070
     0
1070
     2
1000
CONTINUOUS
1070
     1
1071
       -3
1071
        1
1005
0
1000
ACET-LAYISO}
  0
LAYER
  5
129D
102
{ACAD_XDICTIONARY
360
129E
102
}
330
69D
100
AcDbSymbolTableRecord
100
AcDbLayerTableRecord
  2
Title block
 70
     0
 62
     7
  6
CONTINUOUS
370
    80
390
6CD
  0
LAYER
  5
1543
102
{ACAD_XDICTIONARY
360
1544
102
}
330
69D
100
AcDbSymbolTableRecord
100
AcDbLayerTableRecord
  2
Text
 70
     0
 62
     7
  6
CONTINUOUS
370
    15
390
6CD
1001
RAK
1000
{ACET-LAYISO
1070
     0
1070
     7
1000
CONTINUOUS
1071
       -3
1071
        1
1005
6CD
1000
ACET-LAYISO}
  0
ENDTAB
  0
TABLE
  2
STYLE
  5
69E
330
0
100
AcDbSymbolTable
 70
     9
  0
STYLE
  5
69F
330
69E
100
AcDbSymbolTableRecord
100
AcDbTextStyleTableRecord
  2
STANDARD
 70
     0
 40
0.0
 41
1.0
 50
0.0
 71
     0
 42
150.0
  3
TIMES.TTF
  4

1001
ACAD
1000
Times New Roman
1071
       18
  0
STYLE
  5
17A
330
69E
100
AcDbSymbolTableRecord
100
AcDbTextStyleTableRecord
  2
ROMANS
 70
     0
 40
0.0
 41
1.0
 50
0.0
 71
     0
 42
20.0
  3
romans.shx
  4

  0
STYLE
  5
123
330
69E
100
AcDbSymbolTableRecord
100
AcDbTextStyleTableRecord
  2
ARIAL
 70
     0
 40
0.0
 41
1.199999999999999
 50
0.0
 71
     0
 42
300.0
  3
ARIAL.TTF
  4

1001
ACAD
1000
Arial
1071
       34
  0
STYLE
  5
12A0
330
69E
100
AcDbSymbolTableRecord
100
AcDbTextStyleTableRecord
  2
Title block
 70
     0
 40
2.5
 41
1.0
 50
0.0
 71
     0
 42
2.5
  3
TIMES.TTF
  4

1001
ACAD
1000
Times New Roman
1071
       18
  0
STYLE
  5
1545
330
69E
100
AcDbSymbolTableRecord
100
AcDbTextStyleTableRecord
  2
1
 70
     0
 40
0.0
 41
1.0
 50
0.0
 71
     0
 42
0.2
  3
swiss.ttf
  4

1001
ACAD
1000
Swis721 BT
1071
       34
  0
STYLE
  5
1546
330
69E
100
AcDbSymbolTableRecord
100
AcDbTextStyleTableRecord
  2
Brochure50
 70
     0
 40
50.0
 41
1.0
 50
4.0
 71
     0
 42
50.0
  3
CALIST.TTF
  4

1001
ACAD
1000
Calisto MT
1071
       18
  0
STYLE
  5
1547
330
69E
100
AcDbSymbolTableRecord
100
AcDbTextStyleTableRecord
  2
Titles
 70
     0
 40
4.0
 41
1.0
 50
0.0
 71
     0
 42
4.0
  3
timesbd.ttf
  4

1001
ACAD
1000
Times New Roman
1071
 33554450
  0
ENDTAB
  0
TABLE
  2
VIEW
  5
6A3
330
0
100
AcDbSymbolTable
 70
     1
  0
ENDTAB
  0
TABLE
  2
UCS
  5
6A4
330
0
100
AcDbSymbolTable
 70
     0
  0
ENDTAB
  0
TABLE
  2
APPID
  5
6A7
330
0
100
AcDbSymbolTable
 70
    17
  0
APPID
  5
124
330
6A7
100
AcDbSymbolTableRecord
100
AcDbRegAppTableRecord
  2
ACAD
 70
     0
  0
APPID
  5
1088
330
6A7
100
AcDbSymbolTableRecord
100
AcDbRegAppTableRecord
  2
ACAD_MLEADERVER
 70
     0
  0
APPID
  5
126F
330
6A7
100
AcDbSymbolTableRecord
100
AcDbRegAppTableRecord
  2
ACAD_EXEMPT_FROM_CAD_STANDARDS
 70
     0
  0
APPID
  5
1294
330
6A7
100
AcDbSymbolTableRecord
100
AcDbRegAppTableRecord
  2
AcAecLayerStandard
 70
     0
  0
APPID
  5
12A2
330
6A7
100
AcDbSymbolTableRecord
100
AcDbRegAppTableRecord
  2
AcadAnnoPO
 70
     0
  0
APPID
  5
12A3
330
6A7
100
AcDbSymbolTableRecord
100
AcDbRegAppTableRecord
  2
AcadAnnotative
 70
     0
  0
APPID
  5
12A4
330
6A7
100
AcDbSymbolTableRecord
100
AcDbRegAppTableRecord
  2
ACAD_DSTYLE_DIMJAG
 70
     0
  0
APPID
  5
12A5
330
6A7
100
AcDbSymbolTableRecord
100
AcDbRegAppTableRecord
  2
ACAD_DSTYLE_DIMTALN
 70
     0
  0
APPID
  5
12A6
330
6A7
100
AcDbSymbolTableRecord
100
AcDbRegAppTableRecord
  2
ACAD_PSEXT
 70
     0
  0
APPID
  5
12A7
330
6A7
100
AcDbSymbolTableRecord
100
AcDbRegAppTableRecord
  2
PROGE_PRINT_SETTINGS
 70
     0
  0
APPID
  5
12A8
330
6A7
100
AcDbSymbolTableRecord
100
AcDbRegAppTableRecord
  2
PCAD_LAYOUT
 70
     0
  0
APPID
  5
12A9
330
6A7
100
AcDbSymbolTableRecord
100
AcDbRegAppTableRecord
  2
RAK
 70
     0
  0
APPID
  5
12AA
330
6A7
100
AcDbSymbolTableRecord
100
AcDbRegAppTableRecord
  2
ACAD_DSTYLE_DIM_EXT1_LINETYPE
 70
     0
  0
APPID
  5
12AB
330
6A7
100
AcDbSymbolTableRecord
100
AcDbRegAppTableRecord
  2
ACAD_DSTYLE_DIM_EXT2_LINETYPE
 70
     0
  0
APPID
  5
12AC
330
6A7
100
AcDbSymbolTableRecord
100
AcDbRegAppTableRecord
  2
ACAD_DSTYLE_DIM_LINETYPE
 70
     0
  0
APPID
  5
12AD
330
6A7
100
AcDbSymbolTableRecord
100
AcDbRegAppTableRecord
  2
AcDbAttr
 70
     0
  0
APPID
  5
1548
330
6A7
100
AcDbSymbolTableRecord
100
AcDbRegAppTableRecord
  2
ACAD_NAV_VCDISPLAY
 70
     0
  0
ENDTAB
  0
TABLE
  2
DIMSTYLE
  5
6A8
330
0
100
AcDbSymbolTable
 70
     4
100
AcDbDimStyleTable
 71
     1
340
6AE
  0
DIMSTYLE
105
6AE
330
6A8
100
AcDbSymbolTableRecord
100
AcDbDimStyleTableRecord
  2
HBD10
 70
     0
 41
20.0
 42
0.0
 43
10.0
 44
10.0
 46
10.0
 73
     0
 74
     0
 77
     1
 78
     8
140
20.0
141
10.0
143
0.0394
147
10.0
171
     4
172
     1
173
     1
176
     7
177
     7
178
     7
271
     0
272
     2
273
     8
274
     4
279
     2
340
17A
  0
DIMSTYLE
105
6F7
330
6A8
100
AcDbSymbolTableRecord
100
AcDbDimStyleTableRecord
  2
STANDARD
 70
     0
340
69F
  0
ENDTAB
  0
TABLE
  2
BLOCK_RECORD
  5
1
330
0
100
AcDbSymbolTable
 70
     6
  0
BLOCK_RECORD
  5
2
102
{ACAD_XDICTIONARY
360
132E
102
}
330
1
100
AcDbSymbolTableRecord
100
AcDbBlockTableRecord
  2
*MODEL_SPACE
340
6D0
  0
BLOCK_RECORD
  5
1A8
330
1
100
AcDbSymbolTableRecord
100
AcDbBlockTableRecord
  2
*PAPER_SPACE
340
6D1
  0
BLOCK_RECORD
  5
6B1
330
1
100
AcDbSymbolTableRecord
100
AcDbBlockTableRecord
  2
_OBLIQUE
340
0
  0
BLOCK_RECORD
  5
12AE
102
{ACAD_XDICTIONARY
360
12C5
102
}
330
1
100
AcDbSymbolTableRecord
100
AcDbBlockTableRecord
  2
A4 Title Block
340
0
102
{BLKREFS
331
12D0
102
}
1001
ACAD
1000
DesignCenter Data
1002
{
1070
     1
1070
     4
1002
}
  0
BLOCK_RECORD
  5
153D
330
1
100
AcDbSymbolTableRecord
100
AcDbBlockTableRecord
  2
_ArchTick
340
0
  0
BLOCK_RECORD
  5
1540
330
1
100
AcDbSymbolTableRecord
100
AcDbBlockTableRecord
  2
_Dot
340
0
  0
ENDTAB
  0
ENDSEC
  0
SECTION
  2
BLOCKS
  0
BLOCK
  5
1A5
330
2
100
AcDbEntity
  8
0
100
AcDbBlockBegin
  2
*MODEL_SPACE
 70
     0
 10
0.0
 20
0.0
 30
0.0
  3
*MODEL_SPACE
  1

  0
ENDBLK
  5
1A7
330
2
100
AcDbEntity
  8
0
100
AcDbBlockEnd
  0
BLOCK
  5
69B
330
1A8
100
AcDbEntity
 67
     1
  8
0
100
AcDbBlockBegin
  2
*PAPER_SPACE
 70
     0
 10
0.0
 20
0.0
 30
0.0
  3
*PAPER_SPACE
  1

  0
ENDBLK
  5
69C
330
1A8
100
AcDbEntity
 67
     1
  8
0
100
AcDbBlockEnd
  0
BLOCK
  5
6B3
330
6B1
100
AcDbEntity
  8
0
100
AcDbBlockBegin
  2
_OBLIQUE
 70
     0
 10
0.0
 20
0.0
 30
0.0
  3
_OBLIQUE
  1

  0
LINE
  5
6B2
330
6B1
100
AcDbEntity
  8
0
  6
ByBlock
 62
     0
100
AcDbLine
 10
-0.5
 20
-0.5
 30
0.0
 11
0.5
 21
0.5
 31
0.0
  0
ENDBLK
  5
6B4
330
6B1
100
AcDbEntity
  8
0
100
AcDbBlockEnd
  0
BLOCK
  5
12C7
330
12AE
100
AcDbEntity
  8
0
100
AcDbBlockBegin
  2
A4 Title Block
 70
     2
 10
0.0
 20
0.0
 30
0.0
  3
A4 Title Block
  1

  0
TEXT
  5
1549
330
12AE
100
AcDbEntity
  8
3
 62
     7
100
AcDbText
 10
-853.4347976406543
 20
37.0581002795501
 30
0.0
 40
8.0
  1

 41
0.85
  7
ROMANS
100
AcDbText
  0
LINE
  5
154A
330
12AE
100
AcDbEntity
  8
Title block
100
AcDbLine
 10
-53.39424020223919
 20
255.4041454248354
 30
0.0
 11
-53.39424020223919
 21
-21.19891004925512
 31
0.0
  0
LINE
  5
154B
330
12AE
100
AcDbEntity
  8
Title block
100
AcDbLine
 10
-53.39424020223919
 20
-21.19891004925512
 30
0.0
 11
136.6057597977608
 21
-21.19891004925512
 31
0.0
  0
LINE
  5
154C
330
12AE
100
AcDbEntity
  8
Title block
100
AcDbLine
 10
136.6057597977608
 20
-21.19891004925512
 30
0.0
 11
136.6057597977608
 21
255.4041454248354
 31
0.0
  0
LINE
  5
154D
330
12AE
100
AcDbEntity
  8
Title block
100
AcDbLine
 10
136.6057597977608
 20
255.4041454248354
 30
0.0
 11
-53.39424020223919
 21
255.4041454248354
 31
0.0
  0
LINE
  5
154E
330
12AE
100
AcDbEntity
  8
Title block
100
AcDbLine
 10
-1.795875039454067
 20
-6.141303048717783
 30
0.0
 11
136.7843384162145
 21
-6.141303048717663
 31
0.0
  0
LINE
  5
154F
330
12AE
100
AcDbEntity
  8
Title block
100
AcDbLine
 10
-1.795875039454067
 20
-15.17614263826263
 30
0.0
 11
136.7843384162147
 21
-15.17614263826251
 31
0.0
  0
TEXT
  5
1550
330
12AE
100
AcDbEntity
  8
0
100
AcDbText
 10
0.6517825475052632
 20
-11.76410445304272
 30
0.0
 40
2.5
  1
Date:
  7
Title block
100
AcDbText
  0
TEXT
  5
1551
330
12AE
100
AcDbEntity
  8
0
100
AcDbText
 10
91.38994071143883
 20
-11.70327088333114
 30
0.0
 40
2.5
  1
Detail No.
  7
Title block
100
AcDbText
  0
TEXT
  5
1552
330
12AE
100
AcDbEntity
  8
0
100
AcDbText
 10
0.4781396402668179
 20
2.432750857016124
 30
0.0
 40
2.5
  1
Title:
  7
Title block
100
AcDbText
  0
LWPOLYLINE
  5
1553
330
12AE
100
AcDbEntity
  8
Title block
100
AcDbPolyline
 90
        2
 70
     0
 43
0.0
 10
-53.39424020223919
 20
8.156069115485486
 10
136.6057597977608
 20
8.156069115485486
  0
MTEXT
  5
1554
330
12AE
100
AcDbEntity
  8
Title block
100
AcDbMText
 10
-1.184518202095205
 20
-17.38860623730951
 30
0.0
 40
2.0
 41
162.2032764939204
 71
     1
 72
     1
  1
This drawing must be read in conjunction with the Supercrete Commercial & Industrial Wall Systems Design Guide
  7
Title block
 73
     1
 44
1.0
  0
LWPOLYLINE
  5
1555
330
12AE
100
AcDbEntity
  8
Title block
100
AcDbPolyline
 90
        2
 70
     0
 43
0.0
 10
46.71209860759859
 20
-6.141303048717773
 10
46.71209860759859
 20
-15.17614263826262
  0
LWPOLYLINE
  5
1556
330
12AE
100
AcDbEntity
  8
Title block
100
AcDbPolyline
 90
        2
 70
     0
 43
0.0
 10
89.74925677747592
 20
-6.141303048717704
 10
89.74925677747592
 20
-15.17614263826255
  0
TEXT
  5
1557
330
12AE
100
AcDbEntity
  8
0
100
AcDbText
 10
51.06569660619993
 20
-11.76410445304272
 30
0.0
 40
2.5
  1
Scale:
  7
Title block
100
AcDbText
  0
ATTDEF
  5
1558
330
12AE
100
AcDbEntity
  8
Title block
100
AcDbText
 10
39.57990030128394
 20
2.42141026247782
 30
0.0
 40
4.0
  1

100
AcDbAttributeDefinition
  3
Title
  2
TITLE
 70
     0
1001
AcDbAttr
1070
     0
1070
     1
  0
ATTDEF
  5
1559
330
12AE
100
AcDbEntity
  8
Title block
100
AcDbText
 10
11.94525974027624
 20
-11.93443354649616
 30
0.0
 40
2.5
  1

100
AcDbAttributeDefinition
  3
Date
  2
DATE
 70
     0
1001
AcDbAttr
1070
     0
1070
     1
  0
ATTDEF
  5
155A
330
12AE
100
AcDbEntity
  8
Title block
100
AcDbText
 10
63.23629700150786
 20
-11.93443354649616
 30
0.0
 40
2.5
  1

100
AcDbAttributeDefinition
  3
Scale
  2
SCALE
 70
     0
1001
AcDbAttr
1070
     0
1070
     1
  0
ATTDEF
  5
155B
330
12AE
100
AcDbEntity
  8
Title block
100
AcDbText
 10
109.8604241840326
 20
-12.15072715688961
 30
0.0
 40
3.5
  1

100
AcDbAttributeDefinition
  3
Drg No
  2
DRGNO
 70
     0
1001
AcDbAttr
1070
     0
1070
     1
  0
ATTDEF
  5
155C
330
12AE
100
AcDbEntity
  8
Title block
100
AcDbText
 10
39.57990030128394
 20
-4.43392399728782
 30
0.0
 40
4.0
  1

100
AcDbAttributeDefinition
  3
Title2
  2
TITLE2
 70
     0
1001
AcDbAttr
1070
     0
1070
     1
  0
LINE
  5
155D
330
12AE
100
AcDbEntity
  8
Title block
100
AcDbLine
 10
-1.795875039454059
 20
-21.19891004925512
 30
0.0
 11
-1.795875039454074
 21
8.156069115485486
 31
0.0
  0
MTEXT
  5
155E
102
{ACAD_XDICTIONARY
360
155F
102
}
330
12AE
100
AcDbEntity
  8
Text
100
AcDbMText
 10
-55.12753173127713
 20
-7.003771573345915
 30
0.0
 40
3.0
 41
55.49050343911358
 71
     1
 72
     5
  1
\pi3.2792;CIWS CONSTRUCTION
  7
Titles
 73
     1
 44
1.0
1001
ACAD
1000
ACAD_MTEXT_COLUMN_INFO_BEGIN
1070
    75
1070
     2
1070
    79
1070
     0
1070
    76
1070
     1
1070
    78
1070
     0
1070
    48
1040
55.49050343911358
1070
    49
1040
12.5
1070
    50
1070
     1
1040
0.0
1000
ACAD_MTEXT_COLUMN_INFO_END
  0
IMAGE
  5
1560
330
12AE
100
AcDbEntity
  8
0
 92
      140
310
8C0000000100000084000000060000000500000060B1837676B24AC090DAAA3FC0C10BC0000000000000000060B1837676B24AC0FFD9854AE84F2040000000000000000000872277E7BBFCBFFFD9854AE84F2040000000000000000000872277E7BBFCBF90DAAA3FC0C10BC0000000000000000060B1837676B24AC090DAAA
310
3FC0C10BC00000000000000000
100
AcDbRasterImage
 90
        0
 10
-53.39424020223919
 20
-3.469604966546576
 30
0.0
 11
0.0377456950715327
 21
0.0
 31
0.0
 12
0.0
 22
0.0377456950715327
 32
0.0
 13
1367.0
 23
308.0
340
1563
 70
     7
280
     0
281
    50
282
    50
283
     0
360
1561
 71
     1
 91
        2
 14
-0.5
 24
-0.5
 14
1366.5
 24
307.5
  0
ENDBLK
  5
12C8
330
12AE
100
AcDbEntity
  8
0
100
AcDbBlockEnd
  0
BLOCK
  5
153E
330
153D
100
AcDbEntity
  8
0
100
AcDbBlockBegin
  2
_ArchTick
 70
     0
 10
0.0
 20
0.0
 30
0.0
  3
_ArchTick
  1

  0
ENDBLK
  5
153F
330
153D
100
AcDbEntity
  8
0
100
AcDbBlockEnd
  0
BLOCK
  5
1541
330
1540
100
AcDbEntity
  8
0
100
AcDbBlockBegin
  2
_Dot
 70
     0
 10
0.0
 20
0.0
 30
0.0
  3
_Dot
  1

  0
ENDBLK
  5
1542
330
1540
100
AcDbEntity
  8
0
100
AcDbBlockEnd
  0
ENDSEC
  0
SECTION
  2
ENTITIES
  0
MTEXT
  5
BE4
330
2
100
AcDbEntity
  8
HB_TEXT
100
AcDbMText
 10
42876.17445676073
 20
55871.92700740256
 30
0.0
 40
25.0
 41
1427.0
 71
     5
 72
     5
  1
{\L\C2;DETAIL 1.1.1 - HORIZONTAL WALL PANELS - ISOMETRIC MODEL DETAIL}
  7
ROMANS
 73
     1
 44
1.0
  0
TEXT
  5
E21
330
2
100
AcDbEntity
  8
HB_XDET_TEXT
 62
     6
100
AcDbText
 10
-614.4644860818589
 20
1077.669529867336
 30
0.0
 40
15.0
  1
H=20.2.2
  7
ROMANS
100
AcDbText
  0
TEXT
  5
E22
330
2
100
AcDbEntity
  8
HB_XDET_TEXT
 62
     6
100
AcDbText
 10
-770.9320365350722
 20
1077.535244313629
 30
0.0
 40
15.0
  1
D=20.2.2
  7
ROMANS
100
AcDbText
  0
TEXT
  5
E23
330
2
100
AcDbEntity
  8
HB_XDET_TEXT
 62
     6
100
AcDbText
 10
-770.9320365350722
 20
1182.246382255958
 30
0.0
 40
15.0
  1
%%uSECTION REFERENCES
  7
ROMANS
100
AcDbText
  0
TEXT
  5
E24
330
2
100
AcDbEntity
  8
HB_XDET_TEXT
 62
     6
100
AcDbText
 10
-769.9485160395124
 20
1150.612433599221
 30
0.0
 40
15.0
  1
A=20.2.1
  7
ROMANS
100
AcDbText
  0
TEXT
  5
E25
330
2
100
AcDbEntity
  8
HB_XDET_TEXT
 62
     6
100
AcDbText
 10
-771.9154301902308
 20
1126.326719313503
 30
0.0
 40
15.0
  1
B=20.2.7
  7
ROMANS
100
AcDbText
  0
TEXT
  5
E26
330
2
100
AcDbEntity
  8
HB_XDET_TEXT
 62
     6
100
AcDbText
 10
-770.9320365350722
 20
1102.041005027793
 30
0.0
 40
15.0
  1
C=20.2.5
  7
ROMANS
100
AcDbText
  0
TEXT
  5
E27
330
2
100
AcDbEntity
  8
HB_XDET_TEXT
 62
     6
100
AcDbText
 10
-614.4644860818589
 20
1150.549051632937
 30
0.0
 40
15.0
  1
E=19.2.1
  7
ROMANS
100
AcDbText
  0
TEXT
  5
E28
330
2
100
AcDbEntity
  8
HB_XDET_TEXT
 62
     6
100
AcDbText
 10
-614.4644860818589
 20
1126.26333734722
 30
0.0
 40
15.0
  1
F=20.2.8
  7
ROMANS
100
AcDbText
  0
LINE
  5
E29
330
2
100
AcDbEntity
  8
HB_XDET_TEXT
 62
     6
100
AcDbLine
 10
-781.7368717700156
 20
1206.706057066141
 30
0.0
 11
-500.6814607626075
 21
1206.706057066141
 31
0.0
  0
LINE
  5
E2A
330
2
100
AcDbEntity
  8
HB_XDET_TEXT
 62
     6
100
AcDbLine
 10
-500.6814607626075
 20
1206.706057066141
 30
0.0
 11
-500.6814607626075
 21
1062.309763039666
 31
0.0
  0
LINE
  5
E2B
330
2
100
AcDbEntity
  8
HB_XDET_TEXT
 62
     6
100
AcDbLine
 10
-500.6814607626075
 20
1062.309763039666
 30
0.0
 11
-781.7368717700156
 21
1062.309763039666
 31
0.0
  0
LINE
  5
E2C
330
2
100
AcDbEntity
  8
HB_XDET_TEXT
 62
     6
100
AcDbLine
 10
-781.7368717700156
 20
1062.309763039666
 30
0.0
 11
-781.7368717700156
 21
1206.706057066141
 31
0.0
  0
TEXT
  5
E2D
330
2
100
AcDbEntity
  8
HB_XDET_TEXT
 62
     6
100
AcDbText
 10
-614.4644860818589
 20
1102.175290581501
 30
0.0
 40
15.0
  1
G=18.5.1
  7
ROMANS
100
AcDbText
  0
LINE
  5
E2E
330
2
100
AcDbEntity
  8
HB_PANELS
 62
     8
100
AcDbLine
 10
428.1251112619575
 20
391.1918455237319
 30
0.0
 11
428.1251112619575
 21
153.1788313060679
 31
0.0
  0
LINE
  5
E2F
330
2
100
AcDbEntity
  8
HB_PANELS
 62
     8
100
AcDbLine
 10
428.1251112619575
 20
661.9288313060242
 30
0.0
 11
438.9504288092576
 21
668.1788313060242
 31
0.0
  0
LINE
  5
E30
330
2
100
AcDbEntity
  8
HB_PANELS
 62
     8
100
AcDbLine
 10
408.1952563317681
 20
493.3110016440041
 30
0.0
 11
408.1952563317681
 21
433.435338414929
 31
0.0
  0
LINE
  5
E31
330
2
100
AcDbEntity
  8
HB_DIMS
  6
HIDDEN2
 48
0.1
100
AcDbLine
 10
448.228586199235
 20
509.606550936558
 30
0.0
 11
471.797390469088
 21
523.2140064262202
 31
0.0
  0
LINE
  5
E32
330
2
100
AcDbEntity
  8
HB_DIMS
  6
HIDDEN2
 48
0.1
100
AcDbLine
 10
465.8392883918931
 20
526.6539182643755
 30
0.0
 11
477.7554925462973
 21
519.7740945880942
 31
0.0
  0
LINE
  5
E33
330
2
100
AcDbEntity
  8
HB_DIMS
  6
HIDDEN2
100
AcDbLine
 10
477.7554925462973
 20
519.7740945880942
 30
0.0
 11
479.5931941959061
 21
527.7149158064567
 31
0.0
  0
LINE
  5
E34
330
2
100
AcDbEntity
  8
HB_DIMS
  6
HIDDEN2
100
AcDbLine
 10
479.5931941959061
 20
527.7149158064567
 30
0.0
 11
465.8392883918931
 21
526.6539182643755
 31
0.0
  0
LINE
  5
E35
330
2
100
AcDbEntity
  8
HB_DIMS
  6
HIDDEN2
 48
0.1
100
AcDbLine
 10
371.3534595087913
 20
553.9904260252951
 30
0.0
 11
394.9222637786443
 21
567.5978815149574
 31
0.0
  0
LINE
  5
E36
330
2
100
AcDbEntity
  8
HB_DIMS
  6
HIDDEN2
 48
0.1
100
AcDbLine
 10
371.3534595087913
 20
553.9904260252951
 30
0.0
 11
448.228586199235
 21
509.606550936558
 31
0.0
  0
LINE
  5
E37
330
2
100
AcDbEntity
  8
HB_DIMS
  6
HIDDEN2
100
AcDbLine
 10
402.7180675054624
 20
572.0987908951938
 30
0.0
 11
388.9641617014495
 21
571.0377933531126
 31
0.0
  0
LINE
  5
E38
330
2
100
AcDbEntity
  8
HB_DIMS
  6
HIDDEN2
100
AcDbLine
 10
400.8803658558536
 20
564.1579696768312
 30
0.0
 11
402.7180675054624
 21
572.0987908951938
 31
0.0
  0
LINE
  5
E39
330
2
100
AcDbEntity
  8
HB_DIMS
  6
HIDDEN2
 48
0.1
100
AcDbLine
 10
388.9641617014495
 20
571.0377933531126
 30
0.0
 11
400.8803658558536
 21
564.1579696768312
 31
0.0
  0
CIRCLE
  5
E3A
330
2
100
AcDbEntity
  8
HB_DIMS
 62
     6
100
AcDbCircle
 10
399.7158629691185
 20
508.5626941497903
 30
0.0
 40
17.45342274086433
  0
TEXT
  5
E3B
330
2
100
AcDbEntity
  8
HB_DIMS
100
AcDbText
 10
390.2281707446673
 20
498.3116608005511
 30
0.0
 40
20.0
  1
D
  7
ARIAL
100
AcDbText
  0
LINE
  5
E3C
330
2
100
AcDbEntity
  8
HB_PANELS
 62
     8
100
AcDbLine
 10
-325.0171632991041
 20
416.7917810974176
 30
0.0
 11
-293.3944595277935
 21
398.5344045625243
 31
0.0
  0
CIRCLE
  5
E3D
330
2
100
AcDbEntity
  8
HB_DIMS
 62
     6
100
AcDbCircle
 10
-341.2001781498475
 20
404.2940699460014
 30
0.0
 40
17.45342274086433
  0
TEXT
  5
E3E
330
2
100
AcDbEntity
  8
HB_DIMS
100
AcDbText
 10
-350.385634648068
 20
393.788226709934
 30
0.0
 40
20.0
  1
H
  7
ARIAL
100
AcDbText
  0
LINE
  5
E3F
330
2
100
AcDbEntity
  8
HB_DIMS
  6
HIDDEN2
 48
0.1
100
AcDbLine
 10
-362.67920736003
 20
442.8423484177764
 30
0.0
 11
-339.110403090177
 21
456.4498039074387
 31
0.0
  0
LINE
  5
E40
330
2
100
AcDbEntity
  8
HB_DIMS
  6
HIDDEN2
 48
0.1
100
AcDbLine
 10
-345.0685051673718
 20
459.8897157455939
 30
0.0
 11
-333.1523010129676
 21
453.0098920693126
 31
0.0
  0
LINE
  5
E41
330
2
100
AcDbEntity
  8
HB_DIMS
  6
HIDDEN2
100
AcDbLine
 10
-333.1523010129676
 20
453.0098920693126
 30
0.0
 11
-331.3145993633589
 21
460.9507132876752
 31
0.0
  0
LINE
  5
E42
330
2
100
AcDbEntity
  8
HB_DIMS
  6
HIDDEN2
100
AcDbLine
 10
-331.3145993633589
 20
460.9507132876752
 30
0.0
 11
-345.0685051673718
 21
459.8897157455939
 31
0.0
  0
LINE
  5
E43
330
2
100
AcDbEntity
  8
HB_DIMS
  6
HIDDEN2
100
AcDbLine
 10
-254.4394726729152
 20
416.566838198938
 30
0.0
 11
-268.1933784769281
 21
415.5058406568569
 31
0.0
  0
LINE
  5
E44
330
2
100
AcDbEntity
  8
HB_DIMS
  6
HIDDEN2
100
AcDbLine
 10
-256.2771743225239
 20
408.6260169805755
 30
0.0
 11
-254.4394726729152
 21
416.566838198938
 31
0.0
  0
LINE
  5
E45
330
2
100
AcDbEntity
  8
HB_DIMS
  6
HIDDEN2
 48
0.1
100
AcDbLine
 10
-268.1933784769281
 20
415.5058406568569
 30
0.0
 11
-256.2771743225239
 21
408.6260169805755
 31
0.0
  0
LINE
  5
E46
330
2
100
AcDbEntity
  8
HB_DIMS
  6
HIDDEN2
 48
0.1
100
AcDbLine
 10
-285.8040806695862
 20
398.4584733290394
 30
0.0
 11
-262.2352763997333
 21
412.0659288187016
 31
0.0
  0
LINE
  5
E47
330
2
100
AcDbEntity
  8
HB_DIMS
  6
HIDDEN2
 48
0.1
100
AcDbLine
 10
-362.67920736003
 20
442.8423484177764
 30
0.0
 11
-285.8040806695862
 21
398.4584733290394
 31
0.0
  0
LINE
  5
E48
330
2
100
AcDbEntity
  8
HB_DIMS
  6
HIDDEN2
 48
0.1
100
AcDbLine
 10
158.3095163772232
 20
240.0399364646728
 30
0.0
 11
182.2878911382431
 21
253.8838575876726
 31
0.0
  0
LINE
  5
E49
330
2
100
AcDbEntity
  8
HB_DIMS
100
AcDbLine
 10
188.9673285973767
 20
257.7402326027368
 30
0.0
 11
182.2878911382431
 21
246.171107557544
 31
0.0
  0
LINE
  5
E4A
330
2
100
AcDbEntity
  8
HB_DIMS
100
AcDbLine
 10
188.9673285973767
 20
257.7402326027368
 30
0.0
 11
182.2878911382431
 21
261.5966076178011
 31
0.0
  0
LINE
  5
E4B
330
2
100
AcDbEntity
  8
HB_DIMS
  6
HIDDEN
100
AcDbLine
 10
182.2878911382431
 20
246.171107557544
 30
0.0
 11
182.2878911382431
 21
261.5966076178011
 31
0.0
  0
LINE
  5
E4C
330
2
100
AcDbEntity
  8
HB_DIMS
  6
HIDDEN2
 48
0.1
100
AcDbLine
 10
158.3095163772232
 20
240.0399364646728
 30
0.0
 11
158.3095163772232
 21
341.4342181425454
 31
0.0
  0
LINE
  5
E4D
330
2
100
AcDbEntity
  8
HB_DIMS
  6
HIDDEN
100
AcDbLine
 10
182.2878911382431
 20
347.5653892354167
 30
0.0
 11
182.2878911382431
 21
362.9908892956737
 31
0.0
  0
LINE
  5
E4E
330
2
100
AcDbEntity
  8
HB_DIMS
100
AcDbLine
 10
188.9673285973767
 20
359.1345142806094
 30
0.0
 11
182.2878911382431
 21
362.9908892956737
 31
0.0
  0
LINE
  5
E4F
330
2
100
AcDbEntity
  8
HB_DIMS
100
AcDbLine
 10
188.9673285973767
 20
359.1345142806094
 30
0.0
 11
182.2878911382431
 21
347.5653892354167
 31
0.0
  0
LINE
  5
E50
330
2
100
AcDbEntity
  8
HB_DIMS
  6
HIDDEN2
 48
0.1
100
AcDbLine
 10
158.3095163772232
 20
341.4342181425454
 30
0.0
 11
182.2878911382431
 21
355.2781392655452
 31
0.0
  0
CIRCLE
  5
E51
330
2
100
AcDbEntity
  8
HB_DIMS
 62
     6
100
AcDbCircle
 10
132.972906982417
 20
284.7448438145511
 30
0.0
 40
17.45342274086433
  0
TEXT
  5
E52
330
2
100
AcDbEntity
  8
HB_DIMS
100
AcDbText
 10
124.1326409367757
 20
275.1139144825574
 30
0.0
 40
20.0
  1
A
  7
ARIAL
100
AcDbText
  0
LINE
  5
E53
330
2
100
AcDbEntity
  8
HB_PANELS
 62
     8
100
AcDbLine
 10
198.0437327164327
 20
286.0163771447842
 30
0.0
 11
208.8690502637401
 21
292.2663771447842
 31
0.0
  0
LINE
  5
E54
330
2
100
AcDbEntity
  8
HB_PANELS
 62
     8
100
AcDbLine
 10
208.8690502637401
 20
292.2663771447988
 30
0.0
 11
343.2433510479459
 21
214.6853384148562
 31
0.0
  0
LINE
  5
E55
330
2
100
AcDbEntity
  8
HB_PANELS
 62
     8
100
AcDbLine
 10
429.8458914263902
 20
152.185338414929
 30
0.0
 11
111.4411923379521
 21
336.0163771447842
 31
0.0
  0
LINE
  5
E56
330
2
100
AcDbEntity
  8
HB_PANELS
 62
     8
100
AcDbLine
 10
38.92717697275657
 20
294.1503908536688
 30
0.0
 11
111.4411923379521
 21
336.0163771447842
 31
0.0
  0
LINE
  5
E57
330
2
100
AcDbEntity
  8
HB_PANELS
 62
     8
100
AcDbLine
 10
-591.6363729950607
 20
514.4744535864738
 30
0.0
 11
-293.3944595277935
 21
342.2844045625388
 31
0.0
  0
LINE
  5
E58
330
2
100
AcDbEntity
  8
HB_PANELS
 62
     8
100
AcDbLine
 10
-598.8617625498736
 20
537.3960341909696
 30
0.0
 11
-357.4959156025905
 21
398.0433974827706
 31
0.0
  0
CIRCLE
  5
E59
330
2
100
AcDbEntity
  8
HB_DIMS
 62
     6
100
AcDbCircle
 10
-609.0054057393208
 20
516.1887076225102
 30
0.0
 40
17.45342274086433
  0
TEXT
  5
E5A
330
2
100
AcDbEntity
  8
HB_DIMS
100
AcDbText
 10
-620.2032598097721
 20
505.4954616051836
 30
0.0
 40
20.0
  1
G
  7
ARIAL
100
AcDbText
  0
LINE
  5
E5B
330
2
100
AcDbEntity
  8
HB_PANELS
  6
HIDDEN
 62
     8
 48
0.05
100
AcDbLine
 10
429.8458914263829
 20
433.4353384148562
 30
0.0
 11
343.2433510479386
 21
483.4353384148707
 31
0.0
  0
LINE
  5
E5C
330
2
100
AcDbEntity
  8
HB_PANELS
  6
HIDDEN
 62
     8
 48
0.05
100
AcDbLine
 10
28.10185942544922
 20
569.1503908536687
 30
0.0
 11
28.10185942544922
 21
546.6503908536729
 31
0.0
  0
LINE
  5
E5D
330
2
100
AcDbEntity
  8
HB_PANELS
  6
HIDDEN
 62
     8
 48
0.05
100
AcDbLine
 10
28.10185942544922
 20
569.1503908536687
 30
0.0
 11
111.4411923379885
 21
617.2663771448132
 31
0.0
  0
LINE
  5
E5E
330
2
100
AcDbEntity
  8
HB_PANELS
  6
HIDDEN
 62
     8
 48
0.05
100
AcDbLine
 10
38.92717697275657
 20
562.9003908536687
 30
0.0
 11
28.10185942544922
 21
569.1503908536687
 31
0.0
  0
LINE
  5
E5F
330
2
100
AcDbEntity
  8
HB_PANELS
  6
HIDDEN
 62
     8
 48
0.05
100
AcDbLine
 10
208.8690502637328
 20
561.0163771447987
 30
0.0
 11
111.4411923379885
 21
617.2663771448132
 31
0.0
  0
LINE
  5
E60
330
2
100
AcDbEntity
  8
HB_PANELS
 62
     8
100
AcDbLine
 10
429.8458914263829
 20
420.9353384149435
 30
0.0
 11
111.4411923379521
 21
604.7663771447915
 31
0.0
  0
LINE
  5
E61
330
2
100
AcDbEntity
  8
HB_PANELS
 62
     8
100
AcDbLine
 10
38.92717697275657
 20
562.9003908536687
 30
0.0
 11
111.4411923379521
 21
604.7663771447915
 31
0.0
  0
LINE
  5
E62
330
2
100
AcDbEntity
  8
HB_PANELS
  6
HIDDEN
 62
     8
 48
0.05
100
AcDbLine
 10
111.4411923379666
 20
576.016377144806
 30
0.0
 11
429.8458914263829
 21
392.1853384148854
 31
0.0
  0
LINE
  5
E63
330
2
100
AcDbEntity
  8
HB_PANELS
  6
HIDDEN
 62
     8
 48
0.05
100
AcDbLine
 10
38.9271769727493
 20
534.1503908536833
 30
0.0
 11
111.4411923379666
 21
576.016377144806
 31
0.0
  0
LINE
  5
E64
330
2
100
AcDbEntity
  8
HB_PANELS
 62
     8
100
AcDbLine
 10
-123.3989402178049
 20
440.4313633972051
 30
0.0
 11
38.92717697275657
 21
534.1503908536687
 31
0.0
  0
LINE
  5
E65
330
2
100
AcDbEntity
  8
HB_PANELS
 62
     8
100
AcDbLine
 10
-108.2316960942043
 20
467.9381758748204
 30
0.0
 11
38.92717697275657
 21
552.9003908536687
 31
0.0
  0
CIRCLE
  5
E66
330
2
100
AcDbEntity
  8
HB_DIMS
 62
     6
100
AcDbCircle
 10
-123.8200196771577
 20
460.087944461382
 30
0.0
 40
17.45342274086433
  0
TEXT
  5
E67
330
2
100
AcDbEntity
  8
HB_DIMS
100
AcDbText
 10
-133.036999695847
 20
450.7838499909849
 30
0.0
 40
20.0
  1
A
  7
ARIAL
100
AcDbText
  0
LINE
  5
E68
330
2
100
AcDbEntity
  8
HB_DIMS
100
AcDbLine
 10
-176.9333500985158
 20
503.3893132499797
 30
0.0
 11
-170.7515869861963
 21
507.5330206831422
 31
0.0
  0
LINE
  5
E69
330
2
100
AcDbEntity
  8
HB_DIMS
100
AcDbLine
 10
-170.7515869861963
 20
492.1075206228997
 30
0.0
 11
-176.9333500985158
 21
503.3893132499797
 31
0.0
  0
LINE
  5
E6A
330
2
100
AcDbEntity
  8
HB_DIMS
  6
HIDDEN2
 48
0.1
100
AcDbLine
 10
-170.7515869861963
 20
492.1075206228997
 30
0.0
 11
-170.7515869861963
 21
507.5330206831422
 31
0.0
  0
LINE
  5
E6B
330
2
100
AcDbEntity
  8
HB_DIMS
  6
HIDDEN2
 48
0.1
100
AcDbLine
 10
-145.167761465811
 20
485.0494421019248
 30
0.0
 11
-170.7515869861963
 21
499.8202706530283
 31
0.0
  0
LINE
  5
E6C
330
2
100
AcDbEntity
  8
HB_DIMS
  6
HIDDEN2
 48
0.1
100
AcDbLine
 10
-145.167761465811
 20
383.6551604240522
 30
0.0
 11
-170.7515869861963
 21
398.4259889751556
 31
0.0
  0
LINE
  5
E6D
330
2
100
AcDbEntity
  8
HB_DIMS
  6
HIDDEN2
 48
0.1
100
AcDbLine
 10
-170.7515869861963
 20
390.7132389450126
 30
0.0
 11
-170.7515869861963
 21
406.1387390052695
 31
0.0
  0
LINE
  5
E6E
330
2
100
AcDbEntity
  8
HB_DIMS
100
AcDbLine
 10
-170.7515869861963
 20
390.7132389450126
 30
0.0
 11
-176.9333500985158
 21
401.9950315721071
 31
0.0
  0
LINE
  5
E6F
330
2
100
AcDbEntity
  8
HB_DIMS
100
AcDbLine
 10
-176.9333500985158
 20
401.9950315721071
 30
0.0
 11
-170.7515869861963
 21
406.1387390052695
 31
0.0
  0
LINE
  5
E70
330
2
100
AcDbEntity
  8
HB_DIMS
  6
HIDDEN2
 48
0.1
100
AcDbLine
 10
-145.167761465811
 20
383.6551604240522
 30
0.0
 11
-145.167761465811
 21
485.0494421019248
 31
0.0
  0
CIRCLE
  5
E71
330
2
100
AcDbEntity
  8
HB_DIMS
 62
     6
100
AcDbCircle
 10
-123.8200196771577
 20
422.9830208552739
 30
0.0
 40
17.45342274086433
  0
TEXT
  5
E72
330
2
100
AcDbEntity
  8
HB_DIMS
100
AcDbText
 10
-133.036999695847
 20
413.6789263848767
 30
0.0
 40
20.0
  1
B
  7
ARIAL
100
AcDbText
  0
LINE
  5
E74
330
2
100
AcDbEntity
  8
HB_PANELS
 62
     8
100
AcDbLine
 10
635.5269248251788
 20
464.84864898886
 30
0.0
 11
635.5269248251788
 21
248.4353384148708
 31
0.0
  0
TEXT
  5
E75
330
2
100
AcDbEntity
  8
HB_DIMS
100
AcDbText
 10
636.7956712275918
 20
174.108214677457
 30
0.0
 40
20.0
  1
A
  7
ARIAL
100
AcDbText
  0
CIRCLE
  5
E76
330
2
100
AcDbEntity
  8
HB_DIMS
 62
     6
100
AcDbCircle
 10
645.4157797565057
 20
182.2336497281649
 30
0.0
 40
17.45342274086433
  0
LINE
  5
E77
330
2
100
AcDbEntity
  8
HB_DIMS
  6
HIDDEN2
 48
0.1
100
AcDbLine
 10
617.5365895851719
 20
153.5563187481893
 30
0.0
 11
617.5365895851719
 21
254.950600426062
 31
0.0
  0
LINE
  5
E78
330
2
100
AcDbEntity
  8
HB_DIMS
  6
HIDDEN2
 48
0.1
100
AcDbLine
 10
617.5365895851719
 20
254.950600426062
 30
0.0
 11
591.9527640647865
 21
269.7214289771655
 31
0.0
  0
LINE
  5
E79
330
2
100
AcDbEntity
  8
HB_DIMS
  6
HIDDEN2
 48
0.1
100
AcDbLine
 10
591.9527640647865
 20
262.008678947037
 30
0.0
 11
591.9527640647865
 21
277.4341790072794
 31
0.0
  0
LINE
  5
E7A
330
2
100
AcDbEntity
  8
HB_DIMS
100
AcDbLine
 10
591.9527640647865
 20
262.008678947037
 30
0.0
 11
585.7710009524671
 21
273.290471574117
 31
0.0
  0
LINE
  5
E7B
330
2
100
AcDbEntity
  8
HB_DIMS
100
AcDbLine
 10
585.7710009524671
 20
273.290471574117
 30
0.0
 11
591.9527640647865
 21
277.4341790072794
 31
0.0
  0
LINE
  5
E7C
330
2
100
AcDbEntity
  8
HB_DIMS
100
AcDbLine
 10
585.7710009524671
 20
171.8961898962443
 30
0.0
 11
591.9527640647865
 21
176.0398973294068
 31
0.0
  0
LINE
  5
E7D
330
2
100
AcDbEntity
  8
HB_DIMS
100
AcDbLine
 10
591.9527640647865
 20
160.6143972691498
 30
0.0
 11
585.7710009524671
 21
171.8961898962443
 31
0.0
  0
LINE
  5
E7E
330
2
100
AcDbEntity
  8
HB_DIMS
  6
HIDDEN2
 48
0.1
100
AcDbLine
 10
591.9527640647865
 20
160.6143972691498
 30
0.0
 11
591.9527640647865
 21
176.0398973294068
 31
0.0
  0
LINE
  5
E7F
330
2
100
AcDbEntity
  8
HB_DIMS
  6
HIDDEN2
 48
0.1
100
AcDbLine
 10
617.5365895851719
 20
153.5563187481893
 30
0.0
 11
591.9527640647865
 21
168.3271472992928
 31
0.0
  0
CIRCLE
  5
E80
330
2
100
AcDbEntity
  8
HB_DIMS
 62
     6
100
AcDbCircle
 10
645.4157797565057
 20
479.2303218233573
 30
0.0
 40
17.45342274086433
  0
TEXT
  5
E81
330
2
100
AcDbEntity
  8
HB_DIMS
100
AcDbText
 10
635.9239561811119
 20
469.3934493099077
 30
0.0
 40
20.0
  1
C
  7
ARIAL
100
AcDbText
  0
LINE
  5
E82
330
2
100
AcDbEntity
  8
HB_DIMS
  6
HIDDEN2
 48
0.1
100
AcDbLine
 10
617.5365895851719
 20
450.5529908433818
 30
0.0
 11
591.9527640647865
 21
465.3238193944853
 31
0.0
  0
LINE
  5
E83
330
2
100
AcDbEntity
  8
HB_DIMS
  6
HIDDEN2
 48
0.1
100
AcDbLine
 10
591.9527640647865
 20
457.6110693643422
 30
0.0
 11
591.9527640647865
 21
473.0365694245993
 31
0.0
  0
LINE
  5
E84
330
2
100
AcDbEntity
  8
HB_DIMS
100
AcDbLine
 10
591.9527640647865
 20
457.6110693643422
 30
0.0
 11
585.7710009524671
 21
468.8928619914368
 31
0.0
  0
LINE
  5
E85
330
2
100
AcDbEntity
  8
HB_DIMS
100
AcDbLine
 10
585.7710009524671
 20
468.8928619914368
 30
0.0
 11
591.9527640647865
 21
473.0365694245993
 31
0.0
  0
LINE
  5
E86
330
2
100
AcDbEntity
  8
HB_DIMS
100
AcDbLine
 10
585.7710009524671
 20
570.2871436693094
 30
0.0
 11
591.9527640647865
 21
574.4308511024719
 31
0.0
  0
LINE
  5
E87
330
2
100
AcDbEntity
  8
HB_DIMS
100
AcDbLine
 10
591.9527640647865
 20
559.0053510422294
 30
0.0
 11
585.7710009524671
 21
570.2871436693094
 31
0.0
  0
LINE
  5
E88
330
2
100
AcDbEntity
  8
HB_DIMS
  6
HIDDEN2
 48
0.1
100
AcDbLine
 10
591.9527640647865
 20
559.0053510422294
 30
0.0
 11
591.9527640647865
 21
574.4308511024719
 31
0.0
  0
LINE
  5
E89
330
2
100
AcDbEntity
  8
HB_DIMS
  6
HIDDEN2
 48
0.1
100
AcDbLine
 10
617.5365895851719
 20
551.9472725212544
 30
0.0
 11
591.9527640647865
 21
566.7181010723579
 31
0.0
  0
LINE
  5
E8A
330
2
100
AcDbEntity
  8
HB_DIMS
  6
HIDDEN2
 48
0.1
100
AcDbLine
 10
617.5365895851719
 20
450.5529908433818
 30
0.0
 11
617.5365895851719
 21
551.9472725212544
 31
0.0
  0
LINE
  5
E8B
330
2
100
AcDbEntity
  8
HB_PANELS
  6
HIDDEN
 62
     8
 48
0.05
100
AcDbLine
 10
749.1927590719256
 20
595.3103384149078
 30
0.0
 11
749.1927590719256
 21
576.5603384148932
 31
0.0
  0
LINE
  5
E8D
330
2
100
AcDbEntity
  8
HB_PANELS
  6
HIDDEN
 62
     8
 48
0.05
100
AcDbLine
 10
440.6712089736902
 20
398.4353384148708
 30
0.0
 11
749.1927590719256
 21
576.5603384148972
 31
0.0
  0
LINE
  5
E8E
330
2
100
AcDbEntity
  8
HB_PANELS
  6
HIDDEN
 62
     8
 48
0.05
100
AcDbLine
 10
440.6712089736902
 20
417.1853384148853
 30
0.0
 11
749.1927590719256
 21
595.3103384149119
 31
0.0
  0
CIRCLE
  5
E8F
330
2
100
AcDbEntity
  8
HB_DIMS
 62
     6
100
AcDbCircle
 10
-609.0054057393208
 20
551.599148927402
 30
0.0
 40
17.45342274086433
  0
TEXT
  5
E90
330
2
100
AcDbEntity
  8
HB_DIMS
100
AcDbText
 10
-618.6363906092301
 20
542.2108989601692
 30
0.0
 40
20.0
  1
E
  7
ARIAL
100
AcDbText
  0
LINE
  5
E91
330
2
100
AcDbEntity
  8
HB_DIMS
  6
HIDDEN
100
AcDbLine
 10
-559.9109052595158
 20
470.4927007501973
 30
0.0
 11
-559.9109052595158
 21
485.9182008104544
 31
0.0
  0
LINE
  5
E92
330
2
100
AcDbEntity
  8
HB_DIMS
100
AcDbLine
 10
-553.2314678003822
 20
482.0618257953902
 30
0.0
 11
-559.9109052595158
 21
485.9182008104544
 31
0.0
  0
LINE
  5
E93
330
2
100
AcDbEntity
  8
HB_DIMS
100
AcDbLine
 10
-553.2314678003822
 20
482.0618257953902
 30
0.0
 11
-559.9109052595158
 21
470.4927007501973
 31
0.0
  0
LINE
  5
E94
330
2
100
AcDbEntity
  8
HB_DIMS
  6
HIDDEN2
 48
0.1
100
AcDbLine
 10
-583.8892800205358
 20
464.3615296573261
 30
0.0
 11
-559.9109052595158
 21
478.2054507803259
 31
0.0
  0
LINE
  5
E95
330
2
100
AcDbEntity
  8
HB_DIMS
  6
HIDDEN2
 48
0.1
100
AcDbLine
 10
-583.8892800205358
 20
464.3615296573261
 30
0.0
 11
-583.8892800205358
 21
565.7558113351988
 31
0.0
  0
LINE
  5
E96
330
2
100
AcDbEntity
  8
HB_DIMS
  6
HIDDEN2
 48
0.1
100
AcDbLine
 10
-583.8892800205358
 20
565.7558113351988
 30
0.0
 11
-559.9109052595158
 21
579.5997324581986
 31
0.0
  0
LINE
  5
E97
330
2
100
AcDbEntity
  8
HB_DIMS
100
AcDbLine
 10
-553.2314678003822
 20
583.4561074732627
 30
0.0
 11
-559.9109052595158
 21
571.88698242807
 31
0.0
  0
LINE
  5
E98
330
2
100
AcDbEntity
  8
HB_DIMS
100
AcDbLine
 10
-553.2314678003822
 20
583.4561074732627
 30
0.0
 11
-559.9109052595158
 21
587.312482488327
 31
0.0
  0
LINE
  5
E99
330
2
100
AcDbEntity
  8
HB_DIMS
  6
HIDDEN
100
AcDbLine
 10
-559.9109052595158
 20
571.88698242807
 30
0.0
 11
-559.9109052595158
 21
587.312482488327
 31
0.0
  0
TEXT
  5
E9A
330
2
100
AcDbEntity
  8
HB_DIMS
100
AcDbText
 10
-514.8327228069938
 20
655.6353468055676
 30
0.0
 40
20.0
  1
F
  7
ARIAL
100
AcDbText
  0
CIRCLE
  5
E9B
330
2
100
AcDbEntity
  8
HB_DIMS
 62
     6
100
AcDbCircle
 10
-505.9924567613525
 20
665.2662761375613
 30
0.0
 40
17.45342274086433
  0
LINE
  5
E9C
330
2
100
AcDbEntity
  8
HB_DIMS
  6
HIDDEN
100
AcDbLine
 10
-454.2865076139969
 20
738.4677915107968
 30
0.0
 11
-454.2865076139969
 21
753.8932915710538
 31
0.0
  0
LINE
  5
E9D
330
2
100
AcDbEntity
  8
HB_DIMS
100
AcDbLine
 10
-447.6070701548633
 20
750.0369165559895
 30
0.0
 11
-454.2865076139969
 21
753.8932915710538
 31
0.0
  0
LINE
  5
E9E
330
2
100
AcDbEntity
  8
HB_DIMS
100
AcDbLine
 10
-447.6070701548633
 20
750.0369165559895
 30
0.0
 11
-454.2865076139969
 21
738.4677915107968
 31
0.0
  0
LINE
  5
E9F
330
2
100
AcDbEntity
  8
HB_DIMS
  6
HIDDEN2
 48
0.1
100
AcDbLine
 10
-478.2648823750169
 20
732.3366204179255
 30
0.0
 11
-454.2865076139969
 21
746.1805415409253
 31
0.0
  0
LINE
  5
EA0
330
2
100
AcDbEntity
  8
HB_DIMS
  6
HIDDEN2
 48
0.1
100
AcDbLine
 10
-478.2648823750169
 20
630.9423387400529
 30
0.0
 11
-478.2648823750169
 21
732.3366204179255
 31
0.0
  0
LINE
  5
EA1
330
2
100
AcDbEntity
  8
HB_DIMS
  6
HIDDEN2
 48
0.1
100
AcDbLine
 10
-478.2648823750169
 20
630.9423387400529
 30
0.0
 11
-454.2865076139969
 21
644.7862598630527
 31
0.0
  0
LINE
  5
EA2
330
2
100
AcDbEntity
  8
HB_DIMS
100
AcDbLine
 10
-447.6070701548633
 20
648.6426348781169
 30
0.0
 11
-454.2865076139969
 21
637.0735098329241
 31
0.0
  0
LINE
  5
EA3
330
2
100
AcDbEntity
  8
HB_DIMS
100
AcDbLine
 10
-447.6070701548633
 20
648.6426348781169
 30
0.0
 11
-454.2865076139969
 21
652.4990098931811
 31
0.0
  0
LINE
  5
EA4
330
2
100
AcDbEntity
  8
HB_DIMS
  6
HIDDEN
100
AcDbLine
 10
-454.2865076139969
 20
637.0735098329241
 30
0.0
 11
-454.2865076139969
 21
652.4990098931811
 31
0.0
  0
CIRCLE
  5
EA5
330
2
100
AcDbEntity
  8
HB_DIMS
 62
     6
100
AcDbCircle
 10
-621.1646631244584
 20
226.9836601698626
 30
0.0
 40
17.45342274086433
  0
TEXT
  5
EA6
330
2
100
AcDbEntity
  8
HB_DIMS
100
AcDbText
 10
-632.8899257771554
 20
217.8227022491046
 30
0.0
 40
20.0
  1
E
  7
ARIAL
100
AcDbText
  0
LINE
  5
EA7
330
2
100
AcDbEntity
  8
HB_DIMS
  6
HIDDEN
100
AcDbLine
 10
-569.4587139771028
 20
198.7908938652253
 30
0.0
 11
-569.4587139771028
 21
214.2163939254824
 31
0.0
  0
LINE
  5
EA8
330
2
100
AcDbEntity
  8
HB_DIMS
100
AcDbLine
 10
-562.7792765179692
 20
210.3600189104181
 30
0.0
 11
-569.4587139771028
 21
214.2163939254824
 31
0.0
  0
LINE
  5
EA9
330
2
100
AcDbEntity
  8
HB_DIMS
100
AcDbLine
 10
-562.7792765179692
 20
210.3600189104181
 30
0.0
 11
-569.4587139771028
 21
198.7908938652253
 31
0.0
  0
LINE
  5
EAA
330
2
100
AcDbEntity
  8
HB_DIMS
  6
HIDDEN2
 48
0.1
100
AcDbLine
 10
-593.4370887381228
 20
192.6597227723541
 30
0.0
 11
-569.4587139771028
 21
206.5036438953539
 31
0.0
  0
LINE
  5
EAB
330
2
100
AcDbEntity
  8
HB_DIMS
  6
HIDDEN2
 48
0.1
100
AcDbLine
 10
-593.4370887381228
 20
192.6597227723541
 30
0.0
 11
-593.4370887381228
 21
294.0540044502268
 31
0.0
  0
LINE
  5
EAC
330
2
100
AcDbEntity
  8
HB_DIMS
  6
HIDDEN2
 48
0.1
100
AcDbLine
 10
-593.4370887381228
 20
294.0540044502268
 30
0.0
 11
-569.4587139771028
 21
307.8979255732265
 31
0.0
  0
LINE
  5
EAD
330
2
100
AcDbEntity
  8
HB_DIMS
100
AcDbLine
 10
-562.7792765179692
 20
311.7543005882908
 30
0.0
 11
-569.4587139771028
 21
300.185175543098
 31
0.0
  0
LINE
  5
EAE
330
2
100
AcDbEntity
  8
HB_DIMS
100
AcDbLine
 10
-562.7792765179692
 20
311.7543005882908
 30
0.0
 11
-569.4587139771028
 21
315.6106756033551
 31
0.0
  0
LINE
  5
EAF
330
2
100
AcDbEntity
  8
HB_DIMS
  6
HIDDEN
100
AcDbLine
 10
-569.4587139771028
 20
300.185175543098
 30
0.0
 11
-569.4587139771028
 21
315.6106756033551
 31
0.0
  0
LINE
  5
EB0
330
2
100
AcDbEntity
  8
HB_PANELS
 62
     8
100
AcDbLine
 10
150.9508956769423
 20
1021.955439286452
 30
0.0
 11
140.1255781296349
 21
1015.705439286452
 31
0.0
  0
LINE
  5
EB1
330
2
100
AcDbEntity
  8
HB_PANELS
 62
     8
100
AcDbLine
 10
443.2344694541898
 20
853.205439286452
 30
0.0
 11
432.4091519068824
 21
846.955439286452
 31
0.0
  0
LINE
  5
EB2
330
2
100
AcDbEntity
  8
HB_PANELS
 62
     8
100
AcDbLine
 10
529.8370098326341
 20
803.2054392864665
 30
0.0
 11
443.2344694541898
 21
853.205439286452
 31
0.0
  0
LINE
  5
EB3
330
2
100
AcDbEntity
  8
HB_PANELS
 62
     8
100
AcDbLine
 10
443.2344694541898
 20
853.205439286452
 30
0.0
 11
443.2344694541971
 21
978.205439286452
 31
0.0
  0
LINE
  5
EB4
330
2
100
AcDbEntity
  8
HB_PANELS
 62
     8
100
AcDbLine
 10
237.5534360553793
 20
971.955439286452
 30
0.0
 11
150.9508956769423
 21
1021.955439286452
 31
0.0
  0
LINE
  5
EB5
330
2
100
AcDbEntity
  8
HB_PANELS
 62
     8
100
AcDbLine
 10
150.9508956769423
 20
1021.955439286452
 30
0.0
 11
150.9508956769423
 21
1146.955439286452
 31
0.0
  0
LINE
  5
EB6
330
2
100
AcDbEntity
  8
HB_PANELS
 62
     8
100
AcDbLine
 10
248.3787536026866
 20
1090.705439286466
 30
0.0
 11
129.3002605823276
 21
1159.455439286452
 31
0.0
  0
LINE
  5
EB7
330
2
100
AcDbEntity
  8
HB_PANELS
 62
     8
100
AcDbLine
 10
540.6623273799413
 20
921.955439286452
 30
0.0
 11
540.6623273799413
 21
934.455439286452
 31
0.0
  0
LINE
  5
EB8
330
2
100
AcDbEntity
  8
HB_PANELS
 62
     8
100
AcDbLine
 10
421.5838343595824
 20
990.705439286452
 30
0.0
 11
421.5838343595824
 21
1003.205439286452
 31
0.0
  0
LINE
  5
EB9
330
2
100
AcDbEntity
  8
HB_PANELS
 62
     8
100
AcDbLine
 10
129.3002605823276
 20
1159.455439286452
 30
0.0
 11
129.3002605823349
 21
1171.955439286452
 31
0.0
  0
LINE
  5
EBA
330
2
100
AcDbEntity
  8
HB_PANELS
 62
     8
100
AcDbLine
 10
248.3787536026866
 20
1090.705439286466
 30
0.0
 11
248.3787536026866
 21
1103.205439286452
 31
0.0
  0
LINE
  5
EBB
330
2
100
AcDbEntity
  8
HB_PANELS
 62
     8
100
AcDbLine
 10
230.5196853583429
 20
926.0163771447988
 30
0.0
 11
140.1255781296349
 21
978.205439286452
 31
0.0
  0
LINE
  5
EBC
330
2
100
AcDbEntity
  8
HB_PANELS
 62
     8
100
AcDbLine
 10
237.5534360553793
 20
959.455439286452
 30
0.0
 11
140.1255781296349
 21
1015.705439286452
 31
0.0
  0
LINE
  5
EBD
330
2
100
AcDbEntity
  8
HB_PANELS
 62
     8
100
AcDbLine
 10
529.8370098326341
 20
790.705439286452
 30
0.0
 11
432.4091519068824
 21
846.955439286452
 31
0.0
  0
LINE
  5
EBE
330
2
100
AcDbEntity
  8
HB_PANELS
 62
     8
100
AcDbLine
 10
529.8370098326341
 20
753.205439286452
 30
0.0
 11
432.4091519068824
 21
809.455439286452
 31
0.0
  0
LINE
  5
EBF
330
2
100
AcDbEntity
  8
HB_PANELS
 62
     8
100
AcDbLine
 10
540.6623273799413
 20
921.955439286452
 30
0.0
 11
421.5838343595824
 21
990.705439286452
 31
0.0
  0
LINE
  5
EC0
330
2
100
AcDbEntity
  8
HB_PANELS
 62
     8
100
AcDbLine
 10
-87.206090363783
 20
1109.455439286437
 30
0.0
 11
-76.38077281647565
 21
1103.205439286437
 31
0.0
  0
LINE
  5
EC1
330
2
100
AcDbEntity
  8
HB_PANELS
 62
     8
100
AcDbLine
 10
-200.8719246104884
 20
1043.830439286437
 30
0.0
 11
-190.046607063181
 21
1037.580439286437
 31
0.0
  0
LINE
  5
EC2
330
2
100
AcDbEntity
  8
HB_PANELS
 62
     8
100
AcDbLine
 10
-379.4896641410305
 20
903.2054392864374
 30
0.0
 11
-368.6643465937232
 21
896.9554392864374
 31
0.0
  0
LINE
  5
EC3
330
2
100
AcDbEntity
  8
HB_PANELS
 62
     8
100
AcDbLine
 10
-87.206090363783
 20
1109.455439286437
 30
0.0
 11
-87.206090363783
 21
1196.955439286437
 31
0.0
  0
LINE
  5
EC4
330
2
100
AcDbEntity
  8
HB_PANELS
 62
     8
100
AcDbLine
 10
-141.3326781003052
 20
1078.205439286437
 30
0.0
 11
-87.206090363783
 21
1109.455439286437
 31
0.0
  0
LINE
  5
EC5
330
2
100
AcDbEntity
  8
HB_PANELS
 62
     8
100
AcDbLine
 10
-200.8719246104884
 20
1043.830439286437
 30
0.0
 11
-200.8719246104884
 21
1131.330439286437
 31
0.0
  0
LINE
  5
EC6
330
2
100
AcDbEntity
  8
HB_PANELS
 62
     8
100
AcDbLine
 10
-238.7605360260568
 20
1021.955439286437
 30
0.0
 11
-200.8719246104884
 21
1043.830439286437
 31
0.0
  0
LINE
  5
EC7
330
2
100
AcDbEntity
  8
HB_PANELS
 62
     8
100
AcDbLine
 10
-379.4896641410305
 20
903.2054392864374
 30
0.0
 11
-379.4896641410305
 21
1028.205439286437
 31
0.0
  0
LINE
  5
EC8
330
2
100
AcDbEntity
  8
HB_PANELS
 62
     8
100
AcDbLine
 10
-466.0922045194747
 20
853.2054392864374
 30
0.0
 11
-379.4896641410305
 21
903.2054392864374
 31
0.0
  0
LINE
  5
EC9
330
2
100
AcDbEntity
  8
HB_PANELS
 62
     8
100
AcDbLine
 10
-357.8390290464158
 20
1040.705439286437
 30
0.0
 11
-357.8390290464231
 21
1053.205439286437
 31
0.0
  0
LINE
  5
ECA
330
2
100
AcDbEntity
  8
HB_PANELS
 62
     8
100
AcDbLine
 10
-476.9175220667821
 20
971.9554392864374
 30
0.0
 11
-476.9175220667821
 21
984.4554392864374
 31
0.0
  0
LINE
  5
ECB
330
2
100
AcDbEntity
  8
HB_PANELS
 62
     8
100
AcDbLine
 10
-476.9175220667821
 20
971.9554392864374
 30
0.0
 11
-357.8390290464158
 21
1040.705439286437
 31
0.0
  0
LINE
  5
ECC
330
2
100
AcDbEntity
  8
HB_PANELS
 62
     8
100
AcDbLine
 10
-249.5858535733642
 20
1103.205439286437
 30
0.0
 11
-179.2212895158809
 21
1143.830439286437
 31
0.0
  0
LINE
  5
ECD
330
2
100
AcDbEntity
  8
HB_PANELS
 62
     8
100
AcDbLine
 10
-179.2212895158809
 20
1143.830439286437
 30
0.0
 11
-179.2212895158809
 21
1156.330439286437
 31
0.0
  0
LINE
  5
ECE
330
2
100
AcDbEntity
  8
HB_PANELS
 62
     8
100
AcDbLine
 10
-249.5858535733642
 20
1103.205439286437
 30
0.0
 11
-249.5858535733642
 21
1115.705439286437
 31
0.0
  0
LINE
  5
ECF
330
2
100
AcDbEntity
  8
HB_PANELS
 62
     8
100
AcDbLine
 10
-152.1579956476125
 20
1159.455439286437
 30
0.0
 11
-152.1579956476125
 21
1171.955439286437
 31
0.0
  0
LINE
  5
ED0
330
2
100
AcDbEntity
  8
HB_PANELS
 62
     8
100
AcDbLine
 10
-65.5554552691683
 20
1209.455439286437
 30
0.0
 11
-65.5554552691683
 21
1221.955439286437
 31
0.0
  0
LINE
  5
ED1
330
2
100
AcDbEntity
  8
HB_PANELS
 62
     8
100
AcDbLine
 10
-141.3326781003052
 20
1065.705439286437
 30
0.0
 11
-76.38077281647565
 21
1103.205439286437
 31
0.0
  0
LINE
  5
ED2
330
2
100
AcDbEntity
  8
HB_PANELS
 62
     8
100
AcDbLine
 10
-238.7605360260568
 20
1009.455439286437
 30
0.0
 11
-190.046607063181
 21
1037.580439286437
 31
0.0
  0
LINE
  5
ED3
330
2
100
AcDbEntity
  8
HB_PANELS
 62
     8
100
AcDbLine
 10
-141.3326781003052
 20
990.7054392864374
 30
0.0
 11
-76.38077281647565
 21
1028.205439286437
 31
0.0
  0
LINE
  5
ED4
330
2
100
AcDbEntity
  8
HB_PANELS
 62
     8
100
AcDbLine
 10
-141.3326781003052
 20
1028.205439286437
 30
0.0
 11
-76.38077281647565
 21
1065.705439286437
 31
0.0
  0
LINE
  5
ED5
330
2
100
AcDbEntity
  8
HB_PANELS
 62
     8
100
AcDbLine
 10
-238.7605360260568
 20
934.455439286452
 30
0.0
 11
-190.046607063181
 21
962.580439286452
 31
0.0
  0
LINE
  5
ED6
330
2
100
AcDbEntity
  8
HB_PANELS
 62
     8
100
AcDbLine
 10
-238.7605360260568
 20
971.9554392864374
 30
0.0
 11
-190.046607063181
 21
1000.080439286437
 31
0.0
  0
LINE
  5
ED7
330
2
100
AcDbEntity
  8
HB_PANELS
 62
     8
100
AcDbLine
 10
-141.3326781003052
 20
959.4554392864374
 30
0.0
 11
-141.3326781003052
 21
1165.705439286437
 31
0.0
  0
LINE
  5
ED8
330
2
100
AcDbEntity
  8
HB_PANELS
 62
     8
100
AcDbLine
 10
-466.0922045194747
 20
840.7054392864374
 30
0.0
 11
-368.6643465937232
 21
896.9554392864374
 31
0.0
  0
LINE
  5
ED9
330
2
100
AcDbEntity
  8
HB_PANELS
 62
     8
100
AcDbLine
 10
-466.0922045194747
 20
803.2054392864374
 30
0.0
 11
-368.6643465937232
 21
859.4554392864374
 31
0.0
  0
LINE
  5
EDA
330
2
100
AcDbEntity
  8
HB_PANELS
 62
     8
100
AcDbLine
 10
-152.1579956476125
 20
1159.455439286437
 30
0.0
 11
-65.5554552691683
 21
1209.455439286437
 31
0.0
  0
LINE
  5
EDB
330
2
100
AcDbEntity
  8
HB_PANELS
  6
HIDDEN
 62
     8
 48
0.05
100
AcDbLine
 10
749.1927590719256
 20
595.3103384149078
 30
0.0
 11
532.6864081257954
 21
720.3103384148757
 31
0.0
  0
LINE
  5
EDD
330
2
100
AcDbEntity
  8
HB_PANELS
 62
     8
100
AcDbLine
 10
627.2648677583856
 20
903.205439286452
 30
0.0
 11
627.2648677583856
 21
909.4554392864374
 31
0.0
  0
LINE
  5
EDE
330
2
100
AcDbEntity
  8
HB_PANELS
 62
     8
100
AcDbLine
 10
594.7889151164636
 20
921.955439286452
 30
0.0
 11
594.7889151164636
 21
928.2054392864374
 31
0.0
  0
LINE
  5
EDF
330
2
100
AcDbEntity
  8
HB_PANELS
 62
     8
100
AcDbLine
 10
562.3129624745488
 20
940.7054392864665
 30
0.0
 11
562.3129624745488
 21
946.9554392864374
 31
0.0
  0
LINE
  5
EE0
330
2
100
AcDbEntity
  8
HB_PANELS
 62
     8
100
AcDbLine
 10
540.6623273799413
 20
953.205439286452
 30
0.0
 11
540.6623273799413
 21
959.455439286452
 31
0.0
  0
LINE
  5
EE1
330
2
100
AcDbEntity
  8
HB_PANELS
 62
     8
100
AcDbLine
 10
421.5838343595751
 20
1021.955439286452
 30
0.0
 11
421.5838343595751
 21
1028.205439286452
 31
0.0
  0
LINE
  5
EE2
330
2
100
AcDbEntity
  8
HB_PANELS
 62
     8
100
AcDbLine
 10
399.9331992649677
 20
1034.455439286452
 30
0.0
 11
399.9331992649677
 21
1040.705439286452
 31
0.0
  0
LINE
  5
EE3
330
2
100
AcDbEntity
  8
HB_PANELS
 62
     8
100
AcDbLine
 10
367.4572466230529
 20
1053.205439286452
 30
0.0
 11
367.4572466230529
 21
1059.455439286452
 31
0.0
  0
LINE
  5
EE4
330
2
100
AcDbEntity
  8
HB_PANELS
 62
     8
100
AcDbLine
 10
334.9812939811309
 20
1071.955439286452
 30
0.0
 11
334.9812939811309
 21
1078.205439286452
 31
0.0
  0
LINE
  5
EE5
330
2
100
AcDbEntity
  8
HB_PANELS
 62
     8
100
AcDbLine
 10
302.5053413392161
 20
1090.705439286452
 30
0.0
 11
302.5053413392161
 21
1096.955439286452
 31
0.0
  0
LINE
  5
EE6
330
2
100
AcDbEntity
  8
HB_PANELS
 62
     8
100
AcDbLine
 10
270.0293886973013
 20
1109.455439286452
 30
0.0
 11
270.0293886973013
 21
1115.705439286452
 31
0.0
  0
LINE
  5
EE7
330
2
100
AcDbEntity
  8
HB_PANELS
 62
     8
100
AcDbLine
 10
248.3787536026866
 20
1121.955439286452
 30
0.0
 11
248.3787536026866
 21
1128.205439286452
 31
0.0
  0
LINE
  5
EE8
330
2
100
AcDbEntity
  8
HB_PANELS
 62
     8
100
AcDbLine
 10
129.3002605823349
 20
1190.705439286452
 30
0.0
 11
129.3002605823349
 21
1196.955439286452
 31
0.0
  0
LINE
  5
EE9
330
2
100
AcDbEntity
  8
HB_PANELS
 62
     8
100
AcDbLine
 10
107.6496254877202
 20
1203.205439286452
 30
0.0
 11
107.6496254877202
 21
1209.455439286452
 31
0.0
  0
LINE
  5
EEA
330
2
100
AcDbEntity
  8
HB_PANELS
 62
     8
100
AcDbLine
 10
75.17367284579814
 20
1221.955439286452
 30
0.0
 11
75.17367284580541
 21
1228.205439286452
 31
0.0
  0
LINE
  5
EEB
330
2
100
AcDbEntity
  8
HB_PANELS
 62
     8
100
AcDbLine
 10
42.69772020389064
 20
1240.705439286452
 30
0.0
 11
42.69772020389064
 21
1246.955439286452
 31
0.0
  0
LINE
  5
EEC
330
2
100
AcDbEntity
  8
HB_PANELS
 62
     8
100
AcDbLine
 10
10.22176756196859
 20
1259.455439286437
 30
0.0
 11
10.22176756196859
 21
1265.705439286437
 31
0.0
  0
LINE
  5
EED
330
2
100
AcDbEntity
  8
HB_PANELS
 62
     8
100
AcDbLine
 10
-11.42886753263883
 20
1271.955439286437
 30
0.0
 11
-11.42886753263883
 21
1278.205439286437
 31
0.0
  0
LINE
  5
EEE
330
2
100
AcDbEntity
  8
HB_PANELS
 62
     8
100
AcDbLine
 10
659.7408204003004
 20
884.4554392864665
 30
0.0
 11
659.7408204003004
 21
890.7054392864374
 31
0.0
  0
LINE
  5
EEF
330
2
100
AcDbEntity
  8
HB_PANELS
 62
     8
100
AcDbLine
 10
692.2167730422152
 20
865.7054392864665
 30
0.0
 11
692.2167730422152
 21
871.955439286452
 31
0.0
  0
LINE
  5
EF2
330
2
100
AcDbEntity
  8
HB_PANELS
100
AcDbLine
 10
-293.3944595278008
 20
627.2844045625388
 30
0.0
 11
111.4411923379717
 21
861.0163771447966
 31
0.0
  0
LINE
  5
EF6
330
2
100
AcDbEntity
  8
HB_PANELS
100
AcDbLine
 10
-705.3004979114703
 20
865.0984667041775
 30
0.0
 11
-293.3944595278008
 21
627.2844045625388
 31
0.0
  0
LINE
  5
EF7
330
2
100
AcDbEntity
  8
HB_PANELS
 62
     8
100
AcDbLine
 10
-693.4238730128854
 20
878.2054392864374
 30
0.0
 11
-693.4238730128927
 21
884.455439286452
 31
0.0
  0
LINE
  5
EF8
330
2
100
AcDbEntity
  8
HB_PANELS
 62
     8
100
AcDbLine
 10
-660.9479203709707
 20
896.9554392864374
 30
0.0
 11
-660.9479203709707
 21
903.205439286452
 31
0.0
  0
LINE
  5
EF9
330
2
100
AcDbEntity
  8
HB_PANELS
 62
     8
100
AcDbLine
 10
-628.4719677290559
 20
915.7054392864374
 30
0.0
 11
-628.4719677290559
 21
921.9554392864374
 31
0.0
  0
LINE
  5
EFA
330
2
100
AcDbEntity
  8
HB_PANELS
 62
     8
100
AcDbLine
 10
-595.9960150871411
 20
934.4554392864374
 30
0.0
 11
-595.9960150871411
 21
940.705439286452
 31
0.0
  0
LINE
  5
EFB
330
2
100
AcDbEntity
  8
HB_PANELS
 62
     8
100
AcDbLine
 10
-563.520062445219
 20
953.2054392864374
 30
0.0
 11
-563.520062445219
 21
959.4554392864374
 31
0.0
  0
LINE
  5
EFC
330
2
100
AcDbEntity
  8
HB_PANELS
 62
     8
100
AcDbLine
 10
-531.0441098033115
 20
971.9554392864374
 30
0.0
 11
-531.0441098033115
 21
978.205439286452
 31
0.0
  0
LINE
  5
EFD
330
2
100
AcDbEntity
  8
HB_PANELS
 62
     8
100
AcDbLine
 10
-498.5681571613895
 20
990.7054392864374
 30
0.0
 11
-498.5681571613895
 21
996.955439286452
 31
0.0
  0
LINE
  5
EFE
330
2
100
AcDbEntity
  8
HB_PANELS
 62
     8
100
AcDbLine
 10
-476.9175220667821
 20
1003.205439286437
 30
0.0
 11
-476.9175220667821
 21
1009.455439286452
 31
0.0
  0
LINE
  5
EFF
330
2
100
AcDbEntity
  8
HB_PANELS
 62
     8
100
AcDbLine
 10
-357.8390290464231
 20
1071.955439286437
 30
0.0
 11
-357.8390290464231
 21
1078.205439286452
 31
0.0
  0
LINE
  5
F00
330
2
100
AcDbEntity
  8
HB_PANELS
 62
     8
100
AcDbLine
 10
-336.1883939518084
 20
1084.455439286437
 30
0.0
 11
-336.1883939518084
 21
1090.705439286452
 31
0.0
  0
LINE
  5
F01
330
2
100
AcDbEntity
  8
HB_PANELS
 62
     8
100
AcDbLine
 10
-303.7124413098863
 20
1103.205439286437
 30
0.0
 11
-303.7124413098863
 21
1109.455439286452
 31
0.0
  0
LINE
  5
F02
330
2
100
AcDbEntity
  8
HB_PANELS
 62
     8
100
AcDbLine
 10
-271.2364886679789
 20
1121.955439286437
 30
0.0
 11
-271.2364886679789
 21
1128.205439286452
 31
0.0
  0
LINE
  5
F03
330
2
100
AcDbEntity
  8
HB_PANELS
 62
     8
100
AcDbLine
 10
-249.5858535733642
 20
1134.455439286437
 30
0.0
 11
-249.5858535733642
 21
1140.705439286437
 31
0.0
  0
LINE
  5
F04
330
2
100
AcDbEntity
  8
HB_PANELS
 62
     8
100
AcDbLine
 10
-179.2212895158736
 20
1175.080439286437
 30
0.0
 11
-179.2212895158736
 21
1181.330439286437
 31
0.0
  0
LINE
  5
F05
330
2
100
AcDbEntity
  8
HB_PANELS
 62
     8
100
AcDbLine
 10
-152.1579956476125
 20
1190.705439286437
 30
0.0
 11
-152.1579956476125
 21
1196.955439286452
 31
0.0
  0
LINE
  5
F06
330
2
100
AcDbEntity
  8
HB_PANELS
 62
     8
100
AcDbLine
 10
-65.5554552691683
 20
1240.705439286437
 30
0.0
 11
-65.5554552691683
 21
1246.955439286452
 31
0.0
  0
LINE
  5
F07
330
2
100
AcDbEntity
  8
HB_PANELS
 62
     8
100
AcDbLine
 10
-43.90482017456088
 20
1253.205439286437
 30
0.0
 11
-43.90482017455361
 21
1259.455439286437
 31
0.0
  0
LINE
  5
F08
330
2
100
AcDbEntity
  8
HB_PANELS
100
AcDbLine
 10
-692.3101168546927
 20
860.0984667041775
 30
0.0
 11
-11.42886753263883
 21
1253.205439286437
 31
0.0
  0
LINE
  5
F09
330
2
100
AcDbEntity
  8
HB_PANELS
100
AcDbLine
 10
-705.3004979114703
 20
865.0984667041775
 30
0.0
 11
-11.42886753263883
 21
1265.705439286437
 31
0.0
  0
LINE
  5
F0A
330
2
100
AcDbEntity
  8
HB_PANELS
100
AcDbLine
 10
718.8818699394381
 20
831.5603384148712
 30
0.0
 11
414.5500836625322
 21
1007.266377144797
 31
0.0
  0
LINE
  5
F0B
330
2
100
AcDbEntity
  8
HB_PANELS
100
AcDbLine
 10
729.7071874867445
 20
837.8103384148715
 30
0.0
 11
-11.42886753263883
 21
1265.705439286437
 31
0.0
  0
LINE
  5
F0C
330
2
100
AcDbEntity
  8
HB_PANELS
100
AcDbLine
 10
738.3674415245986
 20
839.0603384148853
 30
0.0
 11
-11.42886753263883
 21
1271.955439286437
 31
0.0
  0
LINE
  5
F0D
330
2
100
AcDbEntity
  8
HB_PANELS
100
AcDbLine
 10
-713.9607519493075
 20
866.3484667041775
 30
0.0
 11
-11.42886753263883
 21
1271.955439286437
 31
0.0
  0
LINE
  5
F0E
330
2
100
AcDbEntity
  8
HB_PANELS
 62
     8
100
AcDbLine
 10
-693.4238730128854
 20
884.455439286452
 30
0.0
 11
-704.2491905601927
 21
890.705439286452
 31
0.0
  0
LINE
  5
F0F
330
2
100
AcDbEntity
  8
HB_PANELS
 62
     8
100
AcDbLine
 10
-628.4719677290559
 20
823.2414941219321
 30
0.0
 11
-628.4719677290486
 21
896.9554392864374
 31
0.0
  0
LINE
  5
F10
330
2
100
AcDbEntity
  8
HB_PANELS
 62
     8
100
AcDbLine
 10
-660.9479203709707
 20
841.9914941219321
 30
0.0
 11
-660.9479203709707
 21
878.2054392864374
 31
0.0
  0
LINE
  5
F11
330
2
100
AcDbEntity
  8
HB_PANELS
 62
     8
100
AcDbLine
 10
-595.9960150871411
 20
804.4914941219175
 30
0.0
 11
-595.9960150871411
 21
915.7054392864374
 31
0.0
  0
LINE
  5
F12
330
2
100
AcDbEntity
  8
HB_PANELS
 62
     8
100
AcDbLine
 10
-563.520062445219
 20
785.7414941219176
 30
0.0
 11
-563.520062445219
 21
934.4554392864374
 31
0.0
  0
LINE
  5
F13
330
2
100
AcDbEntity
  8
HB_PANELS
 62
     8
100
AcDbLine
 10
-628.4719677290486
 20
921.9554392864374
 30
0.0
 11
-639.2972852763559
 21
928.205439286452
 31
0.0
  0
LINE
  5
F14
330
2
100
AcDbEntity
  8
HB_PANELS
 62
     8
100
AcDbLine
 10
-660.9479203709707
 20
903.205439286452
 30
0.0
 11
-671.773237918278
 21
909.455439286452
 31
0.0
  0
LINE
  5
F15
330
2
100
AcDbEntity
  8
HB_PANELS
 62
     8
100
AcDbLine
 10
-595.9960150871338
 20
940.705439286452
 30
0.0
 11
-606.8213326344412
 21
946.955439286452
 31
0.0
  0
LINE
  5
F16
330
2
100
AcDbEntity
  8
HB_PANELS
 62
     8
100
AcDbLine
 10
-563.520062445219
 20
959.4554392864374
 30
0.0
 11
-574.3453799925264
 21
965.705439286452
 31
0.0
  0
LINE
  5
F17
330
2
100
AcDbEntity
  8
HB_PANELS
 62
     8
100
AcDbLine
 10
-476.9175220667748
 20
1009.455439286452
 30
0.0
 11
-487.7428396140821
 21
1015.705439286452
 31
0.0
  0
LINE
  5
F18
330
2
100
AcDbEntity
  8
HB_PANELS
 62
     8
100
AcDbLine
 10
-466.0922045194747
 20
771.9554392864375
 30
0.0
 11
-466.0922045194747
 21
978.2054392864374
 31
0.0
  0
LINE
  5
F19
330
2
100
AcDbEntity
  8
HB_PANELS
 62
     8
100
AcDbLine
 10
-531.0441098033115
 20
766.9914941219176
 30
0.0
 11
-531.0441098033115
 21
953.2054392864374
 31
0.0
  0
LINE
  5
F1A
330
2
100
AcDbEntity
  8
HB_PANELS
 62
     8
100
AcDbLine
 10
-531.0441098033042
 20
978.205439286452
 30
0.0
 11
-541.8694273506116
 21
984.455439286452
 31
0.0
  0
LINE
  5
F1C
330
2
100
AcDbEntity
  8
HB_PANELS
 62
     8
100
AcDbLine
 10
-498.5681571613822
 20
996.955439286452
 30
0.0
 11
-509.3934747086896
 21
1003.205439286452
 31
0.0
  0
LINE
  5
F1D
330
2
100
AcDbEntity
  8
HB_PANELS
 62
     8
100
AcDbLine
 10
-357.8390290464158
 20
1078.205439286452
 30
0.0
 11
-368.6643465937232
 21
1084.455439286452
 31
0.0
  0
LINE
  5
F1E
330
2
100
AcDbEntity
  8
HB_PANELS
 62
     8
100
AcDbLine
 10
-368.6643465937232
 20
828.205439286452
 30
0.0
 11
-368.6643465937232
 21
1034.455439286437
 31
0.0
  0
LINE
  5
F1F
330
2
100
AcDbEntity
  8
HB_PANELS
 62
     8
100
AcDbLine
 10
-336.1883939518084
 20
846.955439286452
 30
0.0
 11
-336.1883939518084
 21
1065.705439286437
 31
0.0
  0
LINE
  5
F20
330
2
100
AcDbEntity
  8
HB_PANELS
 62
     8
100
AcDbLine
 10
-336.1883939518011
 20
1090.705439286452
 30
0.0
 11
-347.0137114991085
 21
1096.955439286452
 31
0.0
  0
LINE
  5
F21
330
2
100
AcDbEntity
  8
HB_PANELS
 62
     8
100
AcDbLine
 10
-303.7124413098863
 20
865.705439286452
 30
0.0
 11
-303.7124413098863
 21
1084.455439286437
 31
0.0
  0
LINE
  5
F22
330
2
100
AcDbEntity
  8
HB_PANELS
 62
     8
100
AcDbLine
 10
-303.7124413098863
 20
1109.455439286452
 30
0.0
 11
-314.5377588571937
 21
1115.705439286452
 31
0.0
  0
LINE
  5
F23
330
2
100
AcDbEntity
  8
HB_PANELS
 62
     8
100
AcDbLine
 10
-179.2212895158663
 20
1181.330439286437
 30
0.0
 11
-190.0466070631737
 21
1187.580439286452
 31
0.0
  0
LINE
  5
F24
330
2
100
AcDbEntity
  8
HB_PANELS
 62
     8
100
AcDbLine
 10
-190.046607063181
 20
931.3304392864374
 30
0.0
 11
-190.046607063181
 21
1137.580439286437
 31
0.0
  0
LINE
  5
F26
330
2
100
AcDbEntity
  8
HB_PANELS
 62
     8
100
AcDbLine
 10
-271.2364886679716
 20
1128.205439286452
 30
0.0
 11
-282.0618062152789
 21
1134.455439286452
 31
0.0
  0
LINE
  5
F27
330
2
100
AcDbEntity
  8
HB_PANELS
 62
     8
100
AcDbLine
 10
-238.7605360260568
 20
903.2054392864374
 30
0.0
 11
-238.7605360260568
 21
1109.455439286437
 31
0.0
  0
LINE
  5
F28
330
2
100
AcDbEntity
  8
HB_PANELS
 62
     8
100
AcDbLine
 10
-249.5858535733569
 20
1140.705439286437
 30
0.0
 11
-260.4111711206642
 21
1146.955439286452
 31
0.0
  0
LINE
  5
F29
330
2
100
AcDbEntity
  8
HB_PANELS
 62
     8
100
AcDbLine
 10
-152.1579956476125
 20
1196.955439286452
 30
0.0
 11
-162.9833131949199
 21
1203.205439286452
 31
0.0
  0
LINE
  5
F2A
330
2
100
AcDbEntity
  8
HB_PANELS
 62
     8
100
AcDbLine
 10
-76.38077281647565
 20
996.955439286452
 30
0.0
 11
-76.38077281647565
 21
1203.205439286437
 31
0.0
  0
LINE
  5
F2B
330
2
100
AcDbEntity
  8
HB_PANELS
 62
     8
100
AcDbLine
 10
-65.5554552691683
 20
1246.955439286452
 30
0.0
 11
-76.38077281647565
 21
1253.205439286452
 31
0.0
  0
LINE
  5
F2C
330
2
100
AcDbEntity
  8
HB_PANELS
 62
     8
100
AcDbLine
 10
-43.90482017455361
 20
1015.705439286437
 30
0.0
 11
-43.90482017456088
 21
1234.455439286437
 31
0.0
  0
LINE
  5
F2D
330
2
100
AcDbEntity
  8
HB_PANELS
 62
     8
100
AcDbLine
 10
-43.90482017455361
 20
1259.455439286437
 30
0.0
 11
-54.73013772186096
 21
1265.705439286452
 31
0.0
  0
LINE
  5
F2E
330
2
100
AcDbEntity
  8
HB_PANELS
 62
     8
100
AcDbLine
 10
724.6927256841372
 20
846.9554392864665
 30
0.0
 11
724.6927256841372
 21
853.205439286452
 31
0.0
  0
LINE
  5
F2F
330
2
100
AcDbEntity
  8
HB_PANELS
 62
     8
100
AcDbLine
 10
724.6927256841299
 20
853.205439286452
 30
0.0
 11
735.5180432314373
 21
859.455439286452
 31
0.0
  0
LINE
  5
F30
330
2
100
AcDbEntity
  8
HB_PANELS
 62
     8
100
AcDbLine
 10
692.2167730422152
 20
818.6652375432895
 30
0.0
 11
692.2167730422152
 21
846.955439286452
 31
0.0
  0
LINE
  5
F31
330
2
100
AcDbEntity
  8
HB_PANELS
 62
     8
100
AcDbLine
 10
692.2167730422152
 20
871.955439286452
 30
0.0
 11
703.0420905895225
 21
878.205439286452
 31
0.0
  0
LINE
  5
F32
330
2
100
AcDbEntity
  8
HB_PANELS
 62
     8
100
AcDbLine
 10
627.2648677583856
 20
781.1652375432895
 30
0.0
 11
627.2648677583856
 21
884.455439286452
 31
0.0
  0
LINE
  5
F33
330
2
100
AcDbEntity
  8
HB_PANELS
 62
     8
100
AcDbLine
 10
659.7408204003004
 20
799.9152375432895
 30
0.0
 11
659.7408204002931
 21
865.705439286452
 31
0.0
  0
LINE
  5
F34
330
2
100
AcDbEntity
  8
HB_PANELS
 62
     8
100
AcDbLine
 10
594.7889151164636
 20
762.4152375432895
 30
0.0
 11
594.7889151164636
 21
903.205439286452
 31
0.0
  0
LINE
  5
F35
330
2
100
AcDbEntity
  8
HB_PANELS
 62
     8
100
AcDbLine
 10
562.3129624745488
 20
743.6652375432895
 30
0.0
 11
562.3129624745488
 21
921.955439286452
 31
0.0
  0
LINE
  5
F36
330
2
100
AcDbEntity
  8
HB_PANELS
 62
     8
100
AcDbLine
 10
627.2648677583783
 20
909.4554392864374
 30
0.0
 11
638.0901853056857
 21
915.7054392864374
 31
0.0
  0
LINE
  5
F37
330
2
100
AcDbEntity
  8
HB_PANELS
 62
     8
100
AcDbLine
 10
659.7408204002931
 20
890.7054392864374
 30
0.0
 11
670.5661379476005
 21
896.9554392864374
 31
0.0
  0
LINE
  5
F38
330
2
100
AcDbEntity
  8
HB_PANELS
 62
     8
100
AcDbLine
 10
594.7889151164636
 20
928.2054392864374
 30
0.0
 11
605.614232663771
 21
934.4554392864374
 31
0.0
  0
LINE
  5
F39
330
2
100
AcDbEntity
  8
HB_PANELS
 62
     8
100
AcDbLine
 10
562.3129624745488
 20
946.9554392864374
 30
0.0
 11
573.1382800218489
 21
953.2054392864374
 31
0.0
  0
LINE
  5
F3A
330
2
100
AcDbEntity
  8
HB_PANELS
 62
     8
100
AcDbLine
 10
421.5838343595751
 20
1028.205439286437
 30
0.0
 11
432.4091519068824
 21
1034.455439286452
 31
0.0
  0
LINE
  5
F3B
330
2
100
AcDbEntity
  8
HB_PANELS
 62
     8
100
AcDbLine
 10
432.4091519068824
 20
778.205439286452
 30
0.0
 11
432.4091519068897
 21
984.455439286452
 31
0.0
  0
LINE
  5
F3C
330
2
100
AcDbEntity
  8
HB_PANELS
 62
     8
100
AcDbLine
 10
540.6623273799413
 20
959.4554392864374
 30
0.0
 11
551.4876449272414
 21
965.705439286452
 31
0.0
  0
LINE
  5
F3D
330
2
100
AcDbEntity
  8
HB_PANELS
 62
     8
100
AcDbLine
 10
529.8370098326341
 20
721.9554392864665
 30
0.0
 11
529.8370098326341
 21
928.205439286452
 31
0.0
  0
LINE
  5
F3E
330
2
100
AcDbEntity
  8
HB_PANELS
 62
     8
100
AcDbLine
 10
367.4572466230529
 20
1059.455439286437
 30
0.0
 11
378.282564170353
 21
1065.705439286452
 31
0.0
  0
LINE
  5
F3F
330
2
100
AcDbEntity
  8
HB_PANELS
 62
     8
100
AcDbLine
 10
367.4572466230467
 20
1005.077315003146
 30
0.0
 11
367.4572466230456
 21
1034.455439286452
 31
0.0
  0
LINE
  5
F41
330
2
100
AcDbEntity
  8
HB_PANELS
 62
     8
100
AcDbLine
 10
399.9331992649677
 20
1040.705439286437
 30
0.0
 11
410.7585168122677
 21
1046.955439286452
 31
0.0
  0
LINE
  5
F42
330
2
100
AcDbEntity
  8
HB_PANELS
 62
     8
100
AcDbLine
 10
334.9812939811361
 20
986.327315003149
 30
0.0
 11
334.9812939811382
 21
1053.205439286452
 31
0.0
  0
LINE
  5
F43
330
2
100
AcDbEntity
  8
HB_PANELS
 62
     8
100
AcDbLine
 10
334.9812939811309
 20
1078.205439286437
 30
0.0
 11
345.8066115284382
 21
1084.455439286452
 31
0.0
  0
LINE
  5
F44
330
2
100
AcDbEntity
  8
HB_PANELS
 62
     8
100
AcDbLine
 10
302.5053413392161
 20
967.5773150031472
 30
0.0
 11
302.5053413392161
 21
1071.955439286452
 31
0.0
  0
LINE
  5
F45
330
2
100
AcDbEntity
  8
HB_PANELS
 62
     8
100
AcDbLine
 10
302.5053413392161
 20
1096.955439286437
 30
0.0
 11
313.3306588865234
 21
1103.205439286452
 31
0.0
  0
LINE
  5
F46
330
2
100
AcDbEntity
  8
HB_PANELS
 62
     8
100
AcDbLine
 10
270.0293886973013
 20
1115.705439286437
 30
0.0
 11
280.8547062446087
 21
1121.955439286452
 31
0.0
  0
LINE
  5
F47
330
2
100
AcDbEntity
  8
HB_PANELS
 62
     8
100
AcDbLine
 10
270.0293886973014
 20
948.8273150031485
 30
0.0
 11
270.0293886973013
 21
1090.705439286452
 31
0.0
  0
LINE
  5
F48
330
2
100
AcDbEntity
  8
HB_PANELS
 62
     8
100
AcDbLine
 10
237.5534360553852
 20
930.0773150031488
 30
0.0
 11
237.5534360553793
 21
1096.955439286466
 31
0.0
  0
LINE
  5
F49
330
2
100
AcDbEntity
  8
HB_PANELS
 62
     8
100
AcDbLine
 10
248.3787536026866
 20
1128.205439286437
 30
0.0
 11
259.204071149994
 21
1134.455439286452
 31
0.0
  0
LINE
  5
F4A
330
2
100
AcDbEntity
  8
HB_PANELS
 62
     8
100
AcDbLine
 10
107.6496254877202
 20
1209.455439286437
 30
0.0
 11
118.4749430350275
 21
1215.705439286452
 31
0.0
  0
LINE
  5
F4B
330
2
100
AcDbEntity
  8
HB_PANELS
 62
     8
100
AcDbLine
 10
107.6496254877202
 20
965.705439286452
 30
0.0
 11
107.6496254877274
 21
1184.455439286437
 31
0.0
  0
LINE
  5
F4C
330
2
100
AcDbEntity
  8
HB_PANELS
 62
     8
100
AcDbLine
 10
140.1255781296277
 20
946.955439286452
 30
0.0
 11
140.1255781296349
 21
1153.205439286452
 31
0.0
  0
LINE
  5
F4D
330
2
100
AcDbEntity
  8
HB_PANELS
 62
     8
100
AcDbLine
 10
129.3002605823276
 20
1196.955439286437
 30
0.0
 11
140.1255781296349
 21
1203.205439286452
 31
0.0
  0
LINE
  5
F4E
330
2
100
AcDbEntity
  8
HB_PANELS
 62
     8
100
AcDbLine
 10
75.17367284580541
 20
984.455439286452
 30
0.0
 11
75.17367284580541
 21
1203.205439286452
 31
0.0
  0
LINE
  5
F4F
330
2
100
AcDbEntity
  8
HB_PANELS
 62
     8
100
AcDbLine
 10
75.17367284579814
 20
1228.205439286437
 30
0.0
 11
85.99899039310548
 21
1234.455439286452
 31
0.0
  0
LINE
  5
F50
330
2
100
AcDbEntity
  8
HB_PANELS
 62
     8
100
AcDbLine
 10
42.69772020389064
 20
1003.205439286452
 30
0.0
 11
42.69772020389064
 21
1221.955439286452
 31
0.0
  0
LINE
  5
F51
330
2
100
AcDbEntity
  8
HB_PANELS
 62
     8
100
AcDbLine
 10
42.69772020388336
 20
1246.955439286437
 30
0.0
 11
53.52303775119072
 21
1253.205439286452
 31
0.0
  0
LINE
  5
F52
330
2
100
AcDbEntity
  8
HB_PANELS
 62
     8
100
AcDbLine
 10
10.22176756196859
 20
1265.705439286437
 30
0.0
 11
21.04708510927594
 21
1271.955439286437
 31
0.0
  0
LINE
  5
F53
330
2
100
AcDbEntity
  8
HB_PANELS
 62
     8
100
AcDbLine
 10
10.22176756196859
 20
1021.955439286437
 30
0.0
 11
10.22176756196859
 21
1240.705439286437
 31
0.0
  0
LINE
  5
F54
330
2
100
AcDbEntity
  8
HB_PANELS
100
AcDbLine
 10
-11.42886753263883
 20
1028.205439286437
 30
0.0
 11
-11.42886753264632
 21
1253.205439286433
 31
0.0
  0
LINE
  5
F55
330
2
100
AcDbEntity
  8
HB_PANELS
 62
     8
100
AcDbLine
 10
532.6864081258004
 20
720.3103384148787
 30
0.0
 11
419.9627424361546
 21
785.3913771448309
 31
0.0
  0
LINE
  5
F56
330
2
100
AcDbEntity
  8
HB_PANELS
 62
     8
100
AcDbLine
 10
-505.0321232863167
 20
749.4734667041789
 30
0.0
 11
-503.9808159350489
 21
750.0804392864345
 31
0.0
  0
LINE
  5
F57
330
2
100
AcDbEntity
  8
HB_PANELS
 62
     8
100
AcDbLine
 10
-719.3734107229611
 20
869.4734667041775
 30
0.0
 11
-11.42886753263883
 21
1278.205439286437
 31
0.0
  0
LINE
  5
F58
330
2
100
AcDbEntity
  8
HB_PANELS
 62
     8
100
AcDbLine
 10
743.7801002982378
 20
842.1853384148853
 30
0.0
 11
-22.25418507993891
 21
1284.455439286437
 31
0.0
  0
LINE
  5
F59
330
2
100
AcDbEntity
  8
HB_PANELS
 62
     8
100
AcDbLine
 10
754.6054178455379
 20
848.4353384148853
 30
0.0
 11
-11.42886753263883
 21
1290.705439286437
 31
0.0
  0
LINE
  5
F5A
330
2
100
AcDbEntity
  8
HB_PANELS
 62
     8
100
AcDbLine
 10
-730.1987282702684
 20
875.7234667041775
 30
0.0
 11
-11.42886753263883
 21
1290.705439286437
 31
0.0
  0
LINE
  5
F5B
330
2
100
AcDbEntity
  8
HB_PANELS
 62
     8
100
AcDbLine
 10
732.9547827509304
 20
823.4353384148853
 30
0.0
 11
732.9547827509304
 21
304.6853384148708
 31
0.0
  0
LINE
  5
F5C
330
2
100
AcDbEntity
  8
HB_PANELS
 62
     8
100
AcDbLine
 10
732.9547827509304
 20
823.4353384148853
 30
0.0
 11
722.1294652036231
 21
829.6853384148853
 31
0.0
  0
LINE
  5
F5D
330
2
100
AcDbEntity
  8
HB_PANELS
 62
     8
100
AcDbLine
 10
700.4788301090156
 20
804.6853384148853
 30
0.0
 11
700.4788301090156
 21
285.9353384148708
 31
0.0
  0
LINE
  5
F5E
330
2
100
AcDbEntity
  8
HB_PANELS
 62
     8
100
AcDbLine
 10
700.4788301090156
 20
804.6853384148853
 30
0.0
 11
689.6535125617083
 21
810.9353384148853
 31
0.0
  0
LINE
  5
F5F
330
2
100
AcDbEntity
  8
HB_PANELS
 62
     8
100
AcDbLine
 10
668.0028774671009
 20
785.9353384148853
 30
0.0
 11
668.0028774671009
 21
267.1853384148708
 31
0.0
  0
LINE
  5
F60
330
2
100
AcDbEntity
  8
HB_PANELS
 62
     8
100
AcDbLine
 10
668.0028774671009
 20
785.9353384148853
 30
0.0
 11
657.1775599197935
 21
792.1853384148853
 31
0.0
  0
LINE
  5
F61
330
2
100
AcDbEntity
  8
HB_PANELS
 62
     8
100
AcDbLine
 10
-149.4489605520866
 20
175.3913771447987
 30
0.0
 11
-149.4489605520866
 21
425.3913771447987
 31
0.0
  0
LINE
  5
F62
330
2
100
AcDbEntity
  8
HB_PANELS
 62
     8
100
AcDbLine
 10
-149.4489605520866
 20
444.1413771447987
 30
0.0
 11
-149.4489605520866
 21
694.1413771447987
 31
0.0
  0
LINE
  5
F63
330
2
100
AcDbEntity
  8
HB_PANELS
 62
     8
100
AcDbLine
 10
-149.4489605520866
 20
694.1413771447987
 30
0.0
 11
-160.274278099394
 21
700.3913771447987
 31
0.0
  0
LINE
  5
F64
330
2
100
AcDbEntity
  8
HB_PANELS
 62
     8
100
AcDbLine
 10
-708.5480931756465
 20
331.9734667041775
 30
0.0
 11
-708.5480931756538
 21
581.973466704192
 31
0.0
  0
LINE
  5
F65
330
2
100
AcDbEntity
  8
HB_PANELS
 62
     8
100
AcDbLine
 10
-708.5480931756465
 20
600.7234667041775
 30
0.0
 11
-708.5480931756538
 21
850.723466704192
 31
0.0
  0
LINE
  5
F66
330
2
100
AcDbEntity
  8
HB_PANELS
 62
     8
100
AcDbLine
 10
-708.5480931756538
 20
850.723466704192
 30
0.0
 11
-697.7227756283464
 21
856.973466704192
 31
0.0
  0
LINE
  5
F67
330
2
100
AcDbEntity
  8
HB_PANELS
 62
     8
100
AcDbLine
 10
-481.2164246822358
 20
200.7234667041921
 30
0.0
 11
-481.2164246822358
 21
450.7234667041775
 31
0.0
  0
LINE
  5
F68
330
2
100
AcDbEntity
  8
HB_PANELS
 62
     8
100
AcDbLine
 10
-481.2164246822358
 20
469.473466704192
 30
0.0
 11
-481.2164246822359
 21
719.4734667041877
 31
0.0
  0
LINE
  5
F69
330
2
100
AcDbEntity
  8
HB_PANELS
 62
     8
100
AcDbLine
 10
-481.2164246822358
 20
719.473466704192
 30
0.0
 11
-470.3911071349284
 21
725.723466704192
 31
0.0
  0
LINE
  5
F6A
330
2
100
AcDbEntity
  8
HB_PANELS
 62
     8
100
AcDbLine
 10
368.1571936084656
 20
75.31935212374083
 30
0.0
 11
368.1571936084729
 21
94.06935212374083
 31
0.0
  0
LINE
  5
F6B
330
2
100
AcDbEntity
  8
HB_PANELS
 62
     8
100
AcDbLine
 10
343.2433510479386
 20
358.4533658326109
 30
0.0
 11
343.2433510479386
 21
202.1853384148999
 31
0.0
  0
LINE
  5
F6C
330
2
100
AcDbEntity
  8
HB_PANELS
 62
     8
100
AcDbLine
 10
368.1571936084656
 20
75.31935212374083
 30
0.0
 11
765.430735392838
 21
304.6853384148708
 31
0.0
  0
LINE
  5
F6D
330
2
100
AcDbEntity
  8
HB_PANELS
 62
     8
100
AcDbLine
 10
368.1571936084729
 20
94.06935212374083
 30
0.0
 11
765.4307353928452
 21
323.4353384148708
 31
0.0
  0
LINE
  5
F6E
330
2
100
AcDbEntity
  8
HB_PANELS
 62
     8
100
AcDbLine
 10
-741.0240458175685
 20
350.7234667041775
 30
0.0
 11
-293.3944595277935
 21
92.28440456253883
 31
0.0
  0
LINE
  5
F6F
330
2
100
AcDbEntity
  8
HB_PANELS
 62
     8
100
AcDbLine
 10
-293.3944595277935
 20
92.28440456253883
 30
0.0
 11
111.4411923379739
 21
326.0163771447988
 31
0.0
  0
LINE
  5
F70
330
2
100
AcDbEntity
  8
HB_PANELS
 62
     8
100
AcDbLine
 10
38.92717697275657
 20
284.1503908536688
 30
0.0
 11
368.1571936084729
 21
94.06935212374083
 31
0.0
  0
LINE
  5
F71
330
2
100
AcDbEntity
  8
HB_PANELS
 62
     8
100
AcDbLine
 10
38.92717697275657
 20
265.4003908536688
 30
0.0
 11
368.1571936084656
 21
75.31935212374083
 31
0.0
  0
LINE
  5
F72
330
2
100
AcDbEntity
  8
HB_PANELS
 62
     8
100
AcDbLine
 10
-293.3944595277935
 20
73.53440456253884
 30
0.0
 11
38.92717697275657
 21
265.4003908536688
 31
0.0
  0
LINE
  5
F73
330
2
100
AcDbEntity
  8
HB_PANELS
 62
     8
100
AcDbLine
 10
-741.0240458175685
 20
331.9734667041775
 30
0.0
 11
-293.3944595277935
 21
73.53440456253884
 31
0.0
  0
LINE
  5
F74
330
2
100
AcDbEntity
  8
HB_PANELS
 62
     8
100
AcDbLine
 10
-741.0240458175685
 20
350.7234667041775
 30
0.0
 11
-741.0240458175685
 21
331.9734667041775
 31
0.0
  0
LINE
  5
F75
330
2
100
AcDbEntity
  8
HB_PANELS
 62
     8
100
AcDbLine
 10
-293.3944595277935
 20
92.28440456253883
 30
0.0
 11
-293.3944595277935
 21
73.53440456253884
 31
0.0
  0
LINE
  5
F76
330
2
100
AcDbEntity
  8
HB_PANELS
 62
     8
100
AcDbLine
 10
38.92717697275657
 20
294.1503908536688
 30
0.0
 11
38.92717697275657
 21
265.4003908536688
 31
0.0
  0
LINE
  5
F77
330
2
100
AcDbEntity
  8
HB_PANELS
 62
     8
100
AcDbLine
 10
-741.0240458175685
 20
350.7234667041775
 30
0.0
 11
-741.0240458175685
 21
600.7234667041775
 31
0.0
  0
LINE
  5
F78
330
2
100
AcDbEntity
  8
HB_PANELS
 62
     8
100
AcDbLine
 10
-293.3944595277935
 20
92.28440456253883
 30
0.0
 11
-282.5691419804861
 21
98.53440456253885
 31
0.0
  0
LINE
  5
F79
330
2
100
AcDbEntity
  8
HB_PANELS
 62
     8
100
AcDbLine
 10
-448.740472040321
 20
181.9734667041775
 30
0.0
 11
-448.740472040321
 21
431.973466704192
 31
0.0
  0
LINE
  5
F7A
330
2
100
AcDbEntity
  8
HB_PANELS
 62
     8
100
AcDbLine
 10
-293.3944595277935
 20
92.28440456253883
 30
0.0
 11
-293.3944595277935
 21
204.7844045625534
 31
0.0
  0
LINE
  5
F7B
330
2
100
AcDbEntity
  8
HB_PANELS
 62
     8
100
AcDbLine
 10
-416.2645193984062
 20
163.2234667041775
 30
0.0
 11
-416.2645193984062
 21
413.2234667041775
 31
0.0
  0
LINE
  5
F7C
330
2
100
AcDbEntity
  8
HB_PANELS
 62
     8
100
AcDbLine
 10
111.4411923379739
 20
326.0163771447988
 30
0.0
 11
111.4411923379739
 21
492.2844045625388
 31
0.0
  0
LINE
  5
F7D
330
2
100
AcDbEntity
  8
HB_PANELS
 62
     8
100
AcDbLine
 10
208.8690502637328
 20
436.0344045625388
 30
0.0
 11
208.8690502637328
 21
292.2663771447988
 31
0.0
  0
LINE
  5
F7E
330
2
100
AcDbEntity
  8
HB_PANELS
 62
     8
100
AcDbLine
 10
198.0437327164254
 20
442.2844045625388
 30
0.0
 11
198.0437327164254
 21
286.0163771447988
 31
0.0
  0
LINE
  5
F7F
330
2
100
AcDbEntity
  8
HB_PANELS
 62
     8
100
AcDbLine
 10
375.7193036898534
 20
360.9353384148708
 30
0.0
 11
375.7193036898607
 21
183.4353384149144
 31
0.0
  0
LINE
  5
F80
330
2
100
AcDbEntity
  8
HB_PANELS
 62
     8
100
AcDbLine
 10
165.5677800745106
 20
461.0344045625388
 30
0.0
 11
165.5677800745106
 21
304.7663771447696
 31
0.0
  0
LINE
  5
F81
330
2
100
AcDbEntity
  8
HB_PANELS
 62
     8
100
AcDbLine
 10
440.6712089736902
 20
135.9353384148707
 30
0.0
 11
111.4411923379739
 21
326.0163771447988
 31
0.0
  0
LINE
  5
F82
330
2
100
AcDbEntity
  8
HB_PANELS
 62
     8
100
AcDbLine
 10
133.0918274325959
 20
479.7844045625388
 30
0.0
 11
133.0918274325959
 21
323.5163771447551
 31
0.0
  0
LINE
  5
F83
330
2
100
AcDbEntity
  8
HB_PANELS
 62
     8
100
AcDbLine
 10
408.1952563317681
 20
379.6853384148708
 30
0.0
 11
408.1952563317681
 21
164.6853384149144
 31
0.0
  0
LINE
  5
F84
330
2
100
AcDbEntity
  8
HB_PANELS
 62
     8
100
AcDbLine
 10
77.88270794133132
 20
316.6413771447988
 30
0.0
 11
77.88270794133132
 21
511.6594045625388
 31
0.0
  0
LINE
  5
F85
330
2
100
AcDbEntity
  8
HB_PANELS
 62
     8
100
AcDbLine
 10
45.40675529940926
 20
297.8913771447842
 30
0.0
 11
45.40675529940926
 21
530.4094045625388
 31
0.0
  0
LINE
  5
F86
330
2
100
AcDbEntity
  8
HB_PANELS
 62
     8
100
AcDbLine
 10
12.93080265749449
 20
269.1413771447987
 30
0.0
 11
12.93080265749449
 21
481.6413771447987
 31
0.0
  0
LINE
  5
F87
330
2
100
AcDbEntity
  8
HB_PANELS
 62
     8
100
AcDbLine
 10
-84.49705526825709
 20
212.8913771447987
 30
0.0
 11
-84.49705526825709
 21
425.3913771447987
 31
0.0
  0
LINE
  5
F88
330
2
100
AcDbEntity
  8
HB_PANELS
 62
     8
100
AcDbLine
 10
-217.6172366966566
 20
136.0344045625388
 30
0.0
 11
-217.6172366966566
 21
386.0344045625388
 31
0.0
  0
LINE
  5
F89
330
2
100
AcDbEntity
  8
HB_PANELS
 62
     8
100
AcDbLine
 10
-293.3944595277935
 20
129.7844045625243
 30
0.0
 11
-217.6172366966566
 21
173.5344045625388
 31
0.0
  0
LINE
  5
F8A
330
2
100
AcDbEntity
  8
HB_PANELS
 62
     8
100
AcDbLine
 10
-293.3944595277935
 20
204.7844045625534
 30
0.0
 11
-217.6172366966566
 21
248.5344045625534
 31
0.0
  0
LINE
  5
F8B
330
2
100
AcDbEntity
  8
HB_PANELS
 62
     8
100
AcDbLine
 10
-95.32237281556446
 20
419.1413771447987
 30
0.0
 11
23.75612020480184
 21
487.8913771447987
 31
0.0
  0
LINE
  5
F8C
330
2
100
AcDbEntity
  8
HB_PANELS
 62
     8
100
AcDbLine
 10
-116.9730079101718
 20
194.1413771447987
 30
0.0
 11
-116.9730079101791
 21
406.9287256283278
 31
0.0
  0
LINE
  5
F8D
330
2
100
AcDbEntity
  8
HB_PANELS
 62
     8
100
AcDbLine
 10
-181.9249131940087
 20
156.6413771447987
 30
0.0
 11
-181.9249131940087
 21
406.6413771447987
 31
0.0
  0
LINE
  5
F8E
330
2
100
AcDbEntity
  8
HB_PANELS
 62
     8
100
AcDbLine
 10
23.75612020480184
 20
487.8913771447987
 30
0.0
 11
23.75612020480184
 21
525.3913771447987
 31
0.0
  0
LINE
  5
F8F
330
2
100
AcDbEntity
  8
HB_PANELS
 62
     8
100
AcDbLine
 10
-95.32237281556446
 20
419.1413771447987
 30
0.0
 11
-95.32237281556446
 21
456.6413771447987
 31
0.0
  0
LINE
  5
F90
330
2
100
AcDbEntity
  8
HB_PANELS
 62
     8
100
AcDbLine
 10
-84.49705526825709
 20
287.8913771447987
 30
0.0
 11
12.93080265749449
 21
344.1413771447987
 31
0.0
  0
LINE
  5
F91
330
2
100
AcDbEntity
  8
HB_PANELS
 62
     8
100
AcDbLine
 10
-84.49705526825709
 20
250.3913771447987
 30
0.0
 11
12.93080265749449
 21
306.6413771447987
 31
0.0
  0
LINE
  5
F92
330
2
100
AcDbEntity
  8
HB_PANELS
 62
     8
100
AcDbLine
 10
-416.2645193984062
 20
200.7234667041775
 30
0.0
 11
-293.3944595277935
 21
129.7844045625243
 31
0.0
  0
LINE
  5
F93
330
2
100
AcDbEntity
  8
HB_PANELS
 62
     8
100
AcDbLine
 10
-416.2645193984062
 20
275.7234667041921
 30
0.0
 11
-293.3944595277935
 21
204.7844045625534
 31
0.0
  0
LINE
  5
F94
330
2
100
AcDbEntity
  8
HB_PANELS
 62
     8
100
AcDbLine
 10
-405.4392018510989
 20
281.9734667041921
 30
0.0
 11
-293.3944595277935
 21
217.2844045625388
 31
0.0
  0
LINE
  5
F95
330
2
100
AcDbEntity
  8
HB_PANELS
 62
     8
100
AcDbLine
 10
-405.4392018510989
 20
281.9734667041921
 30
0.0
 11
-416.2645193984062
 21
275.7234667041921
 31
0.0
  0
LINE
  5
F96
330
2
100
AcDbEntity
  8
HB_PANELS
 62
     8
100
AcDbLine
 10
-304.2197770751009
 20
211.0344045625534
 30
0.0
 11
-228.442554243964
 21
254.7844045625534
 31
0.0
  0
LINE
  5
F97
330
2
100
AcDbEntity
  8
HB_PANELS
 62
     8
100
AcDbLine
 10
-84.49705526825709
 20
300.3913771447987
 30
0.0
 11
2.105485110187146
 21
350.3913771447987
 31
0.0
  0
LINE
  5
F98
330
2
100
AcDbEntity
  8
HB_PANELS
 62
     8
100
AcDbLine
 10
-228.442554243964
 20
254.7844045625534
 30
0.0
 11
-228.442554243964
 21
379.7844045625388
 31
0.0
  0
LINE
  5
F99
330
2
100
AcDbEntity
  8
HB_PANELS
 62
     8
100
AcDbLine
 10
-228.442554243964
 20
254.7844045625534
 30
0.0
 11
-217.6172366966566
 21
248.5344045625534
 31
0.0
  0
LINE
  5
F9A
330
2
100
AcDbEntity
  8
HB_PANELS
 62
     8
100
AcDbLine
 10
-304.2197770751009
 20
98.53440456253885
 30
0.0
 11
-304.2197770751009
 21
211.0344045625534
 31
0.0
  0
LINE
  5
F9B
330
2
100
AcDbEntity
  8
HB_PANELS
 62
     8
100
AcDbLine
 10
12.93080265749449
 20
344.1413771447987
 30
0.0
 11
2.105485110187146
 21
350.3913771447987
 31
0.0
  0
LINE
  5
F9C
330
2
100
AcDbEntity
  8
HB_PANELS
 62
     8
100
AcDbLine
 10
2.105485110187146
 20
350.3913771447987
 30
0.0
 11
2.105485110194422
 21
475.3913771447987
 31
0.0
  0
LINE
  5
F9D
330
2
100
AcDbEntity
  8
HB_PANELS
 62
     8
100
AcDbLine
 10
-513.6923773241505
 20
219.4734667041775
 30
0.0
 11
-513.6923773241505
 21
469.4734667041775
 31
0.0
  0
LINE
  5
F9E
330
2
100
AcDbEntity
  8
HB_PANELS
 62
     8
100
AcDbLine
 10
-546.1683299660726
 20
238.2234667041775
 30
0.0
 11
-546.1683299660726
 21
450.723466704192
 31
0.0
  0
LINE
  5
F9F
330
2
100
AcDbEntity
  8
HB_PANELS
 62
     8
100
AcDbLine
 10
-643.596187891817
 20
294.4734667041775
 30
0.0
 11
-643.596187891817
 21
506.9734667041775
 31
0.0
  0
LINE
  5
FA0
330
2
100
AcDbEntity
  8
HB_PANELS
 62
     8
100
AcDbLine
 10
-676.0721405337317
 20
313.2234667041775
 30
0.0
 11
-676.0721405337317
 21
563.2234667041775
 31
0.0
  0
LINE
  5
FA1
330
2
100
AcDbEntity
  8
HB_PANELS
 62
     8
100
AcDbLine
 10
-643.596187891817
 20
369.4734667041775
 30
0.0
 11
-546.1683299660726
 21
313.2234667041921
 31
0.0
  0
LINE
  5
FA2
330
2
100
AcDbEntity
  8
HB_PANELS
 62
     8
100
AcDbLine
 10
-632.7708703445169
 20
375.7234667041921
 30
0.0
 11
-546.1683299660726
 21
325.7234667041921
 31
0.0
  0
LINE
  5
FA3
330
2
100
AcDbEntity
  8
HB_PANELS
 62
     8
100
AcDbLine
 10
-643.596187891817
 20
331.973466704163
 30
0.0
 11
-546.1683299660726
 21
275.723466704163
 31
0.0
  0
LINE
  5
FA4
330
2
100
AcDbEntity
  8
HB_PANELS
 62
     8
100
AcDbLine
 10
-632.7708703445169
 20
375.7234667041921
 30
0.0
 11
-632.7708703445169
 21
500.7234667041775
 31
0.0
  0
LINE
  5
FA5
330
2
100
AcDbEntity
  8
HB_PANELS
 62
     8
100
AcDbLine
 10
-643.596187891817
 20
369.4734667041775
 30
0.0
 11
-632.7708703445169
 21
375.7234667041921
 31
0.0
  0
LINE
  5
FA6
330
2
100
AcDbEntity
  8
HB_PANELS
 62
     8
100
AcDbLine
 10
-535.3430124187652
 20
444.473466704192
 30
0.0
 11
-535.3430124187652
 21
481.9734667041775
 31
0.0
  0
LINE
  5
FA7
330
2
100
AcDbEntity
  8
HB_PANELS
 62
     8
100
AcDbLine
 10
-654.4215054391242
 20
513.2234667041775
 30
0.0
 11
-654.4215054391242
 21
550.7234667041775
 31
0.0
  0
LINE
  5
FA8
330
2
100
AcDbEntity
  8
HB_PANELS
 62
     8
100
AcDbLine
 10
-654.4215054391242
 20
513.2234667041775
 30
0.0
 11
-535.3430124187652
 21
444.473466704192
 31
0.0
  0
LINE
  5
FA9
330
2
100
AcDbEntity
  8
HB_PANELS
 62
     8
100
AcDbLine
 10
-416.2645193984062
 20
238.2234667041921
 30
0.0
 11
-293.3944595277935
 21
167.2844045625534
 31
0.0
  0
LINE
  5
FAA
330
2
100
AcDbEntity
  8
HB_PANELS
 62
     8
100
AcDbLine
 10
-293.3944595277935
 20
167.2844045625534
 30
0.0
 11
-217.6172366966566
 21
211.0344045625534
 31
0.0
  0
LINE
  5
FAB
330
2
100
AcDbEntity
  8
HB_PANELS
 62
     8
100
AcDbLine
 10
-405.4392018510989
 20
281.9734667041921
 30
0.0
 11
-405.4392018510989
 21
406.9734667041775
 31
0.0
  0
LINE
  5
FAC
330
2
100
AcDbEntity
  8
HB_PANELS
 62
     8
100
AcDbLine
 10
-405.4392018510989
 20
513.223466704192
 30
0.0
 11
-405.4392018510989
 21
638.2234667041898
 31
0.0
  0
LINE
  5
FAD
330
2
100
AcDbEntity
  8
HB_PANELS
 62
     8
100
AcDbLine
 10
-293.3944595277935
 20
436.0344045625534
 30
0.0
 11
-217.6172366966566
 21
479.7844045625534
 31
0.0
  0
LINE
  5
FAE
330
2
100
AcDbEntity
  8
HB_PANELS
 62
     8
100
AcDbLine
 10
-416.2645193984062
 20
506.973466704192
 30
0.0
 11
-293.3944595277935
 21
436.0344045625534
 31
0.0
  0
LINE
  5
FAF
330
2
100
AcDbEntity
  8
HB_PANELS
 62
     8
100
AcDbLine
 10
-654.4215054391242
 20
781.9734667041775
 30
0.0
 11
-535.3430124187652
 21
713.223466704192
 31
0.0
  0
LINE
  5
FB0
330
2
100
AcDbEntity
  8
HB_PANELS
 62
     8
100
AcDbLine
 10
-654.4215054391242
 20
781.9734667041775
 30
0.0
 11
-654.4215054391242
 21
819.4734667041775
 31
0.0
  0
LINE
  5
FB1
330
2
100
AcDbEntity
  8
HB_PANELS
 62
     8
100
AcDbLine
 10
-535.3430124187652
 20
713.223466704192
 30
0.0
 11
-535.3430124187652
 21
750.7234667041775
 31
0.0
  0
LINE
  5
FB2
330
2
100
AcDbEntity
  8
HB_PANELS
 62
     8
100
AcDbLine
 10
-643.596187891817
 20
638.2234667041775
 30
0.0
 11
-632.7708703445169
 21
644.473466704192
 31
0.0
  0
LINE
  5
FB3
330
2
100
AcDbEntity
  8
HB_PANELS
 62
     8
100
AcDbLine
 10
-632.7708703445169
 20
644.473466704192
 30
0.0
 11
-632.7708703445169
 21
769.4734667041775
 31
0.0
  0
LINE
  5
FB4
330
2
100
AcDbEntity
  8
HB_PANELS
 62
     8
100
AcDbLine
 10
-643.596187891817
 20
600.723466704163
 30
0.0
 11
-546.1683299660726
 21
544.473466704163
 31
0.0
  0
LINE
  5
FB5
330
2
100
AcDbEntity
  8
HB_PANELS
 62
     8
100
AcDbLine
 10
-632.7708703445169
 20
644.473466704192
 30
0.0
 11
-546.1683299660726
 21
594.473466704192
 31
0.0
  0
LINE
  5
FB6
330
2
100
AcDbEntity
  8
HB_PANELS
 62
     8
100
AcDbLine
 10
-643.596187891817
 20
638.2234667041775
 30
0.0
 11
-546.1683299660726
 21
581.973466704192
 31
0.0
  0
LINE
  5
FB7
330
2
100
AcDbEntity
  8
HB_PANELS
 62
     8
100
AcDbLine
 10
-676.0721405337317
 20
581.9734667041775
 30
0.0
 11
-676.0721405337317
 21
831.9734667041775
 31
0.0
  0
LINE
  5
FB8
330
2
100
AcDbEntity
  8
HB_PANELS
 62
     8
100
AcDbLine
 10
-676.0721405337317
 20
831.9734667041775
 30
0.0
 11
-665.2468229864316
 21
838.2234667041775
 31
0.0
  0
LINE
  5
FB9
330
2
100
AcDbEntity
  8
HB_PANELS
 62
     8
100
AcDbLine
 10
-643.596187891817
 20
563.2234667041775
 30
0.0
 11
-643.596187891817
 21
775.7234667041775
 31
0.0
  0
LINE
  5
FBA
330
2
100
AcDbEntity
  8
HB_PANELS
 62
     8
100
AcDbLine
 10
-654.4215054391242
 20
819.473466704192
 30
0.0
 11
-643.596187891817
 21
825.723466704192
 31
0.0
  0
LINE
  5
FBB
330
2
100
AcDbEntity
  8
HB_PANELS
 62
     8
100
AcDbLine
 10
-546.1683299660726
 20
506.9734667041775
 30
0.0
 11
-546.1683299660726
 21
719.473466704192
 31
0.0
  0
LINE
  5
FBC
330
2
100
AcDbEntity
  8
HB_PANELS
 62
     8
100
AcDbLine
 10
-535.3430124187652
 20
750.7234667041775
 30
0.0
 11
-524.5176948714579
 21
756.9734667041775
 31
0.0
  0
LINE
  5
FBD
330
2
100
AcDbEntity
  8
HB_PANELS
 62
     8
100
AcDbLine
 10
-513.6923773241505
 20
488.2234667041775
 30
0.0
 11
-513.6923773241505
 21
649.6031605886701
 31
0.0
  0
LINE
  5
FBE
330
2
100
AcDbEntity
  8
HB_PANELS
 62
     8
100
AcDbLine
 10
-513.6923773241505
 20
738.2234667041775
 30
0.0
 11
-502.8670597768504
 21
744.4734667041775
 31
0.0
  0
LINE
  5
FBF
330
2
100
AcDbEntity
  8
HB_PANELS
 62
     8
100
AcDbLine
 10
77.88270794132404
 20
825.3913771447987
 30
0.0
 11
67.05739039401669
 21
831.6413771447987
 31
0.0
  0
LINE
  5
FC0
330
2
100
AcDbEntity
  8
HB_PANELS
 62
     8
100
AcDbLine
 10
111.4411923379739
 20
844.7663771447988
 30
0.0
 11
100.6158747906665
 21
851.0163771447988
 31
0.0
  0
LINE
  5
FC1
330
2
100
AcDbEntity
  8
HB_PANELS
 62
     8
100
AcDbLine
 10
45.40675529940926
 20
806.6413771447987
 30
0.0
 11
34.58143775209464
 21
812.8913771447987
 31
0.0
  0
LINE
  5
FC2
330
2
100
AcDbEntity
  8
HB_PANELS
 62
     8
100
AcDbLine
 10
23.75612020480184
 20
794.1413771447987
 30
0.0
 11
12.93080265748722
 21
800.3913771447987
 31
0.0
  0
LINE
  5
FC3
330
2
100
AcDbEntity
  8
HB_PANELS
 62
     8
100
AcDbLine
 10
2.105485110187146
 20
619.1413771447987
 30
0.0
 11
2.105485110194422
 21
744.1413771447987
 31
0.0
  0
LINE
  5
FC4
330
2
100
AcDbEntity
  8
HB_PANELS
 62
     8
100
AcDbLine
 10
12.93080265749449
 20
612.8913771447987
 30
0.0
 11
2.105485110187146
 21
619.1413771447987
 31
0.0
  0
LINE
  5
FC5
330
2
100
AcDbEntity
  8
HB_PANELS
 62
     8
100
AcDbLine
 10
-95.32237281555717
 20
725.3913771447987
 30
0.0
 11
-106.1476903628718
 21
731.6413771447987
 31
0.0
  0
LINE
  5
FC6
330
2
100
AcDbEntity
  8
HB_PANELS
 62
     8
100
AcDbLine
 10
-116.9730079101646
 20
712.8913771447987
 30
0.0
 11
-127.7983254574792
 21
719.1413771447987
 31
0.0
  0
LINE
  5
FC7
330
2
100
AcDbEntity
  8
HB_PANELS
 62
     8
100
AcDbLine
 10
-181.9249131940014
 20
675.3913771447987
 30
0.0
 11
-192.750230741316
 21
681.6413771447987
 31
0.0
  0
LINE
  5
FC8
330
2
100
AcDbEntity
  8
HB_PANELS
 62
     8
100
AcDbLine
 10
-304.2197770750848
 20
617.2844045625448
 30
0.0
 11
111.4411923379812
 21
857.2663771447988
 31
0.0
  0
LINE
  5
FC9
330
2
100
AcDbEntity
  8
HB_PANELS
 62
     8
100
AcDbLine
 10
-206.7919191493347
 20
661.0344045625358
 30
0.0
 11
-217.6172366966493
 21
667.2844045625358
 31
0.0
  0
LINE
  5
FCA
330
2
100
AcDbEntity
  8
HB_PANELS
 62
     8
100
AcDbLine
 10
-304.2197770751009
 20
367.2844045625388
 30
0.0
 11
-304.2197770751009
 21
442.284404562554
 31
0.0
  0
LINE
  5
FCB
330
2
100
AcDbEntity
  8
HB_PANELS
 62
     8
100
AcDbLine
 10
-228.442554243964
 20
486.0344045625534
 30
0.0
 11
-217.6172366966566
 21
479.7844045625534
 31
0.0
  0
LINE
  5
FCC
330
2
100
AcDbEntity
  8
HB_PANELS
 62
     8
100
AcDbLine
 10
-228.442554243964
 20
486.0344045625534
 30
0.0
 11
-228.442554243964
 21
611.0344045625342
 31
0.0
  0
LINE
  5
FCD
330
2
100
AcDbEntity
  8
HB_PANELS
 62
     8
100
AcDbLine
 10
-84.49705526825709
 20
569.1413771447987
 30
0.0
 11
2.105485110187146
 21
619.1413771447987
 31
0.0
  0
LINE
  5
FCE
330
2
100
AcDbEntity
  8
HB_PANELS
 62
     8
100
AcDbLine
 10
-304.2197770751009
 20
442.2844045625534
 30
0.0
 11
-228.442554243964
 21
486.0344045625534
 31
0.0
  0
LINE
  5
FCF
330
2
100
AcDbEntity
  8
HB_PANELS
 62
     8
100
AcDbLine
 10
-405.4392018510989
 20
513.223466704192
 30
0.0
 11
-416.2645193984062
 21
506.973466704192
 31
0.0
  0
LINE
  5
FD0
330
2
100
AcDbEntity
  8
HB_PANELS
 62
     8
100
AcDbLine
 10
-405.4392018510989
 20
513.223466704192
 30
0.0
 11
-293.3944595277935
 21
448.5344045625388
 31
0.0
  0
LINE
  5
FD2
330
2
100
AcDbEntity
  8
HB_PANELS
 62
     8
100
AcDbLine
 10
-416.2645193984062
 20
469.4734667041775
 30
0.0
 11
-354.952868913002
 21
434.0751687919691
 31
0.0
  0
LINE
  5
FD3
330
2
100
AcDbEntity
  8
HB_PANELS
 62
     8
100
AcDbLine
 10
-84.49705526825709
 20
519.1413771447987
 30
0.0
 11
12.93080265749449
 21
575.3913771447987
 31
0.0
  0
LINE
  5
FD4
330
2
100
AcDbEntity
  8
HB_PANELS
 62
     8
100
AcDbLine
 10
-84.49705526825709
 20
556.6413771447987
 30
0.0
 11
12.93080265749449
 21
612.8913771447987
 31
0.0
  0
LINE
  5
FD5
330
2
100
AcDbEntity
  8
HB_PANELS
 62
     8
100
AcDbLine
 10
-95.32237281556446
 20
687.8913771447987
 30
0.0
 11
-95.32237281556446
 21
725.3913771447987
 31
0.0
  0
LINE
  5
FD6
330
2
100
AcDbEntity
  8
HB_PANELS
 62
     8
100
AcDbLine
 10
23.75612020480184
 20
756.6413771447987
 30
0.0
 11
23.75612020480184
 21
794.1413771447987
 31
0.0
  0
LINE
  5
FD7
330
2
100
AcDbEntity
  8
HB_PANELS
 62
     8
100
AcDbLine
 10
-181.9249131940087
 20
425.3913771447987
 30
0.0
 11
-181.9249131940087
 21
675.3913771447987
 31
0.0
  0
LINE
  5
FD8
330
2
100
AcDbEntity
  8
HB_PANELS
 62
     8
100
AcDbLine
 10
-116.9730079101718
 20
476.1422396883427
 30
0.0
 11
-116.9730079101718
 21
712.8913771447987
 31
0.0
  0
LINE
  5
FD9
330
2
100
AcDbEntity
  8
HB_PANELS
 62
     8
100
AcDbLine
 10
-95.32237281556446
 20
687.8913771447987
 30
0.0
 11
23.75612020480184
 21
756.6413771447987
 31
0.0
  0
LINE
  5
FDB
330
2
100
AcDbEntity
  8
HB_PANELS
 62
     8
100
AcDbLine
 10
-293.3944595277935
 20
398.5344045625243
 30
0.0
 11
-217.6172366966566
 21
442.2844045625388
 31
0.0
  0
LINE
  5
FDC
330
2
100
AcDbEntity
  8
HB_PANELS
 62
     8
100
AcDbLine
 10
-217.6172366966566
 20
404.7844045625388
 30
0.0
 11
-217.6172366966566
 21
617.284404562535
 31
0.0
  0
LINE
  5
FDD
330
2
100
AcDbEntity
  8
HB_PANELS
 62
     8
100
AcDbLine
 10
-84.49705526825709
 20
481.6413771447987
 30
0.0
 11
-84.49705526825709
 21
694.1413771447987
 31
0.0
  0
LINE
  5
FDE
330
2
100
AcDbEntity
  8
HB_PANELS
 62
     8
100
AcDbLine
 10
12.93080265749449
 20
537.8913771447987
 30
0.0
 11
12.93080265749449
 21
750.3913771447987
 31
0.0
  0
LINE
  5
FDF
330
2
100
AcDbEntity
  8
HB_PANELS
 62
     8
100
AcDbLine
 10
45.40675529941654
 20
566.6413771448133
 30
0.0
 11
45.40675529940926
 21
806.6413771447987
 31
0.0
  0
LINE
  5
FE0
330
2
100
AcDbEntity
  8
HB_PANELS
 62
     8
100
AcDbLine
 10
77.88270794133132
 20
585.3913771448133
 30
0.0
 11
77.88270794132404
 21
825.3913771447987
 31
0.0
  0
LINE
  5
FE1
330
2
100
AcDbEntity
  8
HB_PANELS
 62
     8
100
AcDbLine
 10
133.0918274325959
 20
832.2663771447988
 30
0.0
 11
143.9171449799032
 21
838.5163771447988
 31
0.0
  0
LINE
  5
FE2
330
2
100
AcDbEntity
  8
HB_PANELS
 62
     8
100
AcDbLine
 10
165.5677800745106
 20
813.5163771447988
 30
0.0
 11
176.393097621818
 21
819.7663771447988
 31
0.0
  0
LINE
  5
FE3
330
2
100
AcDbEntity
  8
HB_PANELS
 62
     8
100
AcDbLine
 10
187.2184151691181
 20
801.0163771447988
 30
0.0
 11
198.0437327164254
 21
807.2663771447988
 31
0.0
  0
LINE
  5
FE4
330
2
100
AcDbEntity
  8
HB_PANELS
 62
     8
100
AcDbLine
 10
354.0686685952387
 20
704.6853384148707
 30
0.0
 11
364.8939861425461
 21
710.9353384148707
 31
0.0
  0
LINE
  5
FE5
330
2
100
AcDbEntity
  8
HB_PANELS
 62
     8
100
AcDbLine
 10
375.7193036898534
 20
692.1853384148707
 30
0.0
 11
386.5446212371608
 21
698.4353384148707
 31
0.0
  0
LINE
  5
FE6
330
2
100
AcDbEntity
  8
HB_PANELS
 62
     8
100
AcDbLine
 10
408.1952563317681
 20
673.4353384148707
 30
0.0
 11
419.0205738790755
 21
679.6853384148707
 31
0.0
  0
LINE
  5
FE7
330
2
100
AcDbEntity
  8
HB_PANELS
 62
     8
100
AcDbLine
 10
440.6712089736902
 20
667.1853384148707
 30
0.0
 11
111.441192337978
 21
857.2663771447968
 31
0.0
  0
LINE
  5
FE8
330
2
100
AcDbEntity
  8
HB_PANELS
 62
     8
100
AcDbLine
 10
765.4307353928452
 20
842.1853384148853
 30
0.0
 11
765.430735392838
 21
304.6853384148708
 31
0.0
  0
LINE
  5
FE9
330
2
100
AcDbEntity
  8
HB_PANELS
 62
     8
100
AcDbLine
 10
765.4307353928452
 20
842.1853384148853
 30
0.0
 11
754.6054178455379
 21
848.4353384148853
 31
0.0
  0
LINE
  5
FEA
330
2
100
AcDbEntity
  8
HB_PANELS
 62
     8
100
AcDbLine
 10
635.5269248251788
 20
767.1853384148853
 30
0.0
 11
635.5269248251934
 21
493.6119946578692
 31
0.0
  0
LINE
  5
FEB
330
2
100
AcDbEntity
  8
HB_PANELS
 62
     8
100
AcDbLine
 10
635.5269248251788
 20
767.1853384148853
 30
0.0
 11
624.7016072778787
 21
773.4353384148853
 31
0.0
  0
LINE
  5
FEC
330
2
100
AcDbEntity
  8
HB_PANELS
 62
     8
100
AcDbLine
 10
603.0509721832713
 20
748.4353384148853
 30
0.0
 11
603.0509721832713
 21
229.6853384148708
 31
0.0
  0
LINE
  5
FED
330
2
100
AcDbEntity
  8
HB_PANELS
 62
     8
100
AcDbLine
 10
603.0509721832713
 20
748.4353384148853
 30
0.0
 11
592.225654635964
 21
754.6853384148853
 31
0.0
  0
LINE
  5
FEE
330
2
100
AcDbEntity
  8
HB_PANELS
 62
     8
100
AcDbLine
 10
570.5750195413493
 20
729.6853384148853
 30
0.0
 11
570.5750195413493
 21
210.9353384148708
 31
0.0
  0
LINE
  5
FEF
330
2
100
AcDbEntity
  8
HB_PANELS
 62
     8
100
AcDbLine
 10
570.5750195413493
 20
729.6853384148853
 30
0.0
 11
559.7497019940419
 21
735.9353384148853
 31
0.0
  0
LINE
  5
FF0
330
2
100
AcDbEntity
  8
HB_PANELS
 62
     8
100
AcDbLine
 10
538.0990668994345
 20
710.9353384148707
 30
0.0
 11
538.0990668994345
 21
192.1853384148708
 31
0.0
  0
LINE
  5
FF1
330
2
100
AcDbEntity
  8
HB_PANELS
 62
     8
100
AcDbLine
 10
538.0990668994345
 20
710.9353384148707
 30
0.0
 11
527.2737493521272
 21
717.1853384148707
 31
0.0
  0
LINE
  5
FF2
330
2
100
AcDbEntity
  8
HB_PANELS
 62
     8
100
AcDbLine
 10
505.6231142575198
 20
692.1853384148707
 30
0.0
 11
505.6231142575198
 21
173.4353384148708
 31
0.0
  0
LINE
  5
FF3
330
2
100
AcDbEntity
  8
HB_PANELS
 62
     8
100
AcDbLine
 10
505.6231142575198
 20
692.1853384148707
 30
0.0
 11
494.7977967102124
 21
698.4353384148707
 31
0.0
  0
LINE
  5
FF4
330
2
100
AcDbEntity
  8
HB_PANELS
 62
     8
100
AcDbLine
 10
408.1952563317681
 20
673.4353384148707
 30
0.0
 11
408.1952563317681
 21
523.3110016440041
 31
0.0
  0
LINE
  5
FF5
330
2
100
AcDbEntity
  8
HB_PANELS
 62
     8
100
AcDbLine
 10
133.0918274325959
 20
832.2663771447988
 30
0.0
 11
133.0918274326031
 21
591.9389247714279
 31
0.0
  0
LINE
  5
FF6
330
2
100
AcDbEntity
  8
HB_PANELS
 62
     8
100
AcDbLine
 10
187.2184151691181
 20
801.0163771447988
 30
0.0
 11
187.2184151691253
 21
763.5163771447987
 31
0.0
  0
LINE
  5
FF7
330
2
100
AcDbEntity
  8
HB_PANELS
 62
     8
100
AcDbLine
 10
354.0686685952387
 20
704.6853384148707
 30
0.0
 11
354.0686685952387
 21
667.1853384148707
 31
0.0
  0
LINE
  5
FF8
330
2
100
AcDbEntity
  8
HB_PANELS
 62
     8
100
AcDbLine
 10
354.0686685952387
 20
667.1853384148707
 30
0.0
 11
187.2184151691253
 21
763.5163771447987
 31
0.0
  0
LINE
  5
FF9
330
2
100
AcDbEntity
  8
HB_PANELS
 62
     8
100
AcDbLine
 10
429.8458914263829
 20
410.9353384149435
 30
0.0
 11
111.4411923379521
 21
594.7663771447914
 31
0.0
  0
LINE
  5
FFA
330
2
100
AcDbEntity
  8
HB_PANELS
 62
     8
100
AcDbLine
 10
165.5677800745106
 20
813.5163771447988
 30
0.0
 11
165.5677800745106
 21
573.5163771447842
 31
0.0
  0
LINE
  5
FFB
330
2
100
AcDbEntity
  8
HB_PANELS
 62
     8
100
AcDbLine
 10
375.7193036898534
 20
692.1853384148707
 30
0.0
 11
375.7193036898534
 21
452.185338414929
 31
0.0
  0
LINE
  5
FFC
330
2
100
AcDbEntity
  8
HB_PANELS
 62
     8
100
AcDbLine
 10
198.0437327164254
 20
757.2663771447987
 30
0.0
 11
198.0437327164254
 21
554.7663771447987
 31
0.0
  0
LINE
  5
FFD
330
2
100
AcDbEntity
  8
HB_PANELS
 62
     8
100
AcDbLine
 10
198.0437327164254
 20
554.7663771447987
 30
0.0
 11
208.8690502637328
 21
561.0163771447987
 31
0.0
  0
LINE
  5
FFE
330
2
100
AcDbEntity
  8
HB_PANELS
 62
     8
100
AcDbLine
 10
208.8690502637328
 20
751.0163771447987
 30
0.0
 11
208.8690502637255
 21
561.0163771448132
 31
0.0
  0
LINE
  5
FFF
330
2
100
AcDbEntity
  8
HB_PANELS
 62
     8
100
AcDbLine
 10
343.2433510479386
 20
673.4353384148707
 30
0.0
 11
343.2433510479386
 21
470.9353384149144
 31
0.0
  0
LINE
  5
1000
330
2
100
AcDbEntity
  8
HB_PANELS
 62
     8
100
AcDbLine
 10
208.8690502637328
 20
561.0163771447987
 30
0.0
 11
343.2433510479386
 21
483.4353384148707
 31
0.0
  0
LINE
  5
1001
330
2
100
AcDbEntity
  8
HB_PANELS
 62
     8
100
AcDbLine
 10
111.4411923379739
 20
594.7663771447987
 30
0.0
 11
111.4411923379739
 21
844.7663771447988
 31
0.0
  0
LINE
  5
1002
330
2
100
AcDbEntity
  8
HB_PANELS
 62
     8
100
AcDbLine
 10
-427.0898369457135
 20
688.2234667041895
 30
0.0
 11
-416.2645193984062
 21
694.4734667041895
 31
0.0
  0
LINE
  5
1003
330
2
100
AcDbEntity
  8
HB_PANELS
 62
     8
100
AcDbLine
 10
-416.2645193984062
 20
431.9734667041775
 30
0.0
 11
-416.2645193984062
 21
606.3011341539512
 31
0.0
  0
LINE
  5
1004
330
2
100
AcDbEntity
  8
HB_PANELS
 62
     8
100
AcDbLine
 10
-293.3944595277935
 20
361.0344045625388
 30
0.0
 11
-293.3944595277935
 21
436.0344045625534
 31
0.0
  0
LINE
  5
1005
330
2
100
AcDbEntity
  8
HB_PANELS
 62
     8
100
AcDbLine
 10
-448.740472040321
 20
450.7234667041775
 30
0.0
 11
-448.740472040321
 21
700.723466704192
 31
0.0
  0
LINE
  5
1006
330
2
100
AcDbEntity
  8
HB_PANELS
 62
     8
100
AcDbLine
 10
473.1471616155977
 20
673.4353384148707
 30
0.0
 11
462.3218440682976
 21
679.6853384148707
 31
0.0
  0
LINE
  5
1007
330
2
100
AcDbEntity
  8
HB_PANELS
 62
     8
100
AcDbLine
 10
440.6712089736829
 20
654.6853384148707
 30
0.0
 11
111.4411923379739
 21
844.7663771447988
 31
0.0
  0
LINE
  5
1008
330
2
100
AcDbEntity
  8
HB_PANELS
 62
     8
100
AcDbLine
 10
429.8458914263829
 20
660.9353384148707
 30
0.0
 11
754.6054178455524
 21
848.4353384148707
 31
0.0
  0
LINE
  5
1009
330
2
100
AcDbEntity
  8
HB_PANELS
 62
     8
100
AcDbLine
 10
429.8458914263829
 20
660.9353384148707
 30
0.0
 11
429.8458914263756
 21
142.1853384148707
 31
0.0
  0
LINE
  5
100A
330
2
100
AcDbEntity
  8
HB_PANELS
 62
     8
100
AcDbLine
 10
440.6712089736829
 20
654.6853384148707
 30
0.0
 11
440.6712089736829
 21
135.9353384148707
 31
0.0
  0
LINE
  5
100B
330
2
100
AcDbEntity
  8
HB_PANELS
 62
     8
100
AcDbLine
 10
473.1471616155977
 20
673.4353384148707
 30
0.0
 11
473.1471616155977
 21
154.6853384148708
 31
0.0
  0
LINE
  5
100C
330
2
100
AcDbEntity
  8
HB_PANELS
 62
     8
100
AcDbLine
 10
440.6712089736829
 20
654.6853384148707
 30
0.0
 11
765.4307353928524
 21
842.1853384148707
 31
0.0
  0
LINE
  5
100D
330
2
100
AcDbEntity
  8
HB_PANELS
 62
     8
100
AcDbLine
 10
-448.740472040321
 20
700.723466704192
 30
0.0
 11
-437.9151544930136
 21
706.973466704192
 31
0.0
  0
LINE
  5
100E
330
2
100
AcDbEntity
  8
HB_PANELS
 62
     8
100
AcDbLine
 10
-741.0240458175685
 20
869.4734667041775
 30
0.0
 11
-730.1987282702684
 21
875.7234667041775
 31
0.0
  0
LINE
  5
100F
330
2
100
AcDbEntity
  8
HB_PANELS
 62
     8
100
AcDbLine
 10
-293.394459527777
 20
611.0344045625439
 30
0.0
 11
111.4411923379739
 21
844.7663771447988
 31
0.0
  0
LINE
  5
1010
330
2
100
AcDbEntity
  8
HB_PANELS
 62
     8
100
AcDbLine
 10
-293.3944595277935
 20
361.0344045625388
 30
0.0
 11
-282.5691419804861
 21
367.2844045625388
 31
0.0
  0
LINE
  5
1011
330
2
100
AcDbEntity
  8
HB_PANELS
 62
     8
100
AcDbLine
 10
-730.1987282702684
 20
875.7234667041775
 30
0.0
 11
-293.3944595277991
 21
623.5344045625335
 31
0.0
  0
LINE
  5
1012
330
2
100
AcDbEntity
  8
HB_PANELS
 62
     8
100
AcDbLine
 10
-741.0240458175685
 20
619.4734667041775
 30
0.0
 11
-741.0240458175685
 21
869.4734667041775
 31
0.0
  0
LINE
  5
1013
330
2
100
AcDbEntity
  8
HB_PANELS
 62
     8
100
AcDbLine
 10
-741.0240458175685
 20
869.4734667041775
 30
0.0
 11
-293.394459527777
 21
611.0344045625439
 31
0.0
  0
LINE
  5
1014
330
2
100
AcDbEntity
  8
HB_PANELS
 62
     8
100
AcDbLine
 10
357.3318760611583
 20
369.0693521237408
 30
0.0
 11
357.3318760611655
 21
350.3193521237408
 31
0.0
  0
LINE
  5
1015
330
2
100
AcDbEntity
  8
HB_PANELS
 62
     8
100
AcDbLine
 10
38.92717697275657
 20
562.9003908536687
 30
0.0
 11
38.92717697275657
 21
534.1503908536687
 31
0.0
  0
LINE
  5
1016
330
2
100
AcDbEntity
  8
HB_PANELS
 62
     8
100
AcDbLine
 10
-293.3944595277935
 20
361.0344045625388
 30
0.0
 11
-293.3944595277935
 21
342.2844045625388
 31
0.0
  0
LINE
  5
1017
330
2
100
AcDbEntity
  8
HB_PANELS
 62
     8
100
AcDbLine
 10
-741.0240458175685
 20
619.4734667041775
 30
0.0
 11
-741.0240458175685
 21
600.7234667041775
 31
0.0
  0
LINE
  5
1018
330
2
100
AcDbEntity
  8
HB_PANELS
 62
     8
100
AcDbLine
 10
-741.0240458175685
 20
600.7234667041775
 30
0.0
 11
-619.1745096551894
 21
530.3736042001983
 31
0.0
  0
LINE
  5
1019
330
2
100
AcDbEntity
  8
HB_PANELS
 62
     8
100
AcDbLine
 10
-293.3944595277935
 20
342.2844045625388
 30
0.0
 11
-138.2560127045435
 21
431.8536285976152
 31
0.0
  0
LINE
  5
101A
330
2
100
AcDbEntity
  8
HB_PANELS
 62
     8
100
AcDbLine
 10
38.9271769727493
 20
534.1503908536833
 30
0.0
 11
357.3318760611583
 21
350.3193521237408
 31
0.0
  0
LINE
  5
101B
330
2
100
AcDbEntity
  8
HB_PANELS
 62
     8
100
AcDbLine
 10
357.3318760611583
 20
350.3193521237408
 30
0.0
 11
429.8458914263829
 21
392.1853384148854
 31
0.0
  0
LINE
  5
101C
330
2
100
AcDbEntity
  8
HB_PANELS
 62
     8
100
AcDbLine
 10
357.3318760611583
 20
369.0693521237408
 30
0.0
 11
429.8458914263829
 21
410.9353384148853
 31
0.0
  0
LINE
  5
101D
330
2
100
AcDbEntity
  8
HB_PANELS
 62
     8
100
AcDbLine
 10
38.92717697275657
 20
552.9003908536687
 30
0.0
 11
357.3318760611583
 21
369.0693521237408
 31
0.0
  0
LINE
  5
101E
330
2
100
AcDbEntity
  8
HB_PANELS
 62
     8
100
AcDbLine
 10
-293.3944595277935
 20
361.0344045625388
 30
0.0
 11
-138.2560127045508
 21
450.6036285976006
 31
0.0
  0
LINE
  5
101F
330
2
100
AcDbEntity
  8
HB_PANELS
 62
     8
100
AcDbLine
 10
-741.0240458175685
 20
619.4734667041775
 30
0.0
 11
-626.3774855086666
 21
553.2822442481701
 31
0.0
  0
MTEXT
  5
1021
330
2
100
AcDbEntity
  8
HB_TEXT
100
AcDbMText
 10
42876.17445676073
 20
54470.88363846004
 30
0.0
 40
25.0
 41
1427.0
 71
     5
 72
     5
  1
{\L\C2;DETAIL 1.1.2 - VERTICAL WALL PANELS - ISOMETRIC MODEL DETAIL}
  7
ROMANS
 73
     1
 44
1.0
  0
LINE
  5
1396
330
2
100
AcDbEntity
  8
HB_PANELS
 62
     8
100
AcDbLine
 10
38.92717697275657
 20
552.9003908536634
 30
0.0
 11
111.4411923379521
 21
594.7663771447861
 31
0.0
  0
LINE
  5
1397
330
2
100
AcDbEntity
  8
HB_PANELS
100
AcDbLine
 10
440.6712089736803
 20
670.9353384148694
 30
0.0
 11
729.7071874867445
 21
837.8103384148715
 31
0.0
  0
LINE
  5
1398
330
2
100
AcDbEntity
  8
HB_PANELS
100
AcDbLine
 10
111.4411923379717
 20
861.0163771447966
 30
0.0
 11
114.6887876021665
 21
859.141377144795
 31
0.0
  0
LINE
  5
141A
330
2
100
AcDbEntity
  8
HB_PANELS
100
AcDbLine
 10
-11.42886753264406
 20
1028.205439286434
 30
0.0
 11
-6.016208758985385
 21
1031.330439286437
 31
0.0
  0
LINE
  5
1423
330
2
100
AcDbEntity
  8
HB_PANELS
100
AcDbLine
 10
-11.42886753264406
 20
1028.205439286434
 30
0.0
 11
-16.84152630629086
 21
1031.330439286438
 31
0.0
  0
LINE
  5
1424
330
2
100
AcDbEntity
  8
HB_PANELS
100
AcDbLine
 10
-16.84152630629086
 20
1031.330439286438
 30
0.0
 11
-16.84152630629814
 21
1250.080439286434
 31
0.0
  0
LINE
  5
1425
330
2
100
AcDbEntity
  8
HB_PANELS
100
AcDbLine
 10
-6.016208758985385
 20
1031.330439286437
 30
0.0
 11
-6.016208758992664
 21
1250.080439286441
 31
0.0
  0
LINE
  5
1426
330
2
100
AcDbEntity
  8
HB_PANELS
100
AcDbLine
 10
-271.2364886679716
 20
878.205439286452
 30
0.0
 11
-271.2364886679791
 21
1103.205439286448
 31
0.0
  0
LINE
  5
1427
330
2
100
AcDbEntity
  8
HB_PANELS
100
AcDbLine
 10
-271.2364886679768
 20
878.2054392864491
 30
0.0
 11
-265.8238298943181
 21
881.330439286452
 31
0.0
  0
LINE
  5
1428
330
2
100
AcDbEntity
  8
HB_PANELS
100
AcDbLine
 10
-271.2364886679768
 20
878.2054392864491
 30
0.0
 11
-276.6491474416236
 21
881.3304392864525
 31
0.0
  0
LINE
  5
1429
330
2
100
AcDbEntity
  8
HB_PANELS
100
AcDbLine
 10
-276.6491474416236
 20
881.3304392864525
 30
0.0
 11
-276.6491474416309
 21
1100.080439286448
 31
0.0
  0
LINE
  5
142A
330
2
100
AcDbEntity
  8
HB_PANELS
100
AcDbLine
 10
-265.8238298943181
 20
881.330439286452
 30
0.0
 11
-265.8238298943257
 21
1106.330439286431
 31
0.0
  0
LINE
  5
142B
330
2
100
AcDbEntity
  8
HB_PANELS
 62
     8
100
AcDbLine
 10
-265.8238298943183
 20
887.5804392864386
 30
0.0
 11
-16.84152630629086
 21
1031.330439286438
 31
0.0
  0
LINE
  5
142C
330
2
100
AcDbEntity
  8
HB_PANELS
100
AcDbLine
 10
-498.568157161404
 20
746.9554392864478
 30
0.0
 11
-498.5681571614041
 21
971.9554392864374
 31
0.0
  0
LINE
  5
142D
330
2
100
AcDbEntity
  8
HB_PANELS
100
AcDbLine
 10
-498.568157161402
 20
746.955439286449
 30
0.0
 11
-493.1554983877433
 21
750.080439286452
 31
0.0
  0
LINE
  5
142E
330
2
100
AcDbEntity
  8
HB_PANELS
100
AcDbLine
 10
-498.568157161402
 20
746.955439286449
 30
0.0
 11
-503.9808159350488
 21
750.0804392864524
 31
0.0
  0
LINE
  5
142F
330
2
100
AcDbEntity
  8
HB_PANELS
100
AcDbLine
 10
-503.9808159350488
 20
750.0804392864524
 30
0.0
 11
-503.9808159350561
 21
968.8304392864484
 31
0.0
  0
LINE
  5
1430
330
2
100
AcDbEntity
  8
HB_PANELS
100
AcDbLine
 10
-493.1554983877433
 20
750.080439286452
 30
0.0
 11
-493.1554983877509
 21
975.0804392864317
 31
0.0
  0
LINE
  5
1431
330
2
100
AcDbEntity
  8
HB_PANELS
 62
     8
100
AcDbLine
 10
-493.1554983877435
 20
756.3304392864343
 30
0.0
 11
-276.6491474416236
 21
881.330439286439
 31
0.0
  0
LINE
  5
1432
330
2
100
AcDbEntity
  8
HB_PANELS
 62
     8
100
AcDbLine
 10
208.8690502637061
 20
663.516377144829
 30
0.0
 11
284.6462730948291
 21
707.2663771448225
 31
0.0
  0
LINE
  5
1433
330
2
100
AcDbEntity
  8
HB_PANELS
 62
     8
100
AcDbLine
 10
331.1951385482364
 20
734.1413771448202
 30
0.0
 11
414.5500836625397
 21
782.2663771448531
 31
0.0
  0
LINE
  5
1434
330
2
100
AcDbEntity
  8
HB_PANELS
 62
     8
100
AcDbLine
 10
111.441192337978
 20
857.2663771447968
 30
0.0
 11
403.7247661152288
 21
1026.016377144796
 31
0.0
  0
LINE
  5
1435
330
2
100
AcDbEntity
  8
HB_PANELS
 62
     8
100
AcDbLine
 10
122.2665098852801
 20
851.0163771447992
 30
0.0
 11
414.5500836625318
 21
1019.766377144798
 31
0.0
  0
LINE
  5
1436
330
2
100
AcDbEntity
  8
HB_PANELS
100
AcDbLine
 10
125.5141051494684
 20
852.8913771447973
 30
0.0
 11
440.6712089736803
 21
670.9353384148694
 31
0.0
  0
LINE
  5
1437
330
2
100
AcDbEntity
  8
HB_PANELS
100
AcDbLine
 10
419.9627424361546
 20
785.3913771448309
 30
0.0
 11
419.9627424361546
 21
1004.141377144815
 31
0.0
  0
LINE
  5
1438
330
2
100
AcDbEntity
  8
HB_PANELS
100
AcDbLine
 10
414.5500836625397
 20
782.2663771448531
 30
0.0
 11
414.5500836625322
 21
1007.266377144797
 31
0.0
  0
LINE
  5
1439
330
2
100
AcDbEntity
  8
HB_PANELS
100
AcDbLine
 10
414.5500836624959
 20
782.2663771448279
 30
0.0
 11
419.9627424361546
 21
785.3913771448309
 31
0.0
  0
LINE
  5
143A
330
2
100
AcDbEntity
  8
HB_PANELS
 62
     8
100
AcDbLine
 10
203.4563914900801
 20
910.3913771447995
 30
0.0
 11
-6.016208758985386
 21
1031.330439286437
 31
0.0
  0
LINE
  5
143B
330
2
100
AcDbEntity
  8
HB_PANELS
100
AcDbLine
 10
392.8994485679227
 20
1019.766377144796
 30
0.0
 11
-11.42886753263883
 21
1253.205439286437
 31
0.0
  0
LINE
  5
143C
330
2
100
AcDbEntity
  8
HB_PANELS
 62
     8
100
AcDbLine
 10
414.5500836625322
 20
1007.266377144797
 30
0.0
 11
414.5500836625318
 21
1019.766377144798
 31
0.0
  0
LINE
  5
143D
330
2
100
AcDbEntity
  8
HB_PANELS
 62
     8
100
AcDbLine
 10
389.1078817176441
 20
1003.205439286468
 30
0.0
 11
389.1078817176441
 21
767.5773150031897
 31
0.0
  0
LINE
  5
143E
330
2
100
AcDbEntity
  8
HB_PANELS
 62
     8
100
AcDbLine
 10
356.6319290757293
 20
984.4554392864683
 30
0.0
 11
356.6319290757293
 21
748.8273150031893
 31
0.0
  0
LINE
  5
143F
330
2
100
AcDbEntity
  8
HB_PANELS
 62
     8
100
AcDbLine
 10
324.1559764338145
 20
965.7054392864683
 30
0.0
 11
324.1559764338146
 21
738.2054392864512
 31
0.0
  0
LINE
  5
1440
330
2
100
AcDbEntity
  8
HB_PANELS
 62
     8
100
AcDbLine
 10
291.6800237918925
 20
946.9554392864683
 30
0.0
 11
291.6800237919026
 21
756.9554392864481
 31
0.0
  0
LINE
  5
1441
330
2
100
AcDbEntity
  8
HB_PANELS
 62
     8
100
AcDbLine
 10
259.204071149985
 20
928.2054392864683
 30
0.0
 11
259.204071149985
 21
775.7054392864485
 31
0.0
  0
LINE
  5
1442
330
2
100
AcDbEntity
  8
HB_PANELS
 62
     8
100
AcDbLine
 10
226.728118508063
 20
909.4554392864683
 30
0.0
 11
226.728118508063
 21
794.4554392864514
 31
0.0
  0
LINE
  5
1443
330
2
100
AcDbEntity
  8
HB_PANELS
 62
     8
100
AcDbLine
 10
194.2521658661481
 20
890.7054392864537
 30
0.0
 11
194.2521658661481
 21
813.20543928645
 31
0.0
  0
LINE
  5
1444
330
2
100
AcDbEntity
  8
HB_PANELS
 62
     8
100
AcDbLine
 10
161.7762132242334
 20
871.9554392864537
 30
0.0
 11
161.7762132242334
 21
831.9554392864485
 31
0.0
  0
LINE
  5
1446
330
2
100
AcDbEntity
  8
HB_PANELS
 62
     8
100
AcDbLine
 10
259.204071149985
 20
721.955439286456
 30
0.0
 11
259.204071149985
 21
692.5773150031891
 31
0.0
  0
LINE
  5
1447
330
2
100
AcDbEntity
  8
HB_PANELS
 62
     8
100
AcDbLine
 10
226.728118508063
 20
740.7054392864599
 30
0.0
 11
226.728118508063
 21
673.8273150031849
 31
0.0
  0
LINE
  5
1448
330
2
100
AcDbEntity
  8
HB_PANELS
 62
     8
100
AcDbLine
 10
-293.3944595277743
 20
573.534404562549
 30
0.0
 11
-206.791919149342
 21
623.5344045625399
 31
0.0
  0
LINE
  5
1449
330
2
100
AcDbEntity
  8
HB_PANELS
 62
     8
100
AcDbLine
 10
-427.0898369457135
 20
650.7234667041895
 30
0.0
 11
-353.0040657413099
 21
607.9500267562146
 31
0.0
  0
LINE
  5
144A
330
2
100
AcDbEntity
  8
HB_PANELS
 62
     8
100
AcDbLine
 10
-206.791919149342
 20
623.5344045625399
 30
0.0
 11
-206.791919149342
 21
661.0344045625399
 31
0.0
  0
LINE
  5
144B
330
2
100
AcDbEntity
  8
HB_PANELS
 62
     8
100
AcDbLine
 10
-293.3944595277743
 20
573.534404562549
 30
0.0
 11
-293.3944595277743
 21
611.034404562549
 31
0.0
  0
LINE
  5
144C
330
2
100
AcDbEntity
  8
HB_PANELS
 62
     8
100
AcDbLine
 10
-427.0898369457135
 20
650.7234667041895
 30
0.0
 11
-427.0898369457135
 21
688.2234667041895
 31
0.0
  0
LINE
  5
144D
330
2
100
AcDbEntity
  8
HB_PANELS
 62
     8
100
AcDbLine
 10
-304.2197770750843
 20
579.7844045625504
 30
0.0
 11
-304.2197770750843
 21
617.2844045625445
 31
0.0
  0
CIRCLE
  5
1453
330
2
100
AcDbEntity
  8
HB_DIMS
 62
     6
100
AcDbCircle
 10
-341.2001781498475
 20
595.0935029997927
 30
0.0
 40
17.45342274086433
  0
TEXT
  5
1454
330
2
100
AcDbEntity
  8
HB_DIMS
100
AcDbText
 10
-350.385634648068
 20
584.5876597637252
 30
0.0
 40
20.0
  1
H
  7
ARIAL
100
AcDbText
  0
LINE
  5
1455
330
2
100
AcDbEntity
  8
HB_DIMS
  6
HIDDEN2
 48
0.1
100
AcDbLine
 10
-362.67920736003
 20
633.6417814715677
 30
0.0
 11
-339.110403090177
 21
647.24923696123
 31
0.0
  0
LINE
  5
1456
330
2
100
AcDbEntity
  8
HB_DIMS
  6
HIDDEN2
 48
0.1
100
AcDbLine
 10
-345.0685051673718
 20
650.6891487993852
 30
0.0
 11
-333.1523010129676
 21
643.8093251231038
 31
0.0
  0
LINE
  5
1457
330
2
100
AcDbEntity
  8
HB_DIMS
  6
HIDDEN2
100
AcDbLine
 10
-333.1523010129676
 20
643.8093251231038
 30
0.0
 11
-331.3145993633589
 21
651.7501463414665
 31
0.0
  0
LINE
  5
1458
330
2
100
AcDbEntity
  8
HB_DIMS
  6
HIDDEN2
100
AcDbLine
 10
-331.3145993633589
 20
651.7501463414665
 30
0.0
 11
-345.0685051673718
 21
650.6891487993852
 31
0.0
  0
LINE
  5
1459
330
2
100
AcDbEntity
  8
HB_DIMS
  6
HIDDEN2
100
AcDbLine
 10
-254.4394726729152
 20
607.3662712527293
 30
0.0
 11
-268.1933784769281
 21
606.3052737106481
 31
0.0
  0
LINE
  5
145A
330
2
100
AcDbEntity
  8
HB_DIMS
  6
HIDDEN2
100
AcDbLine
 10
-256.2771743225239
 20
599.4254500343668
 30
0.0
 11
-254.4394726729152
 21
607.3662712527293
 31
0.0
  0
LINE
  5
145B
330
2
100
AcDbEntity
  8
HB_DIMS
  6
HIDDEN2
 48
0.1
100
AcDbLine
 10
-268.1933784769281
 20
606.3052737106481
 30
0.0
 11
-256.2771743225239
 21
599.4254500343668
 31
0.0
  0
LINE
  5
145C
330
2
100
AcDbEntity
  8
HB_DIMS
  6
HIDDEN2
 48
0.1
100
AcDbLine
 10
-285.8040806695862
 20
589.2579063828306
 30
0.0
 11
-262.2352763997333
 21
602.8653618724929
 31
0.0
  0
LINE
  5
145D
330
2
100
AcDbEntity
  8
HB_DIMS
  6
HIDDEN2
 48
0.1
100
AcDbLine
 10
-362.67920736003
 20
633.6417814715677
 30
0.0
 11
-285.8040806695862
 21
589.2579063828306
 31
0.0
  0
TEXT
  5
145E
330
2
100
AcDbEntity
  8
HB_DIMS
100
AcDbText
 10
-434.4466937130419
 20
609.1381114281321
 30
0.0
 40
20.0
  1
F
  7
ARIAL
100
AcDbText
  0
CIRCLE
  5
145F
330
2
100
AcDbEntity
  8
HB_DIMS
 62
     6
100
AcDbCircle
 10
-427.4953096400677
 20
619.6611983723268
 30
0.0
 40
17.45342274086433
  0
LINE
  5
1460
330
2
100
AcDbEntity
  8
HB_DIMS
  6
HIDDEN
100
AcDbLine
 10
-375.7893604927121
 20
692.8627137455623
 30
0.0
 11
-375.7893604927121
 21
708.2882138058193
 31
0.0
  0
LINE
  5
1461
330
2
100
AcDbEntity
  8
HB_DIMS
100
AcDbLine
 10
-369.1099230335785
 20
704.4318387907551
 30
0.0
 11
-375.7893604927121
 21
708.2882138058193
 31
0.0
  0
LINE
  5
1462
330
2
100
AcDbEntity
  8
HB_DIMS
100
AcDbLine
 10
-369.1099230335785
 20
704.4318387907551
 30
0.0
 11
-375.7893604927121
 21
692.8627137455623
 31
0.0
  0
LINE
  5
1463
330
2
100
AcDbEntity
  8
HB_DIMS
  6
HIDDEN2
 48
0.1
100
AcDbLine
 10
-399.7677352537321
 20
686.7315426526911
 30
0.0
 11
-375.7893604927121
 21
700.5754637756909
 31
0.0
  0
LINE
  5
1464
330
2
100
AcDbEntity
  8
HB_DIMS
  6
HIDDEN2
 48
0.1
100
AcDbLine
 10
-399.7677352537321
 20
585.3372609748184
 30
0.0
 11
-399.7677352537321
 21
686.7315426526911
 31
0.0
  0
LINE
  5
1465
330
2
100
AcDbEntity
  8
HB_DIMS
  6
HIDDEN2
 48
0.1
100
AcDbLine
 10
-399.7677352537321
 20
585.3372609748184
 30
0.0
 11
-375.7893604927121
 21
599.1811820978182
 31
0.0
  0
LINE
  5
1466
330
2
100
AcDbEntity
  8
HB_DIMS
100
AcDbLine
 10
-369.1099230335785
 20
603.0375571128825
 30
0.0
 11
-375.7893604927121
 21
591.4684320676896
 31
0.0
  0
LINE
  5
1467
330
2
100
AcDbEntity
  8
HB_DIMS
100
AcDbLine
 10
-369.1099230335785
 20
603.0375571128825
 30
0.0
 11
-375.7893604927121
 21
606.8939321279467
 31
0.0
  0
LINE
  5
1468
330
2
100
AcDbEntity
  8
HB_DIMS
  6
HIDDEN
100
AcDbLine
 10
-375.7893604927121
 20
591.4684320676896
 30
0.0
 11
-375.7893604927121
 21
606.8939321279467
 31
0.0
  0
LINE
  5
1469
330
2
100
AcDbEntity
  8
HB_PANELS
 62
     8
100
AcDbLine
 10
-513.6923773241505
 20
680.9293916864525
 30
0.0
 11
-513.6923773241505
 21
738.2234667041775
 31
0.0
  0
LINE
  5
146A
330
2
100
AcDbEntity
  8
HB_PANELS
 62
     8
100
AcDbLine
 10
-416.2645193984062
 20
633.0212625907026
 30
0.0
 11
-416.2645193984062
 21
644.4734667041895
 31
0.0
  0
LINE
  5
146C
330
2
100
AcDbEntity
  8
HB_PANELS
 62
     8
100
AcDbLine
 10
-324.1641581766962
 20
591.2992983603841
 30
0.0
 11
-293.3944595277743
 21
573.534404562549
 31
0.0
  0
LINE
  5
146D
330
2
100
AcDbEntity
  8
HB_PANELS
 62
     8
100
AcDbLine
 10
-338.46555056737
 20
387.0562111069091
 30
0.0
 11
-293.3944595277935
 21
361.0344045625388
 31
0.0
  0
MTEXT
  5
146F
330
2
100
AcDbEntity
  8
HB_DIMS
100
AcDbMText
 10
-507.9027570979778
 20
599.115595472962
 30
0.0
 40
20.0
 41
98.63400004508003
 71
     1
 72
     5
  1
similar
  7
ARIAL
 73
     1
 44
1.0
 90
        3
 63
   256
 45
1.0
441
  3939182
1001
ACAD
1000
ACAD_MTEXT_DEFINED_HEIGHT_BEGIN
1070
    46
1040
21.8430460079835
1000
ACAD_MTEXT_DEFINED_HEIGHT_END
  0
VIEWPORT
  5
1A9
330
1A8
100
AcDbEntity
 67
     1
  8
0
100
AcDbViewport
 10
830.4677055653209
 20
-24.34124316505896
 30
0.0
 40
464.5935969695845
 41
314.2596759643556
 68
     1
 69
     1
 12
830.4677055653209
 22
-24.34124316505896
 13
0.0
 23
0.0
 14
1.0
 24
1.0
 15
1900.0
 25
1900.0
 16
0.0
 26
0.0
 36
1.0
 17
0.0
 27
0.0
 37
0.0
 42
50.0
 43
0.0
 44
0.0
 45
314.2596759643556
 50
0.0
 51
0.0
 72
 20000
 90
    32768
  1

281
     0
 71
     1
 74
     0
110
0.0
120
0.0
130
0.0
111
1.0
121
0.0
131
0.0
112
0.0
122
1.0
132
0.0
 79
     0
146
0.0
170
     0
  0
VIEWPORT
  5
699
330
1A8
100
AcDbEntity
 67
     1
  8
DEFPOINTS
100
AcDbViewport
 10
829.7367535220336
 20
-4.501353176851921
 30
0.0
 40
185.7497931246362
 41
137.1163782623796
 68
     2
 69
     2
 12
-23188.09271593134
 22
-33372.98663374905
 13
0.0
 23
0.0
 14
1.0
 24
1.0
 15
1900.0
 25
1900.0
 16
0.0
 26
0.0
 36
1.0
 17
23187.54216236222
 27
34067.94128341666
 37
1200.0
 42
50.0
 43
0.0
 44
0.0
 45
1371.163783768503
 50
0.0
 51
0.0
 72
 20000
 90
    36864
  1

281
     0
 71
     1
 74
     0
110
0.0
120
0.0
130
0.0
111
1.0
121
0.0
131
0.0
112
0.0
122
1.0
132
0.0
 79
     0
146
0.0
170
     0
  0
INSERT
  5
12D0
330
1A8
100
AcDbEntity
 67
     1
  8
Border
100
AcDbBlockReference
 66
     1
  2
A4 Title Block
 10
789.6821722025131
 20
-140.4651203794818
 30
0.0
  0
ATTRIB
  5
12D1
330
12D0
100
AcDbEntity
 67
     1
  8
Title block
100
AcDbText
 10
829.262072503797
 20
-138.043710117004
 30
0.0
 40
4.0
  1
CIWS Vertical Wall Panels
100
AcDbAttribute
  2
TITLE
 70
     0
1001
AcDbAttr
1070
     0
1070
     1
  0
ATTRIB
  5
12D3
330
12D0
100
AcDbEntity
 67
     1
  8
Title block
100
AcDbText
 10
801.6274319427893
 20
-152.399553925978
 30
0.0
 40
2.5
  1
June 2013
100
AcDbAttribute
  2
DATE
 70
     0
1001
AcDbAttr
1070
     0
1070
     1
  0
ATTRIB
  5
12D4
330
12D0
100
AcDbEntity
 67
     1
  8
Title block
100
AcDbText
 10
852.918469204021
 20
-152.399553925978
 30
0.0
 40
2.5
  1
N.T.S.
100
AcDbAttribute
  2
SCALE
 70
     0
1001
AcDbAttr
1070
     0
1070
     1
  0
ATTRIB
  5
12D5
330
12D0
100
AcDbEntity
 67
     1
  8
Title block
100
AcDbText
 10
899.5425963865457
 20
-152.6158475363715
 30
0.0
 40
3.5
  1
20.1.1
100
AcDbAttribute
  2
DRGNO
 70
     0
1001
AcDbAttr
1070
     0
1070
     1
  0
ATTRIB
  5
12D6
330
12D0
100
AcDbEntity
 67
     1
  8
Title block
100
AcDbText
 10
829.262072503797
 20
-144.8990443767696
 30
0.0
 40
4.0
  1
          Isometric View
100
AcDbAttribute
  2
TITLE2
 70
     0
1001
AcDbAttr
1070
     0
1070
     1
  0
SEQEND
  5
12D7
330
12D0
100
AcDbEntity
 67
     1
  8
Border
  0
ENDSEC
  0
SECTION
  2
OBJECTS
  0
DICTIONARY
  5
6AC
330
0
100
AcDbDictionary
281
     1
  3
ACAD_CIP_PREVIOUS_PRODUCT_INFO
350
153B
  3
ACAD_COLOR
350
1061
  3
ACAD_DETAILVIEWSTYLE
350
1530
  3
ACAD_GROUP
350
6AA
  3
ACAD_IMAGE_DICT
350
12C9
  3
ACAD_IMAGE_VARS
350
12D2
  3
ACAD_LAYOUT
350
6CE
  3
ACAD_MATERIAL
350
1037
  3
ACAD_MLEADERSTYLE
350
1086
  3
ACAD_MLINESTYLE
350
6AB
  3
ACAD_PLOTSETTINGS
350
6CF
  3
ACAD_PLOTSTYLENAME
350
6CC
  3
ACAD_SCALELIST
350
1064
  3
ACAD_SECTIONVIEWSTYLE
350
152D
  3
ACAD_TABLESTYLE
350
1062
  3
ACAD_VISUALSTYLE
350
1050
  3
ACDB_RECOMPOSE_DATA
350
1610
  3
AcDbVariableDictionary
350
6D8
  3
AcDsDecomposeData
350
1616
  0
DICTIONARY
  5
124D
330
6A5
100
AcDbDictionary
280
     1
281
     1
  0
DICTIONARY
  5
C14
330
69D
100
AcDbDictionary
280
     1
281
     1
  3
ACAD_LAYERFILTERS
360
C15
  3
ACAD_LAYERSTATES
360
1094
  0
DICTIONARY
  5
123A
330
1A6
100
AcDbDictionary
280
     1
281
     1
  3
ADSK_XREC_LAYER_RECONCILED
360
123B
  0
DICTIONARY
  5
123C
330
4
100
AcDbDictionary
280
     1
281
     1
  3
ADSK_XREC_LAYER_RECONCILED
360
123D
  0
DICTIONARY
  5
1240
330
122
100
AcDbDictionary
280
     1
281
     1
  3
ADSK_XREC_LAYER_RECONCILED
360
1241
  0
DICTIONARY
  5
1242
330
6EB
100
AcDbDictionary
280
     1
281
     1
  3
ADSK_XREC_LAYER_RECONCILED
360
1243
  0
DICTIONARY
  5
1244
330
6EF
100
AcDbDictionary
280
     1
281
     1
  3
ADSK_XREC_LAYER_RECONCILED
360
1245
  0
DICTIONARY
  5
129C
330
129B
100
AcDbDictionary
280
     1
281
     1
  0
DICTIONARY
  5
129E
330
129D
100
AcDbDictionary
280
     1
281
     1
  0
DICTIONARY
  5
1544
330
1543
100
AcDbDictionary
280
     1
281
     1
  0
DICTIONARY
  5
132E
330
2
100
AcDbDictionary
280
     1
281
     1
  3
ACAD_SORTENTS
360
132F
  0
DICTIONARY
  5
12C5
330
12AE
100
AcDbDictionary
280
     1
281
     1
  3
ACAD_SORTENTS
360
1562
  0
DICTIONARY
  5
155F
330
155E
100
AcDbDictionary
280
     1
281
     1
  3
ACAD_MTEXT_2008_RT
360
160F
  0
IMAGEDEF_REACTOR
  5
1561
330
1560
100
AcDbRasterImageDefReactor
 90
        2
330
1560
  0
XRECORD
  5
153B
102
{ACAD_REACTORS
330
6AC
102
}
330
6AC
100
AcDbXrecord
280
     1
300
ACD
300
2013
300
ACD_F_S
  0
DICTIONARY
  5
1061
102
{ACAD_REACTORS
330
6AC
102
}
330
6AC
100
AcDbDictionary
281
     1
  0
DICTIONARY
  5
1530
102
{ACAD_REACTORS
330
6AC
102
}
330
6AC
100
AcDbDictionary
281
     1
  3
Imperial24
350
1531
  0
DICTIONARY
  5
6AA
102
{ACAD_REACTORS
330
6AC
102
}
330
6AC
100
AcDbDictionary
281
     1
  0
DICTIONARY
  5
12C9
102
{ACAD_REACTORS
330
6AC
102
}
330
6AC
100
AcDbDictionary
281
     1
  3
Hebel Supercrete Logo
350
12CA
  3
Hebel Supercrete Logo_1
350
12CB
  3
Supercrete Hi Res_1
350
1563
  0
RASTERVARIABLES
  5
12D2
102
{ACAD_REACTORS
330
6AC
102
}
330
6AC
100
AcDbRasterVariables
 90
        0
 70
     1
 71
     1
 72
     0
  0
DICTIONARY
  5
6CE
102
{ACAD_REACTORS
330
6AC
102
}
330
6AC
100
AcDbDictionary
281
     1
  3
20.1.1
350
6D1
  3
Model
350
6D0
  0
DICTIONARY
  5
1037
102
{ACAD_REACTORS
330
6AC
102
}
330
6AC
100
AcDbDictionary
281
     1
  3
ByBlock
350
1040
  3
ByLayer
350
1038
  3
Global
350
1048
  0
DICTIONARY
  5
1086
102
{ACAD_REACTORS
330
6AC
102
}
330
6AC
100
AcDbDictionary
281
     1
  3
Standard
350
1087
  0
DICTIONARY
  5
6AB
102
{ACAD_REACTORS
330
6AC
102
}
330
6AC
100
AcDbDictionary
281
     1
  3
STANDARD
350
6AD
  0
DICTIONARY
  5
6CF
102
{ACAD_REACTORS
330
6AC
102
}
330
6AC
100
AcDbDictionary
281
     1
  0
ACDBDICTIONARYWDFLT
  5
6CC
102
{ACAD_REACTORS
330
6AC
102
}
330
6AC
100
AcDbDictionary
281
     1
  3
Normal
350
6CD
100
AcDbDictionaryWithDefault
340
6CD
  0
DICTIONARY
  5
1064
102
{ACAD_REACTORS
330
6AC
102
}
330
6AC
100
AcDbDictionary
281
     1
  3
A0
350
1065
  3
A1
350
1066
  3
A2
350
1067
  3
A3
350
1068
  3
A4
350
1069
  3
A5
350
106A
  3
A6
350
106B
  3
A7
350
106C
  3
A8
350
106D
  3
A9
350
106E
  3
B0
350
106F
  3
B1
350
1070
  3
B2
350
1071
  3
B3
350
1072
  3
B4
350
1073
  3
B5
350
1074
  3
B6
350
1075
  3
B7
350
1076
  3
B8
350
1077
  3
B9
350
1078
  3
C0
350
1079
  3
C1
350
107A
  3
C2
350
107B
  3
C3
350
107C
  3
C4
350
107D
  3
C5
350
107E
  3
C6
350
107F
  3
C7
350
1080
  3
C8
350
1081
  3
C9
350
1082
  3
D0
350
1083
  3
D1
350
1084
  3
D2
350
1085
  0
DICTIONARY
  5
152D
102
{ACAD_REACTORS
330
6AC
102
}
330
6AC
100
AcDbDictionary
281
     1
  3
Imperial24
350
152F
  0
DICTIONARY
  5
1062
102
{ACAD_REACTORS
330
6AC
102
}
330
6AC
100
AcDbDictionary
281
     1
  3
Standard
350
1063
  0
DICTIONARY
  5
1050
102
{ACAD_REACTORS
330
6AC
102
}
330
6AC
100
AcDbDictionary
281
     1
  3
2dWireframe
350
1056
  3
3D Hidden
350
1058
  3
3dWireframe
350
1057
  3
Basic
350
1055
  3
Brighten
350
105C
  3
ColorChange
350
1060
  3
Conceptual
350
1059
  3
Dim
350
105B
  3
EdgeColorOff
350
152C
  3
Facepattern
350
105F
  3
Flat
350
1051
  3
FlatWithEdges
350
1052
  3
Gouraud
350
1053
  3
GouraudWithEdges
350
1054
  3
Hidden
350
1524
  3
JitterOff
350
152A
  3
Linepattern
350
105E
  3
OverhangOff
350
152B
  3
Realistic
350
105A
  3
Shaded
350
1529
  3
Shaded with edges
350
1528
  3
Shades of Gray
350
1525
  3
Sketchy
350
1526
  3
Thicken
350
105D
  3
Wireframe
350
1523
  3
X-Ray
350
1527
  0
XRECORD
  5
1610
102
{ACAD_REACTORS
330
6AC
102
}
330
6AC
100
AcDbXrecord
280
     1
 90
        1
330
1063
330
155E
  0
DICTIONARY
  5
6D8
102
{ACAD_REACTORS
330
6AC
102
}
330
6AC
100
AcDbDictionary
281
     1
  3
CANNOSCALE
350
1255
  3
CMLEADERSTYLE
350
1254
  3
CTABLESTYLE
350
1253
  3
CVIEWDETAILSTYLE
350
160C
  3
CVIEWSECTIONSTYLE
350
160D
  3
DIMASSOC
350
6D9
  0
DICTIONARY
  5
1616
102
{ACAD_REACTORS
330
6AC
102
}
330
6AC
100
AcDbDictionary
281
     1
  3
AcDsRecords
350
1618
  3
AcDsSchemas
350
1617
1001
ACAD
1070
     2
  0
DICTIONARY
  5
C15
102
{ACAD_REACTORS
330
C14
102
}
330
C14
100
AcDbDictionary
280
     1
281
     1
  3
DIMENSION
360
C16
  3
HB_X
360
C17
  0
DICTIONARY
  5
1094
102
{ACAD_REACTORS
330
C14
102
}
330
C14
100
AcDbDictionary
281
     1
  0
XRECORD
  5
123B
102
{ACAD_REACTORS
330
123A
102
}
330
123A
100
AcDbXrecord
280
     1
290
     1
  0
XRECORD
  5
123D
102
{ACAD_REACTORS
330
123C
102
}
330
123C
100
AcDbXrecord
280
     1
290
     1
  0
XRECORD
  5
1241
102
{ACAD_REACTORS
330
1240
102
}
330
1240
100
AcDbXrecord
280
     1
290
     1
  0
XRECORD
  5
1243
102
{ACAD_REACTORS
330
1242
102
}
330
1242
100
AcDbXrecord
280
     1
290
     1
  0
XRECORD
  5
1245
102
{ACAD_REACTORS
330
1244
102
}
330
1244
100
AcDbXrecord
280
     1
290
     1
  0
SORTENTSTABLE
  5
132F
102
{ACAD_REACTORS
330
132E
102
}
330
132E
100
AcDbSortentsTable
330
2
331
F3F
  5
F43
331
FB5
  5
FBB
331
F3B
  5
F3E
331
F76
  5
F7C
331
F37
  5
F3A
331
FB1
  5
FB7
331
F72
  5
F78
331
FEC
  5
FF3
331
FAD
  5
FB3
331
F33
  5
F36
331
FE8
  5
FEF
331
FA9
  5
FAF
331
1397
  5
1427
331
144A
  5
1453
331
E4E
  5
E4F
331
E4A
  5
E4B
331
EC4
  5
EC6
331
E85
  5
E87
331
EFF
  5
F01
331
EC0
  5
EC2
331
E46
  5
E47
331
E81
  5
E83
331
E42
  5
E43
331
1021
  5
1425
331
EFB
  5
EFD
331
EBC
  5
EBE
331
EB8
  5
EBA
331
F6E
  5
F74
331
F2F
  5
F32
331
F6A
  5
F70
331
FE4
  5
FEB
331
FA5
  5
FAB
331
F2B
  5
F2E
331
F66
  5
F6C
331
F27
  5
F2A
331
FE0
  5
FE7
331
FA1
  5
FA7
331
F62
  5
F68
331
FDC
  5
FE3
331
F9D
  5
FA3
331
1446
  5
1445
331
F23
  5
F27
331
FD8
  5
FE0
331
F99
  5
F9F
331
1442
  5
1446
331
143E
  5
1441
331
143A
  5
F59
331
101D
  5
141A
331
EF7
  5
EF9
331
E3E
  5
E3F
331
E7D
  5
E7F
331
E79
  5
E7B
331
E3A
  5
E3B
331
1019
  5
132D
331
EB4
  5
EB6
331
1015
  5
101D
331
E75
  5
E77
331
EEF
  5
EF3
331
EB0
  5
EB2
331
E36
  5
E37
331
E71
  5
E73
331
E32
  5
E33
331
1011
  5
1019
331
EEB
  5
EED
331
EAC
  5
EAE
331
EA8
  5
EAA
331
F5E
  5
F64
331
F1F
  5
F22
331
FD4
  5
FDB
331
F95
  5
F9B
331
F5A
  5
F60
331
F56
  5
F5A
331
F17
  5
F1A
331
FD0
  5
FD8
331
F91
  5
F97
331
F52
  5
F55
331
FCC
  5
FD3
331
F8D
  5
F93
331
1436
  5
1429
331
F13
  5
F16
331
FC8
  5
FCF
331
F89
  5
F8F
331
146D
  5
E5A
331
1432
  5
1438
331
142E
  5
1435
331
1469
  5
FC4
331
1465
  5
1469
331
142A
  5
1432
331
1461
  5
1465
331
100D
  5
1015
331
E6D
  5
E6F
331
EE7
  5
EE9
331
E2E
  5
E2F
331
E69
  5
E6B
331
E2A
  5
E2B
331
1009
  5
1011
331
EE3
  5
EE5
331
EA4
  5
EA6
331
1005
  5
100D
331
E65
  5
E67
331
EDF
  5
EE1
331
EA0
  5
EA2
331
E26
  5
E26
331
E61
  5
E63
331
E22
  5
E22
331
1001
  5
1008
331
EDB
  5
EDE
331
E9C
  5
E9E
331
E98
  5
E9A
331
F4E
  5
F51
331
F0F
  5
F12
331
F4A
  5
F4D
331
FC4
  5
FCB
331
F85
  5
F8B
331
F0B
  5
F0E
331
F46
  5
F49
331
F07
  5
F09
331
FC0
  5
FC7
331
F81
  5
F87
331
F42
  5
F45
331
FBC
  5
FC2
331
F7D
  5
F83
331
1426
  5
142E
331
F03
  5
F05
331
FB8
  5
FBE
331
145D
  5
1461
331
F79
  5
F7F
331
1459
  5
145D
331
1455
  5
1459
331
141A
  5
142A
331
FFD
  5
1004
331
ED7
  5
ED9
331
E5D
  5
E5F
331
E59
  5
E5B
331
FF9
  5
1000
331
E94
  5
E96
331
ED3
  5
ED5
331
FF5
  5
FFC
331
E90
  5
E92
331
ECF
  5
ED1
331
E55
  5
E56
331
E51
  5
E52
331
FF1
  5
FF8
331
ECB
  5
ECD
331
E88
  5
E8A
331
F3E
  5
F42
331
FB4
  5
FBA
331
F3A
  5
F3D
331
F75
  5
F7B
331
F36
  5
F39
331
FEF
  5
FF6
331
FB0
  5
FB6
331
F71
  5
F77
331
FEB
  5
FF2
331
FAC
  5
FB2
331
F32
  5
F35
331
FA8
  5
FAE
331
1396
  5
1426
331
144D
  5
1456
331
1449
  5
144C
331
EC7
  5
EC9
331
E4D
  5
E4E
331
E49
  5
E4A
331
EC3
  5
EC5
331
E84
  5
E86
331
EFE
  5
F00
331
EBF
  5
EC1
331
E45
  5
E46
331
E80
  5
E82
331
E41
  5
E42
331
EFA
  5
EFC
331
EBB
  5
EBD
331
F6D
  5
F73
331
F2E
  5
F31
331
FE7
  5
FEE
331
F69
  5
F6F
331
FE3
  5
FEA
331
FA4
  5
FAA
331
F2A
  5
F2D
331
F65
  5
F6B
331
F26
  5
F29
331
FDF
  5
FE6
331
FA0
  5
FA6
331
F61
  5
F67
331
FDB
  5
FE2
331
F9C
  5
FA2
331
F22
  5
F25
331
F98
  5
F9E
331
1441
  5
1444
331
143D
  5
1440
331
1439
  5
143E
331
101C
  5
1398
331
E7C
  5
E7E
331
EF6
  5
EF8
331
EB7
  5
EB9
331
E3D
  5
E3E
331
E78
  5
E7A
331
E39
  5
E3A
331
1018
  5
1021
331
EF2
  5
EF7
331
EB3
  5
EB5
331
1014
  5
101C
331
E74
  5
E76
331
EEE
  5
EF0
331
EAF
  5
EB1
331
E35
  5
E36
331
E70
  5
E72
331
E31
  5
E32
331
1010
  5
1018
331
EEA
  5
EEC
331
EAB
  5
EAD
331
F5D
  5
F63
331
F1E
  5
F21
331
FD7
  5
FDE
331
F59
  5
F5F
331
FD3
  5
FDA
331
F94
  5
F9A
331
F1A
  5
F1E
331
F55
  5
F58
331
F16
  5
F19
331
FCF
  5
FD7
331
F90
  5
F96
331
F51
  5
F54
331
FCB
  5
FD2
331
F8C
  5
F92
331
1435
  5
143B
331
F12
  5
F15
331
1431
  5
F5B
331
146C
  5
144D
331
F88
  5
F8E
331
1468
  5
146D
331
142D
  5
1434
331
1429
  5
1431
331
1464
  5
1468
331
1460
  5
1464
331
100C
  5
1014
331
E6C
  5
E6E
331
EE6
  5
EE8
331
EA7
  5
EA9
331
E2D
  5
E2E
331
E29
  5
E29
331
E68
  5
E6A
331
1008
  5
1010
331
EE2
  5
EE4
331
EA3
  5
EA5
331
1004
  5
100C
331
E64
  5
E66
331
E9F
  5
EA1
331
EDE
  5
EE0
331
E25
  5
E25
331
E60
  5
E62
331
E21
  5
E21
331
1000
  5
1007
331
E9B
  5
E9D
331
EDA
  5
EDC
331
F4D
  5
F50
331
F0E
  5
F11
331
FC7
  5
FCE
331
F49
  5
F4C
331
FC3
  5
FCA
331
F84
  5
F8A
331
F0A
  5
F0C
331
F45
  5
F48
331
F06
  5
F08
331
FBF
  5
FC6
331
F80
  5
F86
331
F41
  5
F44
331
FBB
  5
FC1
331
F7C
  5
F82
331
1425
  5
142D
331
F02
  5
F04
331
145C
  5
1460
331
F78
  5
F7E
331
1458
  5
145C
331
1454
  5
1458
331
FFC
  5
1003
331
E97
  5
E99
331
ED6
  5
ED8
331
E5C
  5
E5E
331
E58
  5
E59
331
FF8
  5
FFF
331
E93
  5
E95
331
ED2
  5
ED4
331
FF4
  5
FFB
331
E8F
  5
E91
331
ECE
  5
ED0
331
E54
  5
E55
331
E50
  5
E51
331
FF0
  5
FF7
331
ECA
  5
ECC
331
E8B
  5
E8E
331
F3D
  5
F40
331
FB7
  5
FBD
331
FB3
  5
FB9
331
F39
  5
F3C
331
F74
  5
F7A
331
F35
  5
F38
331
FEE
  5
FF5
331
FAF
  5
FB5
331
F70
  5
F76
331
FEA
  5
FF1
331
FAB
  5
FB1
331
F31
  5
F34
331
144C
  5
1455
331
1448
  5
144B
331
E4C
  5
E4D
331
EC6
  5
EC8
331
E87
  5
E89
331
EC2
  5
EC4
331
E48
  5
E49
331
E83
  5
E85
331
E44
  5
E45
331
EFD
  5
EFF
331
EBE
  5
EC0
331
EF9
  5
EFB
331
EBA
  5
EBC
331
E40
  5
E41
331
F6C
  5
F72
331
F2D
  5
F30
331
FE6
  5
FED
331
FA7
  5
FAD
331
F68
  5
F6E
331
FE2
  5
FE9
331
FA3
  5
FA9
331
F29
  5
F2C
331
F64
  5
F6A
331
FDE
  5
FE5
331
F9F
  5
FA5
331
F60
  5
F66
331
F9B
  5
FA1
331
1444
  5
144A
331
F21
  5
F24
331
1440
  5
1443
331
143C
  5
143F
331
1438
  5
143D
331
E7F
  5
E81
331
101F
  5
1424
331
E3C
  5
E3D
331
E7B
  5
E7D
331
101B
  5
1397
331
EB6
  5
EB8
331
E77
  5
E79
331
EB2
  5
EB4
331
E38
  5
E39
331
1017
  5
101F
331
E34
  5
E35
331
1013
  5
101B
331
EED
  5
EEF
331
EAE
  5
EB0
331
EE9
  5
EEB
331
EAA
  5
EAC
331
E30
  5
E31
331
F5C
  5
F62
331
F1D
  5
F20
331
FD6
  5
FDD
331
F97
  5
F9D
331
F58
  5
F5E
331
FD2
  5
FD9
331
F93
  5
F99
331
F19
  5
F1D
331
F54
  5
F57
331
F15
  5
F18
331
FCE
  5
FD5
331
F8F
  5
F95
331
F50
  5
F53
331
FCA
  5
FD1
331
F8B
  5
F91
331
1434
  5
143A
331
F11
  5
F14
331
1430
  5
1437
331
1467
  5
146C
331
142C
  5
1433
331
1428
  5
1430
331
1463
  5
1467
331
E6F
  5
E71
331
100F
  5
1017
331
E6B
  5
E6D
331
E2C
  5
E2D
331
100B
  5
1013
331
EE5
  5
EE7
331
EA6
  5
EA8
331
E67
  5
E69
331
EE1
  5
EE3
331
EA2
  5
EA4
331
E28
  5
E28
331
1007
  5
100F
331
E63
  5
E65
331
E24
  5
E24
331
1003
  5
100A
331
EDD
  5
EDF
331
E9E
  5
EA0
331
ED9
  5
EDB
331
E9A
  5
E9C
331
F4C
  5
F4F
331
F0D
  5
F10
331
FC6
  5
FCD
331
F87
  5
F8D
331
F48
  5
F4B
331
FC2
  5
FC9
331
F83
  5
F89
331
F09
  5
F0B
331
F44
  5
F47
331
F05
  5
F07
331
FBE
  5
FC5
331
F7F
  5
F85
331
FBA
  5
FC0
331
F7B
  5
F81
331
145F
  5
1463
331
1424
  5
142C
331
F01
  5
F03
331
145B
  5
145F
331
1457
  5
145B
331
1453
  5
1457
331
E5F
  5
E61
331
FFF
  5
1006
331
E5B
  5
E5D
331
FFB
  5
1002
331
E96
  5
E98
331
ED5
  5
ED7
331
E92
  5
E94
331
ED1
  5
ED3
331
E57
  5
E58
331
FF7
  5
FFE
331
BE4
  5
BE4
331
E53
  5
E54
331
FF3
  5
FFA
331
E8E
  5
E90
331
ECD
  5
ECF
331
EC9
  5
ECB
331
E8A
  5
E8C
331
FB6
  5
FBC
331
F3C
  5
F3F
331
F77
  5
F7D
331
F38
  5
F3B
331
FB2
  5
FB8
331
F73
  5
F79
331
FED
  5
FF4
331
FAE
  5
FB4
331
F34
  5
F37
331
F30
  5
F33
331
FE9
  5
FF0
331
FAA
  5
FB0
331
1398
  5
1428
331
144B
  5
1454
331
E4F
  5
E50
331
E4B
  5
E4C
331
EC5
  5
EC7
331
E86
  5
E88
331
EC1
  5
EC3
331
E47
  5
E48
331
E82
  5
E84
331
E43
  5
E44
331
EFC
  5
EFE
331
EBD
  5
EBF
331
EF8
  5
EFA
331
EB9
  5
EBB
331
F6F
  5
F75
331
F6B
  5
F71
331
FE5
  5
FEC
331
FA6
  5
FAC
331
F2C
  5
F2F
331
F67
  5
F6D
331
F28
  5
F2B
331
FE1
  5
FE8
331
FA2
  5
FA8
331
F63
  5
F69
331
FDD
  5
FE4
331
F9E
  5
FA4
331
1447
  5
1448
331
F24
  5
F28
331
F20
  5
F23
331
FD9
  5
FE1
331
F9A
  5
FA0
331
1443
  5
1449
331
143F
  5
1442
331
143B
  5
F0D
331
E3F
  5
E40
331
E7E
  5
E80
331
101E
  5
1423
331
E3B
  5
E3C
331
E7A
  5
E7C
331
101A
  5
1396
331
EB5
  5
EB7
331
E76
  5
E78
331
EB1
  5
EB3
331
E37
  5
E38
331
1016
  5
101E
331
E72
  5
E75
331
E33
  5
E34
331
1012
  5
101A
331
EEC
  5
EEE
331
EAD
  5
EAF
331
EE8
  5
EEA
331
EA9
  5
EAB
331
F5F
  5
F65
331
F5B
  5
F61
331
FD5
  5
FDC
331
F96
  5
F9C
331
F1C
  5
F1F
331
F57
  5
F5D
331
F18
  5
F1B
331
F92
  5
F98
331
F53
  5
F56
331
FCD
  5
FD4
331
F8E
  5
F94
331
1437
  5
143C
331
F14
  5
F17
331
F10
  5
F13
331
FC9
  5
FD0
331
F8A
  5
F90
331
1433
  5
1439
331
142F
  5
1436
331
146A
  5
100B
331
1466
  5
146A
331
142B
  5
F5C
331
1462
  5
1466
331
100E
  5
1016
331
E6E
  5
E70
331
E2F
  5
E30
331
E6A
  5
E6C
331
E2B
  5
E2C
331
100A
  5
1012
331
EE4
  5
EE6
331
EA5
  5
EA7
331
1006
  5
100E
331
E66
  5
E68
331
EE0
  5
EE2
331
EA1
  5
EA3
331
E27
  5
E27
331
E62
  5
E64
331
E23
  5
E23
331
1002
  5
1009
331
E9D
  5
E9F
331
E99
  5
E9B
331
ED8
  5
EDA
331
F4F
  5
F52
331
F4B
  5
F4E
331
FC5
  5
FCC
331
F86
  5
F8C
331
F0C
  5
F0F
331
F47
  5
F4A
331
F08
  5
F0A
331
FC1
  5
FC8
331
F82
  5
F88
331
F43
  5
F46
331
FBD
  5
FC3
331
F7E
  5
F84
331
1427
  5
142F
331
F04
  5
F06
331
F00
  5
F02
331
FB9
  5
FBF
331
F7A
  5
F80
331
145E
  5
1462
331
1423
  5
142B
331
145A
  5
145E
331
1456
  5
145A
331
FFE
  5
1005
331
E5E
  5
E60
331
E5A
  5
E5C
331
FFA
  5
1001
331
E95
  5
E97
331
ED4
  5
ED6
331
FF6
  5
FFD
331
E91
  5
E93
331
ED0
  5
ED2
331
E56
  5
E57
331
E52
  5
E53
331
FF2
  5
FF9
331
E8D
  5
E8F
331
ECC
  5
ECE
331
EC8
  5
ECA
331
E89
  5
E8B
  0
SORTENTSTABLE
  5
1562
102
{ACAD_REACTORS
330
12C5
102
}
330
12C5
100
AcDbSortentsTable
330
12AE
  0
XRECORD
  5
160F
102
{ACAD_REACTORS
330
155F
102
}
330
155F
100
AcDbXrecord
280
     1
 40
27842.0
  1
\pxqc;CIWS CONSTRUCTION
  0
ACDBDETAILVIEWSTYLE
  5
1531
102
{ACAD_REACTORS
330
1530
102
}
330
1530
100
AcDbModelDocViewStyle
 70
     0
  3
Imperial24
290
     0
100
AcDbDetailViewStyle
 70
     0
 71
     0
 90
        3
 71
     1
340
69F
 62
   256
 40
0.24
340
0
 62
   256
 40
0.24
300

 40
0.36
280
     3
 71
     2
340
5
 90
       25
 62
   256
 71
     3
340
69F
 62
   256
 40
0.24
 90
        1
 40
0.75
 90
        1
300
%<\AcVar ViewType \f "%tc1">% %<\AcVar ViewDetailId>%\PSCALE %<\AcVar ViewScale \f "%sn">%
 71
     4
340
5
 90
       25
 62
   256
340
5
 90
       25
 62
   256
280
     0
  0
IMAGEDEF
  5
12CA
102
{ACAD_REACTORS
330
12C9
102
}
330
12C9
100
AcDbRasterImageDef
 90
        0
  1
M:\Autocad\CAD Library\Hebel Supercrete Logo.jpg
 10
5906.0
 20
3360.0
 11
0.0846666666666667
 21
0.0846666666666667
280
     1
281
     5
  0
IMAGEDEF
  5
12CB
102
{ACAD_REACTORS
330
12C9
330
12C3
102
}
330
12C9
100
AcDbRasterImageDef
 90
        0
  1
C:\Documents and Settings\Dennis\My Documents\CAD-DATA\Hebel Supercrete Logo.jpg
 10
5906.0
 20
3360.0
 11
0.0846666666666667
 21
0.0846666666666667
280
     1
281
     5
  0
IMAGEDEF
  5
1563
102
{ACAD_REACTORS
330
1561
330
12C9
102
}
330
12C9
100
AcDbRasterImageDef
 90
        0
  1
M:\LOGISTICS and PRICING\logos & letter head\Graphics\Hebel Letterheads & Logos\Supercrete Hi Res.jpg
 10
1367.0
 20
308.0
 11
0.0846666666666667
 21
0.0846666666666667
280
     1
281
     5
  0
LAYOUT
  5
6D1
102
{ACAD_XDICTIONARY
360
1098
102
}
102
{ACAD_REACTORS
330
6CE
102
}
330
6CE
100
AcDbPlotSettings
  1

  2
Adobe PDF.pc3
  4
A4
  6

 40
3.174999952316284
 41
3.174999952316284
 42
3.175003051757812
 43
3.17498779296875
 44
209.9733276367187
 45
297.0318298339844
 46
0.0
 47
0.0
 48
728.6560416992779
 49
-169.6821581297349
140
918.6560416992779
141
113.317841870265
142
1.0
143
1.0
 70
   672
 72
     1
 73
     0
 74
     5
  7
Hebel monochrome.ctb
 75
     0
147
0.9999999999999998
 76
     0
 77
     2
 78
   300
148
-728.6560416992777
149
169.6821581297349
100
AcDbLayout
  1
20.1.1
 70
     0
 71
     1
 10
725.4810417469615
 20
-172.8571580820512
 11
935.4543693836804
 21
124.1746717519332
 12
0.0
 22
0.0
 32
0.0
 14
736.2835696952206
 24
-161.672124940874
 34
-0.0000000000112498
 15
926.4727462035633
 25
114.9398907441941
 35
0.0000000000002956
146
0.0
 13
0.0
 23
0.0
 33
0.0
 16
1.0
 26
0.0
 36
0.0
 17
0.0
 27
1.0
 37
0.0
 76
     0
330
1A8
331
1A9
1001
ACAD_PSEXT
1000
Adobe PDF.pc3
1000
Adobe PDF Converter
1000
Documents\*.pdf
1000

1070
     0
  0
LAYOUT
  5
6D0
102
{ACAD_REACTORS
330
6CE
102
}
330
6CE
100
AcDbPlotSettings
  1

  2
C:\Program Files\AutoCAD 2002\plotters\DWF ePlot (optimized for plotting).pc3
  4

  6

 40
0.0
 41
0.0
 42
0.0
 43
0.0
 44
0.0
 45
0.0
 46
0.0
 47
0.0
 48
0.0
 49
0.0
140
0.0
141
0.0
142
1.0
143
1.0
 70
  1712
 72
     0
 73
     0
 74
     0
  7

 75
     0
147
1.0
 76
     0
 77
     2
 78
   300
148
0.0
149
0.0
100
AcDbLayout
  1
Model
 70
     1
 71
     0
 10
0.0
 20
0.0
 11
12.0
 21
9.0
 12
0.0
 22
0.0
 32
0.0
 14
0.0
 24
0.0
 34
0.0
 15
0.0
 25
0.0
 35
0.0
146
0.0
 13
0.0
 23
0.0
 33
0.0
 16
1.0
 26
0.0
 36
0.0
 17
0.0
 27
1.0
 37
0.0
 76
     0
330
2
331
1035
  0
MATERIAL
  5
1040
102
{ACAD_XDICTIONARY
360
1041
102
}
102
{ACAD_REACTORS
330
1037
102
}
330
1037
100
AcDbMaterial
  1
ByBlock
 72
     0
 43
0.0208333333333333
 43
0.0
 43
0.0
 43
0.0
 43
0.0
 43
0.0208333333333333
 43
0.0
 43
0.0
 43
0.0
 43
0.0
 43
1.0
 43
0.0
 43
0.0
 43
0.0
 43
0.0
 43
1.0
 77
     0
 47
0.0208333333333333
 47
0.0
 47
0.0
 47
0.0
 47
0.0
 47
0.0208333333333333
 47
0.0
 47
0.0
 47
0.0
 47
0.0
 47
1.0
 47
0.0
 47
0.0
 47
0.0
 47
0.0
 47
1.0
171
     0
 49
0.0208333333333333
 49
0.0
 49
0.0
 49
0.0
 49
0.0
 49
0.0208333333333333
 49
0.0
 49
0.0
 49
0.0
 49
0.0
 49
1.0
 49
0.0
 49
0.0
 49
0.0
 49
0.0
 49
1.0
175
     0
142
0.0208333333333333
142
0.0
142
0.0
142
0.0
142
0.0
142
0.0208333333333333
142
0.0
142
0.0
142
0.0
142
0.0
142
1.0
142
0.0
142
0.0
142
0.0
142
0.0
142
1.0
179
     0
144
0.0208333333333333
144
0.0
144
0.0
144
0.0
144
0.0
144
0.0208333333333333
144
0.0
144
0.0
144
0.0
144
0.0
144
1.0
144
0.0
144
0.0
144
0.0
144
0.0
144
1.0
147
0.0208333333333333
147
0.0
147
0.0
147
0.0
147
0.0
147
0.0208333333333333
147
0.0
147
0.0
147
0.0
147
0.0
147
1.0
147
0.0
147
0.0
147
0.0
147
0.0
147
1.0
  0
MATERIAL
  5
1038
102
{ACAD_XDICTIONARY
360
1039
102
}
102
{ACAD_REACTORS
330
1037
102
}
330
1037
100
AcDbMaterial
  1
ByLayer
 72
     0
 43
0.0208333333333333
 43
0.0
 43
0.0
 43
0.0
 43
0.0
 43
0.0208333333333333
 43
0.0
 43
0.0
 43
0.0
 43
0.0
 43
1.0
 43
0.0
 43
0.0
 43
0.0
 43
0.0
 43
1.0
 77
     0
 47
0.0208333333333333
 47
0.0
 47
0.0
 47
0.0
 47
0.0
 47
0.0208333333333333
 47
0.0
 47
0.0
 47
0.0
 47
0.0
 47
1.0
 47
0.0
 47
0.0
 47
0.0
 47
0.0
 47
1.0
171
     0
 49
0.0208333333333333
 49
0.0
 49
0.0
 49
0.0
 49
0.0
 49
0.0208333333333333
 49
0.0
 49
0.0
 49
0.0
 49
0.0
 49
1.0
 49
0.0
 49
0.0
 49
0.0
 49
0.0
 49
1.0
175
     0
142
0.0208333333333333
142
0.0
142
0.0
142
0.0
142
0.0
142
0.0208333333333333
142
0.0
142
0.0
142
0.0
142
0.0
142
1.0
142
0.0
142
0.0
142
0.0
142
0.0
142
1.0
179
     0
144
0.0208333333333333
144
0.0
144
0.0
144
0.0
144
0.0
144
0.0208333333333333
144
0.0
144
0.0
144
0.0
144
0.0
144
1.0
144
0.0
144
0.0
144
0.0
144
0.0
144
1.0
147
0.0208333333333333
147
0.0
147
0.0
147
0.0
147
0.0
147
0.0208333333333333
147
0.0
147
0.0
147
0.0
147
0.0
147
1.0
147
0.0
147
0.0
147
0.0
147
0.0
147
1.0
  0
MATERIAL
  5
1048
102
{ACAD_XDICTIONARY
360
1049
102
}
102
{ACAD_REACTORS
330
1037
102
}
330
1037
100
AcDbMaterial
  1
Global
 72
     0
 43
0.0208333333333333
 43
0.0
 43
0.0
 43
0.0
 43
0.0
 43
0.0208333333333333
 43
0.0
 43
0.0
 43
0.0
 43
0.0
 43
1.0
 43
0.0
 43
0.0
 43
0.0
 43
0.0
 43
1.0
 77
     0
 47
0.0208333333333333
 47
0.0
 47
0.0
 47
0.0
 47
0.0
 47
0.0208333333333333
 47
0.0
 47
0.0
 47
0.0
 47
0.0
 47
1.0
 47
0.0
 47
0.0
 47
0.0
 47
0.0
 47
1.0
171
     0
 49
0.0208333333333333
 49
0.0
 49
0.0
 49
0.0
 49
0.0
 49
0.0208333333333333
 49
0.0
 49
0.0
 49
0.0
 49
0.0
 49
1.0
 49
0.0
 49
0.0
 49
0.0
 49
0.0
 49
1.0
175
     0
142
0.0208333333333333
142
0.0
142
0.0
142
0.0
142
0.0
142
0.0208333333333333
142
0.0
142
0.0
142
0.0
142
0.0
142
1.0
142
0.0
142
0.0
142
0.0
142
0.0
142
1.0
179
     0
144
0.0208333333333333
144
0.0
144
0.0
144
0.0
144
0.0
144
0.0208333333333333
144
0.0
144
0.0
144
0.0
144
0.0
144
1.0
144
0.0
144
0.0
144
0.0
144
0.0
144
1.0
147
0.0208333333333333
147
0.0
147
0.0
147
0.0
147
0.0
147
0.0208333333333333
147
0.0
147
0.0
147
0.0
147
0.0
147
1.0
147
0.0
147
0.0
147
0.0
147
0.0
147
1.0
  0
MLEADERSTYLE
  5
1087
102
{ACAD_REACTORS
330
1086
102
}
330
1086
100
AcDbMLeaderStyle
170
     2
171
     1
172
     0
 90
        2
 40
0.0
 41
0.0
173
     1
 91
-1056964608
340
6A1
 92
       -2
290
     1
 42
0.09
291
     1
 43
0.36
  3
Standard
 44
0.18
300

342
69F
174
     1
178
     6
175
     1
176
     0
 93
-1056964608
 45
0.18
292
     0
297
     0
 46
0.18
 94
-1056964608
 47
1.0
 49
1.0
140
1.0
293
     1
141
0.0
294
     1
177
     0
142
1.0
295
     0
296
     0
143
0.125
1001
ACAD_MLEADERVER
1070
     2
  0
MLINESTYLE
  5
6AD
102
{ACAD_REACTORS
330
6AB
102
}
330
6AB
100
AcDbMlineStyle
  2
STANDARD
 70
     0
  3

 62
   256
 51
90.0
 52
90.0
 71
     2
 49
0.5
 62
   256
  6
BYLAYER
 49
-0.5
 62
   256
  6
BYLAYER
  0
ACDBPLACEHOLDER
  5
6CD
102
{ACAD_REACTORS
330
6CC
102
}
330
6CC
  0
SCALE
  5
1065
102
{ACAD_REACTORS
330
1064
102
}
330
1064
100
AcDbScale
 70
     0
300
1:1
140
1.0
141
1.0
290
     1
  0
SCALE
  5
1066
102
{ACAD_REACTORS
330
1064
102
}
330
1064
100
AcDbScale
 70
     0
300
1:2
140
1.0
141
2.0
290
     0
  0
SCALE
  5
1067
102
{ACAD_REACTORS
330
1064
102
}
330
1064
100
AcDbScale
 70
     0
300
1:4
140
1.0
141
4.0
290
     0
  0
SCALE
  5
1068
102
{ACAD_REACTORS
330
1064
102
}
330
1064
100
AcDbScale
 70
     0
300
1:5
140
1.0
141
5.0
290
     0
  0
SCALE
  5
1069
102
{ACAD_REACTORS
330
1064
102
}
330
1064
100
AcDbScale
 70
     0
300
1:8
140
1.0
141
8.0
290
     0
  0
SCALE
  5
106A
102
{ACAD_REACTORS
330
1064
102
}
330
1064
100
AcDbScale
 70
     0
300
1:10
140
1.0
141
10.0
290
     0
  0
SCALE
  5
106B
102
{ACAD_REACTORS
330
1064
102
}
330
1064
100
AcDbScale
 70
     0
300
1:16
140
1.0
141
16.0
290
     0
  0
SCALE
  5
106C
102
{ACAD_REACTORS
330
1064
102
}
330
1064
100
AcDbScale
 70
     0
300
1:20
140
1.0
141
20.0
290
     0
  0
SCALE
  5
106D
102
{ACAD_REACTORS
330
1064
102
}
330
1064
100
AcDbScale
 70
     0
300
1:30
140
1.0
141
30.0
290
     0
  0
SCALE
  5
106E
102
{ACAD_REACTORS
330
1064
102
}
330
1064
100
AcDbScale
 70
     0
300
1:40
140
1.0
141
40.0
290
     0
  0
SCALE
  5
106F
102
{ACAD_REACTORS
330
1064
102
}
330
1064
100
AcDbScale
 70
     0
300
1:50
140
1.0
141
50.0
290
     0
  0
SCALE
  5
1070
102
{ACAD_REACTORS
330
1064
102
}
330
1064
100
AcDbScale
 70
     0
300
1:100
140
1.0
141
100.0
290
     0
  0
SCALE
  5
1071
102
{ACAD_REACTORS
330
1064
102
}
330
1064
100
AcDbScale
 70
     0
300
2:1
140
2.0
141
1.0
290
     0
  0
SCALE
  5
1072
102
{ACAD_REACTORS
330
1064
102
}
330
1064
100
AcDbScale
 70
     0
300
4:1
140
4.0
141
1.0
290
     0
  0
SCALE
  5
1073
102
{ACAD_REACTORS
330
1064
102
}
330
1064
100
AcDbScale
 70
     0
300
8:1
140
8.0
141
1.0
290
     0
  0
SCALE
  5
1074
102
{ACAD_REACTORS
330
1064
102
}
330
1064
100
AcDbScale
 70
     0
300
10:1
140
10.0
141
1.0
290
     0
  0
SCALE
  5
1075
102
{ACAD_REACTORS
330
1064
102
}
330
1064
100
AcDbScale
 70
     0
300
100:1
140
100.0
141
1.0
290
     0
  0
SCALE
  5
1076
102
{ACAD_REACTORS
330
1064
102
}
330
1064
100
AcDbScale
 70
     0
300
1/128" = 1'-0"
140
0.0078125
141
12.0
290
     0
  0
SCALE
  5
1077
102
{ACAD_REACTORS
330
1064
102
}
330
1064
100
AcDbScale
 70
     0
300
1/64" = 1'-0"
140
0.015625
141
12.0
290
     0
  0
SCALE
  5
1078
102
{ACAD_REACTORS
330
1064
102
}
330
1064
100
AcDbScale
 70
     0
300
1/32" = 1'-0"
140
0.03125
141
12.0
290
     0
  0
SCALE
  5
1079
102
{ACAD_REACTORS
330
1064
102
}
330
1064
100
AcDbScale
 70
     0
300
1/16" = 1'-0"
140
0.0625
141
12.0
290
     0
  0
SCALE
  5
107A
102
{ACAD_REACTORS
330
1064
102
}
330
1064
100
AcDbScale
 70
     0
300
3/32" = 1'-0"
140
0.09375
141
12.0
290
     0
  0
SCALE
  5
107B
102
{ACAD_REACTORS
330
1064
102
}
330
1064
100
AcDbScale
 70
     0
300
1/8" = 1'-0"
140
0.125
141
12.0
290
     0
  0
SCALE
  5
107C
102
{ACAD_REACTORS
330
1064
102
}
330
1064
100
AcDbScale
 70
     0
300
3/16" = 1'-0"
140
0.1875
141
12.0
290
     0
  0
SCALE
  5
107D
102
{ACAD_REACTORS
330
1064
102
}
330
1064
100
AcDbScale
 70
     0
300
1/4" = 1'-0"
140
0.25
141
12.0
290
     0
  0
SCALE
  5
107E
102
{ACAD_REACTORS
330
1064
102
}
330
1064
100
AcDbScale
 70
     0
300
3/8" = 1'-0"
140
0.375
141
12.0
290
     0
  0
SCALE
  5
107F
102
{ACAD_REACTORS
330
1064
102
}
330
1064
100
AcDbScale
 70
     0
300
1/2" = 1'-0"
140
0.5
141
12.0
290
     0
  0
SCALE
  5
1080
102
{ACAD_REACTORS
330
1064
102
}
330
1064
100
AcDbScale
 70
     0
300
3/4" = 1'-0"
140
0.75
141
12.0
290
     0
  0
SCALE
  5
1081
102
{ACAD_REACTORS
330
1064
102
}
330
1064
100
AcDbScale
 70
     0
300
1" = 1'-0"
140
1.0
141
12.0
290
     0
  0
SCALE
  5
1082
102
{ACAD_REACTORS
330
1064
102
}
330
1064
100
AcDbScale
 70
     0
300
1-1/2" = 1'-0"
140
1.5
141
12.0
290
     0
  0
SCALE
  5
1083
102
{ACAD_REACTORS
330
1064
102
}
330
1064
100
AcDbScale
 70
     0
300
3" = 1'-0"
140
3.0
141
12.0
290
     0
  0
SCALE
  5
1084
102
{ACAD_REACTORS
330
1064
102
}
330
1064
100
AcDbScale
 70
     0
300
6" = 1'-0"
140
6.0
141
12.0
290
     0
  0
SCALE
  5
1085
102
{ACAD_REACTORS
330
1064
102
}
330
1064
100
AcDbScale
 70
     0
300
1'-0" = 1'-0"
140
12.0
141
12.0
290
     0
  0
ACDBSECTIONVIEWSTYLE
  5
152F
102
{ACAD_REACTORS
330
152D
102
}
330
152D
100
AcDbModelDocViewStyle
 70
     0
  3
Imperial24
290
     0
100
AcDbSectionViewStyle
 70
     0
 71
     0
 90
       78
 71
     1
340
69F
 62
   256
 40
0.24
340
0
340
0
 62
   256
 40
0.24
300
I, O, Q, S, X, Z
 40
0.48
 90
        3
 40
0.18
 90
        1
 71
     2
340
152E
 90
       25
 62
   256
340
5
 90
       50
 62
   256
 40
0.24
 40
0.0
 40
0.24
 71
     3
340
69F
 62
   256
 40
0.24
 90
        1
 40
0.75
 90
        1
300
%<\AcVar ViewType \f "%tc1">% %<\AcVar ViewSectionStartId>%-%<\AcVar ViewSectionEndId>%\PSCALE %<\AcVar ViewScale \f "%sn">%
 71
     4
 62
   256
 62
   257
300
ANSI31
 40
1.0
 90
        0
290
     0
290
     0
 90
        6
 40
0.0
 40
1.570796326794896
 40
0.2617993877991494
 40
1.308996938995747
 40
-0.2617993877991494
 40
1.832595714594046
  0
TABLESTYLE
  5
1063
102
{ACAD_XDICTIONARY
360
1246
102
}
102
{ACAD_REACTORS
330
1062
102
}
330
1062
100
AcDbTableStyle
  3
Standard
 70
     0
 71
     0
 40
0.06
 41
0.06
280
     0
281
     0
  7
STANDARD
140
0.18
170
     2
 62
     0
 63
     7
283
     0
274
    -2
284
     1
 64
     0
275
    -2
285
     1
 65
     0
276
    -2
286
     1
 66
     0
277
    -2
287
     1
 67
     0
278
    -2
288
     1
 68
     0
279
    -2
289
     1
 69
     0
  7
STANDARD
140
0.25
170
     5
 62
     0
 63
     7
283
     0
274
    -2
284
     1
 64
     0
275
    -2
285
     1
 65
     0
276
    -2
286
     1
 66
     0
277
    -2
287
     1
 67
     0
278
    -2
288
     1
 68
     0
279
    -2
289
     1
 69
     0
  7
STANDARD
140
0.18
170
     5
 62
     0
 63
     7
283
     0
274
    -2
284
     1
 64
     0
275
    -2
285
     1
 65
     0
276
    -2
286
     1
 66
     0
277
    -2
287
     1
 67
     0
278
    -2
288
     1
 68
     0
279
    -2
289
     1
 69
     0
  0
VISUALSTYLE
  5
1056
102
{ACAD_XDICTIONARY
360
1626
102
}
102
{ACAD_REACTORS
330
1050
102
}
330
1050
100
AcDbVisualStyle
  2
2dWireframe
 70
     4
 71
     0
 72
     2
 73
     0
 90
        0
 40
-0.6
 41
-30.0
 62
     5
 63
     7
421
 16777215
 74
     1
 91
        4
 64
     7
 65
   257
 75
     1
175
     1
 42
1.0
 92
        0
 66
   257
 43
1.0
 76
     1
 77
     6
 78
     2
 67
     7
 79
     5
170
     0
171
     0
290
     0
174
     0
 93
        1
 44
0.0
173
     0
291
     0
 45
0.0
1001
ACAD
1000
AcDbSavedByObjectVersion
1070
     0
  0
VISUALSTYLE
  5
1058
102
{ACAD_XDICTIONARY
360
162A
102
}
102
{ACAD_REACTORS
330
1050
102
}
330
1050
100
AcDbVisualStyle
  2
3D Hidden
 70
     6
 71
     1
 72
     2
 73
     2
 90
        0
 40
-0.6
 41
-30.0
 62
     5
 63
     7
421
 16777215
 74
     2
 91
        2
 64
     7
 65
   257
 75
     2
175
     1
 42
40.0
 92
        0
 66
   257
 43
1.0
 76
     1
 77
     6
 78
     2
 67
     7
 79
     3
170
     0
171
     0
290
     0
174
     0
 93
        1
 44
0.0
173
     0
291
     0
 45
0.0
1001
ACAD
1000
AcDbSavedByObjectVersion
1070
     0
  0
VISUALSTYLE
  5
1057
102
{ACAD_XDICTIONARY
360
1628
102
}
102
{ACAD_REACTORS
330
1050
102
}
330
1050
100
AcDbVisualStyle
  2
3dWireframe
 70
     5
 71
     0
 72
     2
 73
     0
 90
        0
 40
-0.6
 41
-30.0
 62
     5
 63
     7
421
 16777215
 74
     1
 91
        4
 64
     7
 65
   257
 75
     1
175
     1
 42
1.0
 92
        0
 66
   257
 43
1.0
 76
     1
 77
     6
 78
     2
 67
     7
 79
     5
170
     0
171
     0
290
     0
174
     0
 93
        1
 44
0.0
173
     0
291
     0
 45
0.0
1001
ACAD
1000
AcDbSavedByObjectVersion
1070
     0
  0
VISUALSTYLE
  5
1055
102
{ACAD_XDICTIONARY
360
1624
102
}
102
{ACAD_REACTORS
330
1050
102
}
330
1050
100
AcDbVisualStyle
  2
Basic
 70
     7
 71
     1
 72
     0
 73
     1
 90
        0
 40
-0.6
 41
-30.0
 62
     5
 63
     7
421
 16777215
 74
     0
 91
        4
 64
     7
 65
   257
 75
     1
175
     1
 42
1.0
 92
        8
 66
     7
 43
1.0
 76
     1
 77
     6
 78
     2
 67
     7
 79
     5
170
     0
171
     0
290
     0
174
     0
 93
        1
 44
0.0
173
     0
291
     1
 45
0.0
1001
ACAD
1000
AcDbSavedByObjectVersion
1070
     0
  0
VISUALSTYLE
  5
105C
102
{ACAD_XDICTIONARY
360
1632
102
}
102
{ACAD_REACTORS
330
1050
102
}
330
1050
100
AcDbVisualStyle
  2
Brighten
 70
    12
 71
     2
 72
     2
 73
     0
 90
        0
 40
-0.6
 41
-30.0
 62
     5
 63
     7
421
 16777215
 74
     1
 91
        4
 64
     7
 65
   257
 75
     1
175
     1
 42
1.0
 92
        8
 66
     7
 43
1.0
 76
     1
 77
     6
 78
     2
 67
     7
 79
     5
170
     0
171
     0
290
     0
174
     0
 93
        1
 44
50.0
173
     0
291
     1
 45
0.0
1001
ACAD
1000
AcDbSavedByObjectVersion
1070
     0
  0
VISUALSTYLE
  5
1060
102
{ACAD_XDICTIONARY
360
163A
102
}
102
{ACAD_REACTORS
330
1050
102
}
330
1050
100
AcDbVisualStyle
  2
ColorChange
 70
    16
 71
     2
 72
     2
 73
     3
 90
        0
 40
-0.6
 41
-30.0
 62
     5
 63
     8
421
  8421504
 74
     1
 91
        4
 64
     7
 65
   257
 75
     1
175
     1
 42
1.0
 92
        8
 66
     8
424
  8421504
 43
1.0
 76
     1
 77
     6
 78
     2
 67
     7
 79
     5
170
     0
171
     0
290
     0
174
     0
 93
        1
 44
0.0
173
     0
291
     1
 45
0.0
1001
ACAD
1000
AcDbSavedByObjectVersion
1070
     0
  0
VISUALSTYLE
  5
1059
102
{ACAD_XDICTIONARY
360
162C
102
}
102
{ACAD_REACTORS
330
1050
102
}
330
1050
100
AcDbVisualStyle
  2
Conceptual
 70
     9
 71
     3
 72
     2
 73
     0
 90
        0
 40
-0.6
 41
-30.0
 62
     5
 63
     7
421
 16777215
 74
     2
 91
        2
 64
     7
 65
   257
 75
     1
175
     1
 42
40.0
 92
        8
 66
     7
 43
1.0
 76
     1
 77
     6
 78
     2
 67
     7
 79
     3
170
     0
171
     0
290
     0
174
     0
 93
        1
 44
0.0
173
     0
291
     0
 45
0.0
1001
ACAD
1000
AcDbSavedByObjectVersion
1070
     0
  0
VISUALSTYLE
  5
105B
102
{ACAD_XDICTIONARY
360
1630
102
}
102
{ACAD_REACTORS
330
1050
102
}
330
1050
100
AcDbVisualStyle
  2
Dim
 70
    11
 71
     2
 72
     2
 73
     0
 90
        0
 40
-0.6
 41
-30.0
 62
     5
 63
     7
421
 16777215
 74
     1
 91
        4
 64
     7
 65
   257
 75
     1
175
     1
 42
1.0
 92
        8
 66
     7
 43
1.0
 76
     1
 77
     6
 78
     2
 67
     7
 79
     5
170
     0
171
     0
290
     0
174
     0
 93
        1
 44
-50.0
173
     0
291
     1
 45
0.0
1001
ACAD
1000
AcDbSavedByObjectVersion
1070
     0
  0
VISUALSTYLE
  5
152C
102
{ACAD_XDICTIONARY
360
164F
102
}
102
{ACAD_REACTORS
330
1050
102
}
330
1050
100
AcDbVisualStyle
  2
EdgeColorOff
 70
    22
 71
     2
 72
     2
 73
     0
 90
        0
 40
-0.6
 41
-30.0
 62
     5
 63
     7
421
 16777215
 74
     1
 91
        4
 64
     7
 65
   257
 75
     1
175
     1
 42
1.0
 92
        8
 66
     7
 43
1.0
 76
     1
 77
     6
 78
     2
 67
     7
 79
     5
170
     0
171
     0
290
     0
174
     0
 93
        1
 44
0.0
173
     0
291
     1
 45
0.0
1001
ACAD
1000
AcDbSavedByObjectVersion
1070
     0
  0
VISUALSTYLE
  5
105F
102
{ACAD_XDICTIONARY
360
1638
102
}
102
{ACAD_REACTORS
330
1050
102
}
330
1050
100
AcDbVisualStyle
  2
Facepattern
 70
    15
 71
     2
 72
     2
 73
     0
 90
        0
 40
-0.6
 41
-30.0
 62
     5
 63
     7
421
 16777215
 74
     1
 91
        4
 64
     7
 65
   257
 75
     1
175
     1
 42
1.0
 92
        8
 66
     7
 43
1.0
 76
     1
 77
     6
 78
     2
 67
     7
 79
     5
170
     0
171
     0
290
     0
174
     0
 93
        1
 44
0.0
173
     0
291
     1
 45
0.0
1001
ACAD
1000
AcDbSavedByObjectVersion
1070
     0
  0
VISUALSTYLE
  5
1051
102
{ACAD_XDICTIONARY
360
161C
102
}
102
{ACAD_REACTORS
330
1050
102
}
330
1050
100
AcDbVisualStyle
  2
Flat
 70
     0
 71
     2
 72
     1
 73
     1
 90
        2
 40
-0.6
 41
30.0
 62
     5
 63
     7
421
 16777215
 74
     0
 91
        4
 64
     7
 65
   257
 75
     1
175
     1
 42
1.0
 92
        8
 66
     7
 43
1.0
 76
     1
 77
     6
 78
     2
 67
     7
 79
     5
170
     0
171
     0
290
     0
174
     0
 93
       13
 44
0.0
173
     0
291
     1
 45
0.0
1001
ACAD
1000
AcDbSavedByObjectVersion
1070
     0
  0
VISUALSTYLE
  5
1052
102
{ACAD_XDICTIONARY
360
161E
102
}
102
{ACAD_REACTORS
330
1050
102
}
330
1050
100
AcDbVisualStyle
  2
FlatWithEdges
 70
     1
 71
     2
 72
     1
 73
     1
 90
        2
 40
-0.6
 41
30.0
 62
     5
 63
     7
421
 16777215
 74
     1
 91
        4
 64
     7
 65
   257
 75
     1
175
     1
 42
1.0
 92
        0
 66
   257
 43
1.0
 76
     1
 77
     6
 78
     2
 67
     7
 79
     5
170
     0
171
     0
290
     0
174
     0
 93
       13
 44
0.0
173
     0
291
     1
 45
0.0
1001
ACAD
1000
AcDbSavedByObjectVersion
1070
     0
  0
VISUALSTYLE
  5
1053
102
{ACAD_XDICTIONARY
360
1620
102
}
102
{ACAD_REACTORS
330
1050
102
}
330
1050
100
AcDbVisualStyle
  2
Gouraud
 70
     2
 71
     2
 72
     2
 73
     1
 90
        2
 40
-0.6
 41
30.0
 62
     5
 63
     7
421
 16777215
 74
     0
 91
        4
 64
     7
 65
   257
 75
     1
175
     1
 42
1.0
 92
        0
 66
     7
 43
1.0
 76
     1
 77
     6
 78
     2
 67
     7
 79
     5
170
     0
171
     0
290
     0
174
     0
 93
       13
 44
0.0
173
     0
291
     1
 45
0.0
1001
ACAD
1000
AcDbSavedByObjectVersion
1070
     0
  0
VISUALSTYLE
  5
1054
102
{ACAD_XDICTIONARY
360
1622
102
}
102
{ACAD_REACTORS
330
1050
102
}
330
1050
100
AcDbVisualStyle
  2
GouraudWithEdges
 70
     3
 71
     2
 72
     2
 73
     1
 90
        2
 40
-0.6
 41
30.0
 62
     5
 63
     7
421
 16777215
 74
     1
 91
        4
 64
     7
 65
   257
 75
     1
175
     1
 42
1.0
 92
        0
 66
   257
 43
1.0
 76
     1
 77
     6
 78
     2
 67
     7
 79
     5
170
     0
171
     0
290
     0
174
     0
 93
       13
 44
0.0
173
     0
291
     1
 45
0.0
1001
ACAD
1000
AcDbSavedByObjectVersion
1070
     0
  0
VISUALSTYLE
  5
1524
102
{ACAD_XDICTIONARY
360
163F
102
}
102
{ACAD_REACTORS
330
1050
102
}
330
1050
100
AcDbVisualStyle
  2
Hidden
 70
     6
 71
     1
 72
     2
 73
     2
 90
        0
 40
-0.6
 41
-30.0
 62
     5
 63
     7
421
 16777215
 74
     2
 91
        2
 64
     7
 65
   257
 75
     2
175
     1
 42
40.0
 92
        0
 66
   257
 43
1.0
 76
     1
 77
     6
 78
     2
 67
     7
 79
     3
170
     0
171
     0
290
     0
174
     0
 93
        1
 44
0.0
173
     0
291
     0
 45
0.0
1001
ACAD
1000
AcDbSavedByObjectVersion
1070
     0
  0
VISUALSTYLE
  5
152A
102
{ACAD_XDICTIONARY
360
164B
102
}
102
{ACAD_REACTORS
330
1050
102
}
330
1050
100
AcDbVisualStyle
  2
JitterOff
 70
    20
 71
     2
 72
     2
 73
     0
 90
        0
 40
-0.6
 41
-30.0
 62
     5
 63
     7
421
 16777215
 74
     1
 91
        4
 64
     7
 65
   257
 75
     1
175
     1
 42
1.0
 92
       10
 66
     7
 43
1.0
 76
     1
 77
     6
 78
     2
 67
     7
 79
     5
170
     0
171
     0
290
     0
174
     0
 93
        1
 44
0.0
173
     0
291
     1
 45
0.0
1001
ACAD
1000
AcDbSavedByObjectVersion
1070
     0
  0
VISUALSTYLE
  5
105E
102
{ACAD_XDICTIONARY
360
1636
102
}
102
{ACAD_REACTORS
330
1050
102
}
330
1050
100
AcDbVisualStyle
  2
Linepattern
 70
    14
 71
     2
 72
     2
 73
     0
 90
        0
 40
-0.6
 41
-30.0
 62
     5
 63
     7
421
 16777215
 74
     1
 91
        4
 64
     7
 65
   257
 75
     7
175
     7
 42
1.0
 92
        8
 66
     7
 43
1.0
 76
     1
 77
     6
 78
     2
 67
     7
 79
     5
170
     0
171
     0
290
     0
174
     0
 93
        1
 44
0.0
173
     0
291
     1
 45
0.0
1001
ACAD
1000
AcDbSavedByObjectVersion
1070
     0
  0
VISUALSTYLE
  5
152B
102
{ACAD_XDICTIONARY
360
164D
102
}
102
{ACAD_REACTORS
330
1050
102
}
330
1050
100
AcDbVisualStyle
  2
OverhangOff
 70
    21
 71
     2
 72
     2
 73
     0
 90
        0
 40
-0.6
 41
-30.0
 62
     5
 63
     7
421
 16777215
 74
     1
 91
        4
 64
     7
 65
   257
 75
     1
175
     1
 42
1.0
 92
        9
 66
     7
 43
1.0
 76
     1
 77
     6
 78
     2
 67
     7
 79
     5
170
     0
171
     0
290
     0
174
     0
 93
        1
 44
0.0
173
     0
291
     1
 45
0.0
1001
ACAD
1000
AcDbSavedByObjectVersion
1070
     0
  0
VISUALSTYLE
  5
105A
102
{ACAD_XDICTIONARY
360
162E
102
}
102
{ACAD_REACTORS
330
1050
102
}
330
1050
100
AcDbVisualStyle
  2
Realistic
 70
     8
 71
     2
 72
     2
 73
     0
 90
        0
 40
-0.6
 41
-30.0
 62
     5
 63
     7
421
 16777215
 74
     1
 91
        0
 64
     7
 65
   257
 75
     1
175
     1
 42
1.0
 92
        8
 66
     8
424
  7895160
 43
1.0
 76
     1
 77
     6
 78
     2
 67
     7
 79
     5
170
     0
171
     0
290
     0
174
     0
 93
       13
 44
0.0
173
     0
291
     0
 45
0.0
1001
ACAD
1000
AcDbSavedByObjectVersion
1070
     0
  0
VISUALSTYLE
  5
1529
102
{ACAD_XDICTIONARY
360
1649
102
}
102
{ACAD_REACTORS
330
1050
102
}
330
1050
100
AcDbVisualStyle
  2
Shaded
 70
    27
 71
     2
 72
     2
 73
     1
 90
        2
 40
-0.6
 41
30.0
 62
     5
 63
     7
421
 16777215
 74
     0
 91
        4
 64
     7
 65
   257
 75
     1
175
     1
 42
1.0
 92
        8
 66
   257
 43
1.0
 76
     1
 77
     6
 78
     2
 67
     8
425
  7895160
 79
     3
170
     0
171
     0
290
     0
174
     0
 93
        5
 44
0.0
173
     0
291
     0
 45
0.0
1001
ACAD
1000
AcDbSavedByObjectVersion
1070
     0
  0
VISUALSTYLE
  5
1528
102
{ACAD_XDICTIONARY
360
1647
102
}
102
{ACAD_REACTORS
330
1050
102
}
330
1050
100
AcDbVisualStyle
  2
Shaded with edges
 70
    26
 71
     2
 72
     2
 73
     1
 90
        2
 40
-0.6
 41
30.0
 62
     5
 63
     7
421
 16777215
 74
     1
 91
       10
 64
     7
 65
   257
 75
     2
175
     1
 42
1.0
 92
        8
 66
   257
 43
1.0
 76
     1
 77
     6
 78
     2
 67
     7
 79
     3
170
     0
171
     0
290
     0
174
     0
 93
        5
 44
0.0
173
     0
291
     0
 45
0.0
1001
ACAD
1000
AcDbSavedByObjectVersion
1070
     0
  0
VISUALSTYLE
  5
1525
102
{ACAD_XDICTIONARY
360
1641
102
}
102
{ACAD_REACTORS
330
1050
102
}
330
1050
100
AcDbVisualStyle
  2
Shades of Gray
 70
    23
 71
     2
 72
     2
 73
     3
 90
        0
 40
-0.6
 41
-30.0
 62
     5
 63
     7
421
 16777215
 74
     2
 91
        2
 64
     7
 65
     7
 75
     1
175
     1
 42
40.0
 92
        8
 66
     7
 43
1.0
 76
     1
 77
     6
 78
     2
 67
     7
 79
     3
170
     0
171
     0
290
     0
174
     0
 93
        1
 44
0.0
173
     0
291
     0
 45
0.0
1001
ACAD
1000
AcDbSavedByObjectVersion
1070
     0
  0
VISUALSTYLE
  5
1526
102
{ACAD_XDICTIONARY
360
1643
102
}
102
{ACAD_REACTORS
330
1050
102
}
330
1050
100
AcDbVisualStyle
  2
Sketchy
 70
    24
 71
     1
 72
     2
 73
     2
 90
        0
 40
-0.6
 41
-30.0
 62
     5
 63
     7
421
 16777215
 74
     2
 91
        2
 64
     7
 65
     7
 75
     1
175
     1
 42
40.0
 92
       11
 66
     7
 43
1.0
 76
     1
 77
     6
 78
     2
 67
     7
 79
     6
170
     0
171
     0
290
     0
174
     0
 93
        1
 44
0.0
173
     0
291
     0
 45
0.0
1001
ACAD
1000
AcDbSavedByObjectVersion
1070
     0
  0
VISUALSTYLE
  5
105D
102
{ACAD_XDICTIONARY
360
1634
102
}
102
{ACAD_REACTORS
330
1050
102
}
330
1050
100
AcDbVisualStyle
  2
Thicken
 70
    13
 71
     2
 72
     2
 73
     0
 90
        0
 40
-0.6
 41
-30.0
 62
     5
 63
     7
421
 16777215
 74
     1
 91
        4
 64
     7
 65
   257
 75
     1
175
     1
 42
1.0
 92
       12
 66
     7
 43
1.0
 76
     1
 77
     6
 78
     2
 67
     7
 79
     5
170
     0
171
     0
290
     0
174
     0
 93
        1
 44
0.0
173
     0
291
     1
 45
0.0
1001
ACAD
1000
AcDbSavedByObjectVersion
1070
     0
  0
VISUALSTYLE
  5
1523
102
{ACAD_XDICTIONARY
360
163D
102
}
102
{ACAD_REACTORS
330
1050
102
}
330
1050
100
AcDbVisualStyle
  2
Wireframe
 70
     5
 71
     0
 72
     2
 73
     0
 90
        0
 40
-0.6
 41
-30.0
 62
     5
 63
     7
421
 16777215
 74
     1
 91
        4
 64
     7
 65
   257
 75
     1
175
     1
 42
1.0
 92
        0
 66
   257
 43
1.0
 76
     1
 77
     6
 78
     2
 67
     7
 79
     3
170
     0
171
     0
290
     0
174
     0
 93
        1
 44
0.0
173
     0
291
     0
 45
0.0
1001
ACAD
1000
AcDbSavedByObjectVersion
1070
     0
  0
VISUALSTYLE
  5
1527
102
{ACAD_XDICTIONARY
360
1645
102
}
102
{ACAD_REACTORS
330
1050
102
}
330
1050
100
AcDbVisualStyle
  2
X-Ray
 70
    25
 71
     2
 72
     2
 73
     1
 90
        1
 40
0.5
 41
-30.0
 62
     5
 63
     7
421
 16777215
 74
     1
 91
        0
 64
     7
 65
   257
 75
     1
175
     1
 42
1.0
 92
        8
 66
     7
 43
1.0
 76
     1
 77
     6
 78
     2
 67
     7
 79
     3
170
     0
171
     0
290
     0
174
     0
 93
       13
 44
0.0
173
     0
291
     0
 45
0.0
1001
ACAD
1000
AcDbSavedByObjectVersion
1070
     0
  0
DICTIONARYVAR
  5
1255
102
{ACAD_REACTORS
330
6D8
102
}
330
6D8
100
DictionaryVariables
280
     0
  1
1:1
  0
DICTIONARYVAR
  5
1254
102
{ACAD_REACTORS
330
6D8
102
}
330
6D8
100
DictionaryVariables
280
     0
  1
STANDARD
  0
DICTIONARYVAR
  5
1253
102
{ACAD_REACTORS
330
6D8
102
}
330
6D8
100
DictionaryVariables
280
     0
  1
STANDARD
  0
DICTIONARYVAR
  5
160C
102
{ACAD_REACTORS
330
6D8
102
}
330
6D8
100
DictionaryVariables
280
     0
  1
Imperial24
  0
DICTIONARYVAR
  5
160D
102
{ACAD_REACTORS
330
6D8
102
}
330
6D8
100
DictionaryVariables
280
     0
  1
Imperial24
  0
DICTIONARYVAR
  5
6D9
102
{ACAD_REACTORS
330
6D8
102
}
330
6D8
100
DictionaryVariables
280
     0
  1
1
  0
DICTIONARY
  5
1618
102
{ACAD_REACTORS
330
1616
102
}
330
1616
100
AcDbDictionary
281
     1
  0
DICTIONARY
  5
1617
102
{ACAD_REACTORS
330
1616
102
}
330
1616
100
AcDbDictionary
281
     1
  3
8796081728144
350
1611
  3
8796081728160
350
1612
  3
8796081728176
350
1613
  3
8796081728192
350
1614
  3
8796081728208
350
1615
  0
XRECORD
  5
C16
102
{ACAD_REACTORS
330
C15
102
}
330
C15
100
AcDbXrecord
280
     1
  1
DIMENSION
  1
*DIM*
  1
*
  1
*
 70
     0
  1
*
  1
*
  0
XRECORD
  5
C17
102
{ACAD_REACTORS
330
C15
102
}
330
C15
100
AcDbXrecord
280
     1
  1
HB_X
  1
HB_X*
  1
*
  1
*
 70
     0
  1
*
  1
*
  0
DICTIONARY
  5
1098
330
6D1
100
AcDbDictionary
280
     1
281
     1
  3
ADSK_XREC_LAYOUTTHUMBNAIL
360
1099
  0
DICTIONARY
  5
1041
330
1040
100
AcDbDictionary
280
     1
281
     1
  3
ACAD_XREC_ROUNDTRIP
360
161A
  3
BUMPTILE
360
1043
  3
DIFFUSETILE
360
1042
  3
OPACITYTILE
360
1046
  3
REFLECTIONTILE
360
1045
  3
REFRACTIONTILE
360
1047
  3
SPECULARTILE
360
1044
  0
DICTIONARY
  5
1039
330
1038
100
AcDbDictionary
280
     1
281
     1
  3
ACAD_XREC_ROUNDTRIP
360
1619
  3
BUMPTILE
360
103B
  3
DIFFUSETILE
360
103A
  3
OPACITYTILE
360
103E
  3
REFLECTIONTILE
360
103D
  3
REFRACTIONTILE
360
103F
  3
SPECULARTILE
360
103C
  0
DICTIONARY
  5
1049
330
1048
100
AcDbDictionary
280
     1
281
     1
  3
ACAD_XREC_ROUNDTRIP
360
161B
  3
BUMPTILE
360
104B
  3
DIFFUSETILE
360
104A
  3
OPACITYTILE
360
104E
  3
REFLECTIONTILE
360
104D
  3
REFRACTIONTILE
360
104F
  3
SPECULARTILE
360
104C
  0
DICTIONARY
  5
1246
330
1063
100
AcDbDictionary
280
     1
281
     1
  3
ACAD_ROUNDTRIP_2008_TABLESTYLE_CELLSTYLEMAP
360
160E
  3
ACAD_XREC_ROUNDTRIP
360
163C
  0
DICTIONARY
  5
1626
330
1056
100
AcDbDictionary
280
     1
281
     1
  3
ACAD_XREC_ROUNDTRIP
360
1627
  0
DICTIONARY
  5
162A
330
1058
100
AcDbDictionary
280
     1
281
     1
  3
ACAD_XREC_ROUNDTRIP
360
162B
  0
DICTIONARY
  5
1628
330
1057
100
AcDbDictionary
280
     1
281
     1
  3
ACAD_XREC_ROUNDTRIP
360
1629
  0
DICTIONARY
  5
1624
330
1055
100
AcDbDictionary
280
     1
281
     1
  3
ACAD_XREC_ROUNDTRIP
360
1625
  0
DICTIONARY
  5
1632
330
105C
100
AcDbDictionary
280
     1
281
     1
  3
ACAD_XREC_ROUNDTRIP
360
1633
  0
DICTIONARY
  5
163A
330
1060
100
AcDbDictionary
280
     1
281
     1
  3
ACAD_XREC_ROUNDTRIP
360
163B
  0
DICTIONARY
  5
162C
330
1059
100
AcDbDictionary
280
     1
281
     1
  3
ACAD_XREC_ROUNDTRIP
360
162D
  0
DICTIONARY
  5
1630
330
105B
100
AcDbDictionary
280
     1
281
     1
  3
ACAD_XREC_ROUNDTRIP
360
1631
  0
DICTIONARY
  5
164F
330
152C
100
AcDbDictionary
280
     1
281
     1
  3
ACAD_XREC_ROUNDTRIP
360
1650
  0
DICTIONARY
  5
1638
330
105F
100
AcDbDictionary
280
     1
281
     1
  3
ACAD_XREC_ROUNDTRIP
360
1639
  0
DICTIONARY
  5
161C
330
1051
100
AcDbDictionary
280
     1
281
     1
  3
ACAD_XREC_ROUNDTRIP
360
161D
  0
DICTIONARY
  5
161E
330
1052
100
AcDbDictionary
280
     1
281
     1
  3
ACAD_XREC_ROUNDTRIP
360
161F
  0
DICTIONARY
  5
1620
330
1053
100
AcDbDictionary
280
     1
281
     1
  3
ACAD_XREC_ROUNDTRIP
360
1621
  0
DICTIONARY
  5
1622
330
1054
100
AcDbDictionary
280
     1
281
     1
  3
ACAD_XREC_ROUNDTRIP
360
1623
  0
DICTIONARY
  5
163F
330
1524
100
AcDbDictionary
280
     1
281
     1
  3
ACAD_XREC_ROUNDTRIP
360
1640
  0
DICTIONARY
  5
164B
330
152A
100
AcDbDictionary
280
     1
281
     1
  3
ACAD_XREC_ROUNDTRIP
360
164C
  0
DICTIONARY
  5
1636
330
105E
100
AcDbDictionary
280
     1
281
     1
  3
ACAD_XREC_ROUNDTRIP
360
1637
  0
DICTIONARY
  5
164D
330
152B
100
AcDbDictionary
280
     1
281
     1
  3
ACAD_XREC_ROUNDTRIP
360
164E
  0
DICTIONARY
  5
162E
330
105A
100
AcDbDictionary
280
     1
281
     1
  3
ACAD_XREC_ROUNDTRIP
360
162F
  0
DICTIONARY
  5
1649
330
1529
100
AcDbDictionary
280
     1
281
     1
  3
ACAD_XREC_ROUNDTRIP
360
164A
  0
DICTIONARY
  5
1647
330
1528
100
AcDbDictionary
280
     1
281
     1
  3
ACAD_XREC_ROUNDTRIP
360
1648
  0
DICTIONARY
  5
1641
330
1525
100
AcDbDictionary
280
     1
281
     1
  3
ACAD_XREC_ROUNDTRIP
360
1642
  0
DICTIONARY
  5
1643
330
1526
100
AcDbDictionary
280
     1
281
     1
  3
ACAD_XREC_ROUNDTRIP
360
1644
  0
DICTIONARY
  5
1634
330
105D
100
AcDbDictionary
280
     1
281
     1
  3
ACAD_XREC_ROUNDTRIP
360
1635
  0
DICTIONARY
  5
163D
330
1523
100
AcDbDictionary
280
     1
281
     1
  3
ACAD_XREC_ROUNDTRIP
360
163E
  0
DICTIONARY
  5
1645
330
1527
100
AcDbDictionary
280
     1
281
     1
  3
ACAD_XREC_ROUNDTRIP
360
1646
  0
XRECORD
  5
1611
102
{ACAD_REACTORS
330
1617
102
}
330
1617
100
AcDbXrecord
280
     1
  1
AcDb_Thumbnail_Schema
102
{ATTRRECORD
341
1612
  2
AcDbDs::TreatedAsObjectData
280
     1
291
     1
102
ATTRRECORD}
102
{ATTRRECORD
341
1613
  2
AcDbDs::Legacy
280
     1
291
     1
102
ATTRRECORD}
  2
AcDbDs::ID
280
    10
 91
        8
102
{ATTRRECORD
341
1614
  2
AcDs:Indexable
280
     1
291
     1
102
ATTRRECORD}
102
{ATTRRECORD
341
1615
  2
AcDbDs::HandleAttribute
280
     7
282
     1
102
ATTRRECORD}
  2
Thumbnail_Data
280
    15
 91
        0
  0
XRECORD
  5
1612
102
{ACAD_REACTORS
330
1617
102
}
330
1617
100
AcDbXrecord
280
     1
  1
AcDbDs::TreatedAsObjectDataSchema
  2
AcDbDs::TreatedAsObjectData
280
     1
 91
        0
  0
XRECORD
  5
1613
102
{ACAD_REACTORS
330
1617
102
}
330
1617
100
AcDbXrecord
280
     1
  1
AcDbDs::LegacySchema
  2
AcDbDs::Legacy
280
     1
 91
        0
  0
XRECORD
  5
1614
102
{ACAD_REACTORS
330
1617
102
}
330
1617
100
AcDbXrecord
280
     1
  1
AcDbDs::IndexedPropertySchema
  2
AcDs:Indexable
280
     1
 91
        0
  0
XRECORD
  5
1615
102
{ACAD_REACTORS
330
1617
102
}
330
1617
100
AcDbXrecord
280
     1
  1
AcDbDs::HandleAttributeSchema
  2
AcDbDs::HandleAttribute
280
     7
 91
        1
284
     1
  0
XRECORD
  5
1099
102
{ACAD_REACTORS
330
1098
102
}
330
1098
100
AcDbXrecord
280
     1
310
28000000620000008C0000000100080000000000B0360000000000000000000000010000000000004C00390000000000FFFFFF000000000000000000000000000000000000000000000000000000000000000000330000006600000099000000CC000000FF00000000330000333300006633000099330000CC330000FF3300
310
0000660000336600006666000099660000CC660000FF66000000990000339900006699000099990000CC990000FF99000000CC000033CC000066CC000099CC0000CCCC0000FFCC000000FF000033FF000066FF000099FF0000CCFF0000FFFF000000003300330033006600330099003300CC003300FF003300003333003333
310
33006633330099333300CC333300FF33330000663300336633006666330099663300CC663300FF66330000993300339933006699330099993300CC993300FF99330000CC330033CC330066CC330099CC3300CCCC3300FFCC330000FF330033FF330066FF330099FF3300CCFF3300FFFF330000006600330066006600660099
310
006600CC006600FF00660000336600333366006633660099336600CC336600FF33660000666600336666006666660099666600CC666600FF66660000996600339966006699660099996600CC996600FF99660000CC660033CC660066CC660099CC6600CCCC6600FFCC660000FF660033FF660066FF660099FF6600CCFF6600
310
FFFF660000009900330099006600990099009900CC009900FF00990000339900333399006633990099339900CC339900FF33990000669900336699006666990099669900CC669900FF66990000999900339999006699990099999900CC999900FF99990000CC990033CC990066CC990099CC9900CCCC9900FFCC990000FF99
310
0033FF990066FF990099FF9900CCFF9900FFFF99000000CC003300CC006600CC009900CC00CC00CC00FF00CC000033CC003333CC006633CC009933CC00CC33CC00FF33CC000066CC003366CC006666CC009966CC00CC66CC00FF66CC000099CC003399CC006699CC009999CC00CC99CC00FF99CC0000CCCC0033CCCC0066CC
310
CC0099CCCC00CCCCCC00FFCCCC0000FFCC0033FFCC0066FFCC0099FFCC00CCFFCC00FFFFCC000000FF003300FF006600FF009900FF00CC00FF00FF00FF000033FF003333FF006633FF009933FF00CC33FF00FF33FF000066FF003366FF006666FF009966FF00CC66FF00FF66FF000099FF003399FF006699FF009999FF00CC
310
99FF00FF99FF0000CCFF0033CCFF0066CCFF0099CCFF00CCCCFF00FFCCFF0000FFFF0033FFFF0066FFFF0099FFFF00CCFFFF00FFFFFF00000000000D0D0D001A1A1A00282828003535350043434300505050005D5D5D006B6B6B00787878008686860093939300A1A1A100AEAEAE00BBBBBB00C9C9C900D6D6D600E4E4E400
310
F1F1F100FFFFFF0000000000000000000000000000000000000000000000000000000000000000000000000000000000EFF5F5F5F5F5F5F5F5F5F5F5F5F5F5F5F5F5F5F5F5F5F5F5F5F5F5F5F5F5F5F5F5F5F5F5F5F5F5F5F5F5F5F5F5F5F5F5F5F5F5F5F5F5F5F5F5F5F5F5F5F5F5F5F5F5F5F5F5F5F5F5F5F5F5F5F5F5F5
310
F5F5F5F5F5F5F5F5F5F5F5F5F5F5F5F5F5F5F50000EFF52F2F2F2F2F2F2F2F2F2F2F2F2F2F2F2F2F2F2F2F2F2F2F2F2F2F2F2F2F2F2F2F2F2F2F2F2F2F2F2F2F2F2F2F2F2F2F2F2F2F2F2F2F2F2F2F2F2F2F2F2F2F2F2F2F2F2F2F2F2F2F2F2F2F2F2F2F2F2F2F2F2F2F2F2F2F2F2F2F2F2F2F2F2F2F2F2B44EFF5F5F5F5F5
310
F5F5F5F52F2F2F2F2F2F2F2F2FF5F5F5F5F5F5F5F5F5F5F5F5F5F5F52F2F2F2F2F2F2F2FF5F5F5F5F5F5F5F5F5F5F5F5F5F5F5F52F2F2F2F2F2F2F2FF5F5F5F5F5F5F5F5F5F5F5F5F5F5F52F2F2F2F2F2F2F2F2FF5F5F5F5F5F5F5F59344EFF5F52F2F2F2F2F2F2F2F2F2F2F2F2F2F2F2F2F2F2F2F2F2F2F2F2F2F2F2F2F2F
310
2F2F2F2F2F2F2F2F2F2F2F2F2F2F2F2F2F2F2F2F2F2F2F2F2F2F2F2F2F2F2F2F2F2F2F2F2F2F2F2F2F2F2F2F2F2F2F2F2F2F2F2F2F2F2F2F2F2F2F2F2F2F2F2FF50000EFF5F52F2F2F2F2F2F2F2F2F2F2F2F2F2F2F2F2F2F2F2F2F2F2F2F2F2F2F2F2F2F2F2F2F2F2F2F2F2F2F2F2F2F2F2F2F2F2F2F2F2F2F2F2F2F2F2F2F
310
2F2F2F2F2F2F2F2F2F2F2F2F2F2F2F2F2F2F2F2F2F2F2F2F2F2F2F2F2F2F2F2F2F2F2F2F2FF5FE43EFF5F52F2F2F2F2F2F2F2F2F2F2F2F2F2F2F2F2F2F2F2F2F2F2F2F2F2F2F2F2F2F2F2F2F2F2F2F2F2F2F2F2F2F2F2F2F2F2F2F2F2F2F2F2F2F2F2F2F2F2F2F2F2F2F2F2F2F2F2F2F2F2F2F2F2F2F2F2F2F2F2F2F2F2F2F
310
2F2F2F2F2F2F2F2F2F2FF50244EFF5F52F2F2FF5F5F5F5F5F5F5F5F5F5F5F5F5F5F5F5F5F5F5F5F5F5F5F5F5F5F5F5F5F5F5F5F5F5F5F5F5F5F5F5F5F5F5F5F5F5F5F5F5F5F5F5F5F5F5F5F5F5F5F5F5F5F5F5F5F5F5F5F5F5F5F5F5F5F5F5F5F5F5F5F5F5F5F5F5F5F5F5F52F2FF50000EFF5F52F2F2FF5A8CCC6A8CCA9CC
310
A2CCA2CCA2D3A8D3A2CDA8A2CCA8CDA2F5F5F5F5F5F5F5F5F5F5F5F5F5F5F5F5F5F5F5F5F5F5F5F5F5F5F5F5F5F5F5F5F5F5F5F5F5F5F5F5F5F5F5F5F5F5F5F5F5F5F5F5F5F5F5F5F5F5F5F5F5F5F5F5F52F2FF50744EFF5F52F2F2FF5A2A8A9CDAECDCCA8CDA8CDA8CDA8CCCDA8CCA8CDA8CDA8F5F5F5F5F5F5F5F5F5F5F5
310
F5F5F5F5F5F5F5F5F5F5F5F5F5F5F5F5F5F5F5F5F5F5F5F5F5F5F5F5F5F5F5F5F5F5F5F5F5F5F5F5F5F5F5F5F5F5F5F5F5F5F5F5F5F52F2FF57300EFF5F52F2F2FF5CDCCDAF4F3DBF3DBF4DAF4F3DADBF3F4DAF4DBDAD3F4DAF52F2F2F2F2F2F2F2F2F2F2F2F2F2F2F2F2F2F2F2F2FF52F2F2F2F2F2F2F2F2F2F2F2F2F2F2F
310
2F2F2F2FF52F2F2F2F2F2F2F2F2FF5F5F5F5F5F52F2F2F2F2F2FF52F2FF56800EFF5F52F2F2FF5B0F1B0DAF2DAB6F1DAB0F2F2B6DAB0F2B6DAB6F2B0F1DAF5F5F5F5F52FF5F5F5F5F5F5F5F5F52F2F2F2F2F2F2FF52FF5F5F5F5F52FF5F5F5F5F52F2F2F2F2F2F2FF5F5F5F5F5F5F5F52F2FF5F5F5F5F5F52F2F2F2F2F2FF5
310
2F2FF56500EFF52F2F2F2FF5A19BA1A19BA1A1A1A1A1A19BA1A1A1A19BA1A1A1A1A2A1F5F5F5F5F52F2F2F2F2F2F2F2F2F2F2F2F2F2F2F2F2FF52FF5F5F5F5F52F2F2F2F2F2F2F2F2F2F2F2F2FF5F5F5F5F5F5F5F52F2FF5F5F5F5F5F52F2F2F2F2F2FF52F2F2F0600EFF52F2F2F2FF5A1CCA2A1A8A2A2C5A8A2C5A2A2A8C6
310
A19BC6A8A2C5A2A8F52F2F2F2F2F2F2F2F2F2F2F2F2F2F2F2F2F2F2F2F2FF52F2F2F2F2F2F2F2F2F2F2F2F2F2F2F2F2F2F2FF52F2F2F2F2F2F2F2F2F2F2F2F2F2F2F2F2F2F2F2F2FF52F2F2F8100EFF52F2F2F2FF5D3F3D4CCDAF2D3F2D4DAAFDADAD4F3AFCCB0DAD4AEDADAF5F5F5F5F5F5F5F5F5F5F5F5F5F5F5F5F5F5F5
310
F5F5F5F5F5F5F5F5F5F5F5F5F5F5F5F5F5F5F5F5F5F5F5F5F5F5F5F5F5F5F5F5F5F5F5F5F5F5F5F5F5F5F5F5F5F52F2F2F0800EFF52F2F2F2FF5CCE0A9A1DADAD4F4D3B0A8DADAA1DADADADAAFDAA8DAD4F52F2F2F2F2F2F2F2F2F2F2F2F2F2F2F2F2F2FF5F5F5F5F5F5F5F5F5F5F5F5F5F5F5F5F5F5F5F5F5F5F5F52F2F2F
310
2F2F2F2F2F2F2F2F2F2F2F2F2F2F2F2F2F2FF52F2F2F5F00EFF52F2F2F2FF5C6F4DADAF2DAD4E0AFDAD3DAB6CCD4F2D9F3D3F3CDDAF1F52F2F2F2F2F2F2F2F2F2F2F2F2F2F2F2F2F2FF5F5F5F5F5F5F5F5F5F5F5F5F5F5F5F5F5F5F5F5F5F5F5F52F2F2F2F2F2F2F2F2F2F2F2F2F2F2F2F2F2F2F2F2FF52F2F2F7500EFF52F
310
2F2F2FF5CCF4AFCCDADAA8DADADAA2DADAB6DACDA2DADAD4A8D3DAF5F5F5F52F2F2F2F2F2F2F2F2F2F2F2F2F2F2FF5F5F5F5F5F5F5F5F5F5F5F5F5F5F5F5F5F5F5F5F5F5F5F5F5F5F5F5F5F52F2F2F2F2F2F2F2F2F2F2F2F2F2F2FF52F2F2F0400EFF52F2F2F2FF5CDF4D3A2DAF3A2C5A2C5A1DADAA2C5C59BC5A1C5A1DADA
310
F5F5F5F52F2F2F2F2F2F2F2F2F2F2F2F2F2F2FF5F5F5F5F5F5F5F5F5F5F5F5F5F5F5F5F5F5F5F5F5F5F5F5F5F5F5F5F5F52F2F2F2F2F2F2F2F2F2F2F2F2F2F2FF52F2F2F1402EFF52F2F2F2FF5CCD3AFC6AFD3C59BBE9BC5D4AFBF9A9BBE9BBF9BA2D4D3F52F2F2F2F2F2F2F2F2F2F2F2F2F2F2F2F2F2FF5F5F5F5F5F5F5F5
310
F5F5F5F5F5F5F5F5F5F5F5F5F5F5F5F5F5F5F5F5F5F52F2F2F2F2F2F2F2F2F2F2F2F2F2F2FF52F2F2F3400EFF52F2F2F2FF5F5F5F5F5F5F5F5F5F5F5F5F5F5F5F5F5F5F5F5F5F5F5F5F5F5F5F5F5F5F5F5F5F5F5F5F5F5F5F5F5F5F5F5F5F5F5F5F5F5F5F5F5F5F5F5F5F5F5F5F5F5F5F5F5F5F5F5F5F5F5F5F5F5F5F5F5F5
310
F5F5F5F5F5F5F5F5F5F5F52F2F2F3D00EFF52F2F2F2FF52F2F2F2F2F2F2F2F2F2F2F2F2F2F2F2F2F2F2F2F2F2F2F2F2F2F2F2F2F2F2F2F2F2F2F2F2F2F2F2F2F2F2F2F2F2F2F2F2F2F2F2F2F2F2F2F2F2F2F2F2F2F2F2F2F2F2F2F2F2F2F2F2F2F2F2F2F2F2F2F2F2F2F2F2F2F2FF52F2F2F7300EFF5F52F2F2FF52F2F2F2F
310
2F2F2F2F2F2F2F2F2F2F2F2F2F2F2F2F2F2F2F2F2F2F2F2F2F2F2F2F2F2F2F2F2F2F2F2F2F2F2F2F2F2F2F2F2F2F2F2F2F2F2F2F2F2F2F2F2F2F2F2F2F2F2F2F2F2F2F2F2F2F2F2F2F2F2F2F2F2F2F2F2F2F2FF52F2FF54300EFF5F52F2F2FF52F2F2F2F2F2F2F2F2F2F2F2F2F2F2F2F2F2F2F2F2F2F2F2F2F2F2F2F2F2F2F
310
2F2F2F2F2F2F2F2F2F2F2F2F2F2F2F2F2F2F2F2F2F2F2F2F2F2F2F2F2F2F2F2F2F2F2F2F2F2F2F2F2F2F2F2F2F2F2F2F2F2F2F2F2F2F2F2FF52F2FF56500EFF5F52F2F2FF52F2F2F2F2F2F2F2F2F2F2F2F2F2F2F2F2F2F2F2F2F2F2F2F2F2F2F2F2F2F2F2F2F2F2F2F2F2F2F2F2F2F2F2F2F2F2F2F2F2F2F2F2F2F2F2F2F2F
310
2F2F2F2F2F2F2F2F2F2F2F2F2F2F2F2F2F2F2F2F2F2F2F2F2F2F2F2F2FF52F2FF52300EFF5F52F2F2FF52F2F2F2F2F2F2F2F2F2F2F2F2F2F2F2F2F2F2F2F2F2F2F2F2F2F2F2F2F2F2F2F2F2F2F2F2F2F2F2F2F2F2F2F2F2F2F2F2F2F2F2F2F2F2F2F2F2F2F2F2F2F2F2F2F2F2F2F2F2F2F2F2F2F2F2F2F2F2F2F2F2F2F2F2F
310
2F2FF52F2FF51100EFF5F52F2F2FF52F2F2F2F2F2F2F2F2F2F2F2F2F2F2F2F2F2F2F2F2F2F2F2F2F2F2F2F2F2F2F2F2F2F2F2F2F2F2F2F2F2F2F2F2F2F2F2F2F2F2F2F2F2F2F2F2F2F2F2F2F2F2F2F2F2F2F2F2F2F2F2F2F2F2F2F2F2F2F2F2F2F2F2F2F2F2FF52F2FF50106EFF5F52F2F2FF52F2F2F2F2F2F2F2F2F2F2F2F
310
2F2F2F2F2F2F2F2F2F2F2F2F2F2F2F2F2F2F2F2F2F2F2F2F2F2F2F2F2F2F2F2F2F2F2F2F2F2F2F2F2F2F2F2F2F2F2F2F2F2F2F2F2F2F2F2F2F2F2F2F2F2F2F2F2F2F2F2F2F2F2F2F2F2F2FF52F2FF50000EFF5F52F2F2FF52F2F2F2F2F2F2F2F2F2F2F2F2F2F2F2F2F2F2F2F2F2F2F2F2F2F2F2F2F2F2F2F2F2F2F2F2F2F2F
310
2F2F2F2F2F2F2F2F2F2F2F2F2F2F2F2F2F2F2F2F2F2F2F2F2F2F2F2F2F2F2F2F2F2F2F2F2F2F2F2F2F2F2F2F2F2F2F2FF52F2FF50000EFF5F52F2F2FF52F2F2F2F2F2F2F2F2F2F2F2F2F2F2F2F2F2F2F2F2F2F2F2F2F2F2F2F2F2F2F2F2F2F2F2F2F2F2F2F2F2F2F2F2F2F2F2F2F2F2F2F2F2F2F2F2F2F2F2F2F2F2F2F2F2F
310
2F2F2F2F2F2F2F2F2F2F2F2F2F2F2F2F2F2F2F2F2FF52F2FF50000EFF5F52F2F2FF52F2F2F2F2F2F2F2F2F2F2F2F2F2F2F2F2F2F2F2F2F2F2F2F2F2F2F2F2F2F2F2F2F2F2F2F2F2F2F2F2F2F2F2F2F2F2F2F2F2F2F2F2F2F2F2F2F2F2F2F2F2F2F2F2F2F2F2F2F2F2F2F2F2F2F2F2F2F2F2F2F2F2F2F2F2F2FF52F2FF50000
310
EFF5F52F2F2FF52F2F2F2F2F2F2F2F2F2F2F2F2F2F2F2F2F2F2F2F2F2F2F2F2F2F2F2F2F2F2F2F2F2F2F2F2F2F2F2F2F2F2F2F2F2F2F2F2F2F2F2F2F2F2F2F2F2F2F2F2F2F2F2F2F2F2F2F2F2F2F2F2F2F2F2F2F2F2F2F2F2F2F2F2F2F2FF52F2FF50000EFF5F52F2F2FF52F2F2F2F2F2F2F2F2F2F2F2F2F2F2F2F2F2F2F2F
310
2F2F2F2F2F2F2F2F2F2F2F2F2F2F2F2F2F2F2F2F2F2F2F2F2F2F2F2F2F2F2F2F2F2F2F2F2F2F2F2F2F2F2F2F2F2F2F2F2F2F2F2F2F2F2F2F2F2F2F2F2F2F2F2F2F2F2FF52F2FF50000EFF5F52F2F2FF52F2F2F2F2F2F2F2F2F2F2F2F2F2F2F2F2F2F2F2F2F2F2F2F2F2F2F2F2F2F2F2F2F2F2F2F2F2F2F2F2F2F2F2F2F2F2F
310
2F2F2F2F2F2F2F2F2F2F2F2F2F2F2F2F2F2F2F2F2F2F2F2F2F2F2F2F2F2F2F2F2F2F2F2F2F2F2F2FF52F2FF50000EFF5F52F2F2FF52F2F2F2F2F2F2F2F2F2F2F2F2F2F2F2F2F2F2F2F2F2F2F2F2F2F2F2F2F2F2F2F2F2F2F2F2F2F2F2F2F2F2F2F2F2F2F2F2F2F2F2F2F2F2F2F2F2F2F2F2F2F2F2F2F2F2F2F2F2F2F2F2F2F
310
2F2F2F2F2F2F2F2F2F2F2F2F2FF52F2FF50000EFF5F52F2F2FF52F2F2F2F2F2F2F2F2F2F2F2F2F2F2F2F2F2F2F2F2F2F2F2F2F2F2F2F2F2F2F2F2F2F2F2F2F2F2F2F2F2F2F2F2F2F2F2F2F2F2F2F2F2F2F2F2F2F2F2F2F2F2F2F2F2F2F2F2F2F2F2F2F2F2F2F2F2F2F2F2F2F2F2F2F2F2FF52F2FF50000EFF5F52F2F2FF52F
310
2F2F2F2F2F2F2F2F2F2F2F2F2F2F2F2F2F2F2F2F2F2F2F2F2F2F2F2F2F2F2F2F2F2F2F2F2F2F2F2F2F2F2F2F2F2F2F2F2F2F2F2F2F2F2F2F2F2F2F2F2F2F2F2F2F2F2F2F2F2F2F2F2F2F2F2F2F2F2F2F2F2F2F2F2F2FF52F2FF50000EFF5F52F2F2FF52F2F2F2F2F2F2F2F2F2F2F2F2F2F2F2F2F2F2F2F2F2F2F2F2F2F2F2F
310
2F2F2F2F2F2F2F2F2F2F2F2F2F2F2F2F2F2F2F2F2F2F2F2F2F2F2F2F2F2F2F2F2F2F2F2F2F2F2F2F2F2F2F2F2F2F2F2F2F2F2F2F2F2F2F2F2F2F2FF52F2FF50000EFF5F52F2F2FF52F2F2F2F2F2F2F2F2F2F2F2F2F2F2F2F2F2F2F2F2F2F2F2F2F2F2F2F2F2F2F2F2F2F2F2F2F2F2F2F2F2F2F2F2F2F2F2F2F2F2F2F2F2F2F
310
2F2F2F2F2F2F2F2F2F2F2F2F2F2F2F2F2F2F2F2F2F2F2F2F2F2F2F2F2F2F2F2FF52F2FF50000EFF52F2F2F2FF52F2F2F2F2F2F2F2F2F2F2F2F2F2F2F2F2F2F2F2F2F2F2F2F2F2F2F2F2F2F2F2F2F2F2F2F2F2F2F2F2F2F2F2F2F2F2F2F2F2F2F2F2F2F2F2F2F2F2F2F2F2F2F2F2F2F2F2F2F2F2F2F2F2F2F2F2F2F2F2F2F2F
310
2F2F2F2F2FF52F2F2F0000EFF52F2F2F2FF52F2F2F2F2F2F2F2F2F2F2F2F2F2F2F2F2F2F2F2F2F2F2F2F2F2F2F2F2F2F2F2F2F2F2F2F2F2F2F2F2F2F2F2F2F2F2F2F2F2F2F2F2F2F2F2F2F2F2F2F2F2F2F2F2F2F2F2F2F2F2F2F2F2F2F2F2F2F2F2F2F2F2F2F2F2F2FF52F2F2F0000EFF52F2F2F2FF52F2F2F2F2F2F2F2F2F
310
2F2F2F2F2F2F2F2F2F2F2F2F2F2F2F2F2F2F2F2F2F2F2F2F2F2F2F2F2F2F2F2F2F2F2F2F2F2F2F2F2F2F2F2F2F2F2F2F2F2F2F2F2F2F2F2F2F2F2F2F2F2F2F2F2F2F2F2F2F2F2F2F2F2F2F2F2F2FF52F2F2F0000EFF52F2F2F2FF52F2F2F2F2F2F2F2F2F2F2F2F2F2F2F2F2F2F2F2F2F2F2F2F2F2F2F2F2F2F2F2F2F2F2F2F
310
2F2F2F2F2F2F2F2F2F2F2F2F2F2F2F2F2F2F2F2F2F2F2F2F2F2F2F2F2F2F2F2F2F2F2F2F2F2F2F2F2F2F2F2F2F2F2F2F2F2F2FF52F2F2F0000EFF52F2F2F2FF52F2F2F2F2F2F2F2F2F2F2F2F2F2F2F2F2F2F2F2F2F2F2F2F2F2F2F2F2F2F2F2F2F2F2F2F2F2F2F2F2F2F2F2F2F2F2F2F2F2F2F2F2F2F2F2F2F2F2F2F2F2F2F
310
2F2F2F2F2F2F2F2F2F2F2F2F2F2F2F2F2F2F2F2F2F2F2F2FF52F2F2F0000EFF52F2F2F2FF52F2F2F2F2F2F2F2F2F2F2F2F2F2F2F2F2F2F2F2F2F2F2F2F2F2F2F2F2F2F2F2F2F2F2F2F2F2F2F2F2F2F2F2F2F2F2F2F2F2F2F2F2F2F2F2F2F2F2F2F2F2F2F2F2F2F2F2F2F2F2F2F2F2F2F2F2F2F2F2F2F2F2F2F2F2F2FF52F2F
310
2F7600EFF52F2F2F2FF52F2F2F2F2F2F2F2F2F2F2F2F2F2F2F2F2F2F2F2F2F2F2F2F2F2F2F2F2F2F2F2F2F2F2F2F2F2F2F2F2F2F2F2F2F2F2F2F2F2F2F2F2F2F2F2F2F2F2F2F2F2F2F2F2F2F2F2F2F2F2F2F2F2F2F2F2F2F2F2F2F2F2F2F2F2F2FF52F2F2F2E00EFF52F2F2F2FF52F2F2F2F2F2F2F2F2F2F2F2F2F2F2F2F2F
310
2F2F2F2F2F2F2F2F2F2F2F2F2F2F2F2F2F2F2F2F2F2F2F2F2F2F2F2F2F2F2F2F2F2F2F2F2F2F2F2F2F2F2F2F2F2F2F2F2F2F2F2F2F2F2F2F2F2F2F2F2F2F2F2F2F2F2F2F2F2FF52F2F2F3000EFF52F2F2F2FF52F2F2F2F2F2F2F2F2F2F2F2F2F2F2F2F2F2F2F2F2F2F2F2F2F2F2F2F2F2F2F2F2F2F2F2F2F2F2F2F2F2F2F2F
310
2F2F2F2F2F2F2F2F2F2F2F2F2F2F2F2F2F2F2F2F2F2F2F2F2F2F2F2F2F2F2F2F2F2F2F2F2F2F2F2F2F2F2FF52F2F2F2900EFF52F2F2F2FF5F5F5F5F5F5F5F5F5F5F5F5F5F5F5F5F5F5F5F5F5F5F5F5F5F5F5F5F5F5F5F5F5F5F5F5F5F5F5F5F5F5F5F5F5F5F5F5F5F5F5F5F5F5F5F5F5F5F5F5F5F5F5F5F5F5F5F5F5F5F5F5
310
F5F5F5F5F5F5F5F5F5F5F5F5F5F5F52FF52F2F2F2000EFF5F52F2F2FF52F2F2F2F2F2F2F2F2F2F2F2F2F2F2F2F2F2F2F2F2F2F2F2F2F2F2F2F2F2F2F2F2F2F2F2F2F2F2F2F2F2F2F2F2F2F2F2F2F2F2F2F2F2F2F2F2F2F2F2F2F2F2F2F2F2F2F2F2F2F2F2F2F2F2F2F2F2F2F2F2F2F2F2F2FF52FF52F2FF50000EFF5F52F2F
310
2FF52F2F2F2F2F2F2F2F2F2F2F2F2F2F2F2F2F2F2F2F2F2F2F2F2F2F2F2F2F2F2F2F2F2F2F2F2F2F2F2F2F2F2F2F2F2F2F2F2F2F2F2F2F2F2F2F2F2F2F2F2F2F2F2F2F2F2F2F2F2F2F2F2F2F2F2F2F2F2F2F2F2F2F2F2FF52FF52F2FF50000EFF5F52F2F2FF52F2F2F2F2F2F2F2F2F2F2F2F2F2F2F2F2F2F2F2F2F2F2F2F2F
310
2F2F2FEC2F2F2F2F2F2F2F2F2F2F2F2F2F2F2F2F2F2F2F2F2F2F2F2F2F2F2F2F2F2FEC2F2F2F2F2F2F2F2F2F2F2F2F2F2F2F2F2F2F2F2F2F2F2F2F2FF52FF52F2FF50000EFF5F52F2F2FF52F2F2F2F2F2F2F2F2F2F2F2F2F2F2F2F2F2F2F2F2F2F2F2F2F2FECECECECEC2F2F2F2F2F2F2F2F2F2F2F2F2F2F2F2F2F2F2F2F2F
310
2F2F2F2F2FECECECECEC2F2F2F2F2F2F2F2F2F2F2F2F2F2F2F2F2F2F2F2F2F2F2FF52FF52F2FF50000EFF5F52F2F2FF52F2F2F2F2F2F2F2F2F2F2F2F2F2F2F2F2F2F2F2F2F2F2F2FECECECECECECECECEC2F2F2F2F2F2F2F2F2F2F2F2F2F2F2F2F2F2F2F2F2F2FECECECEC2FECECECEC2F2F2F2F2F2F2F2F2F2F2F2F2F2F2F
310
2F2F2F2F2F2FF52FF52F2FF50000EFF5F52F2F2FF52F2F2F2F2F2F2F2F2F2F2F2F2F2F2F2F2F2F2F2F2F2F2FECECEC2FECECECECECECECEC2F2F2F2F2F2F2F2F2F2F2F2F2F2F2F2F2F2F2FECECEC2F2F2F2F2FECECECEC2F2F2F2F2FF5F52F2F2F2F2F2F2F2F2F2F2F2FF52FF52F2FF50000EFF5F52F2F2FF52F2F2F2F2F2F
310
2F2F2F2F2F2F2F2F2F2F2F2F2F2F2FECECEC2FECEC2FEC2F2FECECECECEC2F2F2F2F2F2F2F2F2F2F2F2F2F2F2F2FECECEC2F2F2F2F2FECECECECECECECEC2FF5F5F5C3C32F2F2F2F2F2F2F2F2F2F2FF52FF52F2FF50000EFF5F52F2F2FF52F2F2F2F2F2F2F2F2F2F2F2F2FF5F52F2F2F2FECECECECECEC2FECECECECEC2FEC
310
2FECECECEC2F2F2F2F2F2F2F2F2F2F2F2FECECECEC2F2F2F2FECECECECECECEC2FECECECECF5F5C3C32F2F2F2F2F2F2F2F2F2F2FF52FF52F2FF50000EFF5F52F2F2FF52F2F2F2F2F2F2F2F2F2F2F2FC3F5F5F5F52FECECECEC2FECECEC2F2FEC2F2FECEC2FECEC2FECECEC2F2F2F2F2F2F2F2F2FECECEC2F2F2F2F2FECEC2F
310
ECECECECEC2FECECECECECECC32F2F2F2F2F2F2F2F2F2F2F2FF52FF52F2FF50000EFF5F52F2F2FF52F2F2F2F2F2F2F2F2F2F2F2FC3F5F52FECECEC2FECEC2FEC2F2FECEC2FECEC2FEC2FECEC2FECECECECEC2F2F2F2F2FECECEC2F2F2F2F2FECECECEC2FECECECECEC2FECEC2FECECECECEC2F2F2F2F2F2F2F2F2F2F2FF52F
310
F52F2FF50000EFF5F52F2F2FF52F2F2F2F2F2F2F2F2F2F2F2F2FC3ECECECECEC2FECEC2FECECEC2F2F2F2F2FECEC2FECEC2FECEC2F2FECECEC2FECECECECF5F5F52FECECEC2F2FEC2FECECECECEC2FECEC2FECECF5ECECECEC2F2F2F2F2F2F2F2F2FF52FF52F2FF50000EFF5F52F2F2FF52F2F2F2F2F2F2F2F2F2F2F2F2FEC
310
ECEC2FECEC2FECEC2FEC2F2F2F2F2F2F2FECEC2FECEC2FECECECEC2F2FECECECECC3F5F52FECECECEC2F2F2FEC2FECECECECEC2FECEC2FECEC2FECECECECECEC2F2F2F2F2F2F2FF52FF52F2FF50000EFF5F52F2F2FF52F2F2F2F2F2F2F2F2F2F2FECECECF5ECECECEC2FECEC2FEC2F2F2F2F2F2F2FECEC2FECEC2FECECEC2F
310
ECECECECECECC3C3ECECECEC2F2F2F2F2FEC2FECECECECEC2FECEC2FECEC2FECEC2FECECECEC2F2F2F2F2F2FF52FF52F2FF50000EFF5F52F2F2FF52F2F2F2F2F2F2F2F2FECECECECECEC2FECECEC2FECEC2FEC2F2F2F2F2F2F2FECEC2FECEC2FECECECECEC2FECECECECECECECECECEC2F2F2F2F2FEC2FECECECECEC2FECEC
310
2FECEC2FECEC2FECEC2FEC2F2F2F2F2F2FF52FF52F2FF50000EFF5F52F2F2FF52F2F2F2F2F2F2F2FECECECECEC2FECECECECEC2FECEC2FEC2F2F2F2FEC2F2FECEC2FECEC2FECEC2FECECECECEC2FECECECF5ECECEC2F2F2F2F2FEC2FECECECECEC2FECEC2FECEC2FECEC2FECEC2FEC2F2F2F2F2F2FF52FF52F2FF50000EFF5
310
F52F2F2FF52F2F2F2F2F2F2F2FECEC2FECECECEC2F2FECEC2FECEC2FEC2F2FECECECECECECEC2FECEC2FECEC2F2F2FECECEC2FECECEC2FECECEC2F2F2F2F2FECECECECECECEC2FECEC2FECEC2FECEC2FECEC2FEC2F2F2F2F2F2FF52FF52F2FF50000EFF5F52F2F2FF52F2F2F2F2F2F2F2FECEC2FECECEC2F2F2FECEC2FECEC
310
2FECECECECECECECECECEC2FECECF5ECEC2F2F2FECECEC2FECECEC2FECECEC2F2F2F2FECEC2FECECECECEC2FECEC2FECEC2FECEC2FECEC2FEC2F2F2F2F2F2FF52FF52F2FF50000EFF52F2F2F2FF52F2F2F2F2F2F2F2FECEC2FECECEC2F2F2FECEC2FECEC2FEC2FECF5F5ECF5F5ECECECECECF5ECEC2F2F2FECECEC2FECECEC
310
2FECECEC2F2FECEC2F2F2F2FECECECEC2FECEC2FECEC2FECEC2FECEC2FEC2F2F2F2F2F2FF52FF52F2F2F0000EFF52F2F2F2FF52F2F2F2F2F2F2F2FECEC2FECECEC2F2F2FECEC2FECECECECECC3ECF5ECECEC2FECECECECECF5EC2F2F2FECECEC2FECECEC2FECECECECEC2F2F2F2FECECECECECECECECEC2FECEC2FECEC2FEC
310
EC2FEC2F2F2F2F2F2FF52FF52F2F2F0000EFF52F2F2F2FF52F2F2F2F2F2F2F2FECEC2FECECEC2F2F2FECEC2FECECECECECECF5F5EC2F2FECEC2FECECECC3ECECEC2FECECEC2FECECEC2FECECECEC2F2F2FECECECECECECECECECECEC2FECECF5F5EC2FECEC2FEC2F2F2F2F2F2FF52FF52F2F2F0000EFF52F2F2F2FF52F2F2F
310
2F2F2F2F2FECEC2FECECEC2FECECECECECECEC2FEC2F2FECEC2FECEC2FEC2FECECC3ECEC2F2FECECECEC2FECECECECECEC2F2F2FECECECECECECF5ECECEC2FECECECECECF5F5EC2FECEC2FEC2F2F2F2F2F2FF52FF52F2F2F0000EFF52F2F2F2FF52F2F2F2F2F2F2F2FECEC2FECECECECF5F5ECEC2FECEC2FECECEC2F2F2F2F
310
2FECEC2FECEC2FECECECEC2F2FECEC2FECECECEC2F2F2F2FECECECECEC2FECF5ECECEC2FECECECECECECECEC2FECEC2FEC2F2F2F2F2F2FF52FF52F2F2F0000EFF52F2F2F2FF52F2F2F2F2F2F2F2FECEC2FECECECF5F5ECECEC2FECEC2FEC2F2F2F2F2F2F2FECEC2FECEC2FECEC2FECECECECECECECECEC2F2F2FECECECECEC
310
ECEC2FECF5ECECEC2FECEC2FECECECECEC2FECEC2FEC2F2F2F2F2F2FF52FF52F2F2F0000EFF52F2F2F2FF52F2F2F2F2F2F2F2FECEC2FECECECF5F52FECEC2FECEC2FEC2F2F2F2F2F2F2FECEC2FECEC2FECECECEC2FECECECECEC2F2F2FECECECECECEC2F2FEC2FECECECECEC2FECEC2FECECECECECECECEC2FEC2F2F2F2F2F
310
2FF52FF52F2F2F0000EFF52F2F2F2FF52F2F2F2F2F2F2F2FECEC2FECECECF5F5ECECEC2FECEC2FEC2F2FF5F52F2F2FECEC2FECEC2FECEC2F2FECECECECECEC2FECECECECECEC2F2F2F2FECF5ECECECECEC2FECEC2FECECF5ECECECECEC2FEC2F2F2F2F2F2FF52FF52F2F2F0000EFF52F2F2F2FF52F2F2F2F2F2F2F2FECECEC
310
ECECC3ECECF5ECF5F5F5F5F52F2FC3F5F5EC2F2FECEC2FECEC2FECECECEC2F2FECECECECECECECECECEC2F2F2F2F2FEC2FECECECECEC2FECEC2FECEC2FECEC2FECECECEC2F2F2F2F2F2FF52FF52F2F2F0000EFF52F2F2F2FF52F2F2F2F2F2F2F2FECECECECECEC2FECECEC2F2F2F2F2F2FF5F5F5F5F5F5F5ECEC2FECEC2FEC
310
ECECECECECECECECECECECECECECEC2F2F2F2F2FEC2FECECECECEC2FECEC2FECEC2FECEC2FECECECEC2F2F2F2F2F2FF52FF52F2F2F0000EFF5F52F2F2FF52F2F2F2F2F2F2F2FECEC2FECECECECECECECEC2FECC3C3F5ECECF5F5EC2F2FECEC2FECEC2FECEC2F2FECECECEC2FECECEC2FECECEC2F2F2F2F2FEC2FECECECECEC
310
2FECEC2FECEC2FECECECECEC2FEC2F2F2F2F2F2FF52FF52F2FF50000EFF5F52F2F2FF52F2F2F2F2F2F2F2FECEC2FECECECEC2F2FECECC3ECECC3F52FF5F5F52FECEC2FEC2FECEC2FECEC2F2F2FECECEC2FECECEC2FECECEC2F2F2F2F2FEC2FECECECECEC2FECEC2FECEC2FECECECECEC2FEC2F2F2F2F2F2FF52FF52F2FF500
310
00EFF5F52F2F2FF52F2F2F2F2F2F2F2FECEC2FECECEC2F2F2FECC3C3ECECECF5ECEC2FF52F2F2FECEC2FECEC2FECEC2F2F2FECECEC2FECECEC2FECECEC2F2F2F2F2FEC2FECECECBEEC2FECEC2FECECECECEC2FECEC2FEC2F2F2F2F2F2FF52FF52F2FF50000EFF5F52F2F2FF52F2F2F2F2F2F2F2FECEC2FECECEC2F2F2FECEC
310
C3ECECECF5F5F52F2F2F2F2F2F2FECECEC2FECEC2F2F2FECECEC2FECECEC2FECECECECEC2FECECEC2FECBEBEECBEBEECEC2FECEC2FECEC2FECEC2FEC2F2F2F2F2F2FF52FF52F2FF50000EFF5F52F2F2FF52F2F2F2F2F2F2F2FECEC2FECECEC2F2F2FECEC2FECECEC2FF5F52F2F2F2F2F2F2F2F2FECECECECECEC2FECECEC2F
310
ECECEC2FECECECECECEC2F2FECBEBE2F2F2F2FECBEBEECECEC2FECEC2FECEC2FEC2F2F2F2F2F2FF52FF52F2FF50000EFF5F52F2F2FF52F2F2F2F2F2F2F2FECEC2FECECEC2F2FECECECECEC2F2F2F2F2F2F2F2F2F2F2F2F2F2F2FECECEC2F2FECECECEC2FECECEC2FECECECECEC2F2FECBE2F2F2F2F2F2F2F2FECBEECEC2FEC
310
EC2FECEC2FEC2F2F2F2F2F2FF52FF52F2FF50000EFF5F52F2F2FF52F2F2F2F2F2F2F2FECEC2FECECECECEC2FECECBEF5F52F2F2F2F2F2F2F2F2F2F2F2F2F2F2F2FECECEC2FECECEC2FECECEC2FECECECEC2FECECECECEC2F2F2F2F2FECECECECBEBEECECEC2FECEC2FEC2F2F2F2F2F2FF52FF52F2FF50000EFF5F52F2F2FF5
310
2F2F2F2F2F2F2F2FECEC2FECECEC2F2FECEC2FBEECEC2F2F2F2F2F2F2F2F2F2F2F2F2F2F2F2F2F2FECECECECEC2FECECEC2FECEC2FECECBEECEC2FECEC2FECECECECECECEC2FECBEECEC2FECEC2FEC2F2F2F2F2F2FF52FF52F2FF50000EFF5F52F2F2FF52F2F2F2F2F2F2F2FECEC2FECEC2FECECECEC2FBEEC2FECEC2F2F2F
310
2F2F2F2F2F2F2F2F2F2F2F2F2F2FECECECEC2FECECEC2FECECECECEC2FECEC2FECECBEBEECEC2F2FECEC2FECECBEBEECECEC2FEC2F2F2F2F2F2FF52FF52F2FF50000EFF5F52F2F2FF52F2F2F2F2F2F2F2FECEC2FECECECEC2FECEC2FBEECEC2F2FEC2F2F2F2F2F2F2F2F2F2F2F2F2F2F2F2F2F2FECECECECECECECECECBEEC
310
EC2FECEC2FECECBEBE2F2FECECECEC2FECEC2FECBEBEECECEC2F2F2F2F2F2FF52FF52F2FF54166EFF5F52F2F2FF52F2F2F2F2F2F2F2FECECBEECECECEC2FECEC2FBEEC2FECEC2FECEC2F2F2F2F2F2F2F2F2F2F2F2F2F2F2F2F2F2FECECECECBEECEC2FECEC2FECEC2FECECBEBEECECECECECEC2FECEC2FECECECBEECEC2F2F
310
2F2F2F2FF52FF52F2FF50000EFF5F52F2F2FF52F2F2F2F2F2F2F2FECECECEC2FECEC2FECEC2FBEECECEC2FECECECECEC2F2F2F2F2F2F2F2F2F2F2F2F2F2F2F2F2F2FECEC2FECEC2FECEC2FECEC2FECECBEBEECEC2F2FECEC2FECEC2FECECECECEC2F2F2F2F2F2F2FF52FF52F2FF50000EFF5F52F2F2FF52F2F2F2F2F2F2F2F
310
ECECECECBEECEC2FECEC2FBEECECECECECECEC2FECBEBE2F2F2F2F2F2F2F2F2F2F2F2F2F2F2F2F2FECECECEC2FECEC2FECEC2FECECBEBEEC2F2F2FECEC2FECECBEECECECEC2F2F2F2F2F2F2F2FF52FF52F2FF50000EFF5F52F2F2FF52F2F2F2F2F2F2F2F2FECECECBEECEC2FECEC2FBEEC2F2FECECECEC2FECBEBEECEC2F2F
310
2F2F2F2F2F2F2F2F2F2F2F2F2F2F2FECECECECEC2FECEC2FECECBEBEEC2F2F2FECECBEECECECECEC2F2F2F2F2F2F2F2F2F2FF52FF52F2FF50000EFF5F52F2F2FF52F2F2F2F2F2F2F2F2F2F2FECECECECBEECEC2FBEEC2F2F2FECECEC2FECBEBEEC2FEC2F2F2F2F2F2F2F2F2F2F2F2F2F2F2FECEC2FECECEC2FECEC2FECECBE
310
BEEC2F2F2FECECBEECECEC2F2F2F2F2F2F2F2F2F2F2F2FF52FF52F2FF50000EFF5F52F2F2FF52F2F2F2F2F2F2F2F2F2F2F2F2FECECECECEC2FBEEC2F2F2FECECEC2FECBEBEEC2FECECEC2F2F2F2F2F2F2F2F2F2F2F2FECEC2F2FECECECECECEC2FECECBEBEEC2FECBEBEECECEC2F2F2F2F2F2F2F2F2F2F2F2F2F2FF52FF52F
310
2FF50000EFF5F52F2F2FF52F2F2F2F2F2F2F2F2F2F2F2F2F2F2FECECBEBEBEEC2F2F2FECECEC2FECBEBEECECEC2FECECEC2F2F2F2F2F2F2F2FECEC2FECECEC2FEC2FECECEC2FECECBEBEECBEBEECECEC2F2F2F2F2F2F2F2F2F2F2F2F2F2F2F2FF52FF52F2FF50000EFF52F2F2F2FF52F2F2F2F2F2F2F2F2F2F2F2F2F2F2F2F
310
ECECECECECBEEC2FECECEC2FECBEBEECECEC2FEC2F2FEC2F2F2F2F2F2FECECEC2FEC2FECECEC2FECECECECECECBEBEBEBEECECEC2F2F2F2F2F2F2F2F2F2F2F2F2F2F2F2F2FF52FF52F2F2F0000EFF52F2F2F2FF52F2F2F2F2F2F2F2F2F2F2F2F2F2F2F2F2F2FECECECBEBEECECECEC2FECBEBEEC2FEC2FECECECECECEC2F2F
310
ECEC2FECEC2FECECEC2FEC2FECEC2FECECECECBEECECEC2F2F2F2F2F2F2F2F2F2F2F2F2F2F2F2F2F2F2FF52FF52F2F2F0000EFF52F2F2F2FF52F2F2F2F2F2F2F2F2F2F2F2F2F2F2F2F2F2F2F2FECECECBEBEECEC2FECBEBEECECEC2FEC2F2FEC2FECBEBEECEC2FECEC2FEC2F2F2FEC2FECEC2FECECBEECECEC2F2F2F2F2F2F
310
2F2F2F2F2F2F2F2F2F2F2F2F2F2F2FF52FF52F2F2F0000EFF52F2F2F2FF52F2F2F2F2F2FC3C3C3C3C3C3C3C3C3C3C3C3C3C32F2FECECECBEEC2FECBEBEECECEC2FECECECEC2FECBEBEECEC2FECEC2FEC2F2F2FEC2FECEC2FECECECEC2F2F2F2F2F2F2F2F2F2F2F2F2F2F2F2F2F2F2F2F2F2F2FF52FF52F2F2F3F00EFF52F2F
310
2F2FF52F2F2F2F2F2FC3C3C3C3C3C32F2FC3C3C3C3C3C32F2F2FECECECECBEECBEBEEC2FEC2FECEC2FEC2FECBEBEECEC2FECEC2FEC2F2F2FEC2FECECBEECECEC2F2F2F2F2F2F2F2F2F2F2F2F2F2F2F2F2F2F2F2F2F2F2F2FF52FF52F2F2F2F2FEFF52F2F2F2FF52F2F2F2F2F2FC3C3C3C3C3C32F2FC3C3C3C3C3C32F2F2F2F
310
2FECECECECBEBEEC2FEC2FECECECEC2FECBEBEECEC2FECEC2FEC2F2F2FECBEECECECEC2F2F2F2F2F2F2F2F2F2F2F2F2F2F2F2F2F2F2F2F2F2F2F2F2F2FF52FF52F2F2FDC2FEFF52F2F2F2FF52F2F2F2F2F2FC3C3C3C3C3C32F2FC3C3C3C3C3C32F2F2F2F2F2F2FECECECBEECECEC2FEC2F2FEC2FECBEBEECEC2FECEC2FEC2F
310
2FBEBEECECEC2F2F2F2F2F2F2F2F2F2F2F2F2F2F2F2F2F2F2F2F2F2F2F2F2F2F2F2FF52FF52F2F2FDCDCEFF52F2F2F2FF52F2F2F2F2F2FC3C3C3C3C3C32F2FC3C3C3C3C3C32F2F2F2F2F2F2F2FECECECECBEECECEC2F2FEC2FECBEBEECEC2FECEC2FECBEBEBEECEC2F2F2F2F2F2F2F2F2F2F2F2F2F2F2F2F2F2F2F2F2F2F2F
310
2F2F2F2F2F2F2FF52FF52F2F2F2F2FEFF52F2F2F2FF52F2F2F2F2F2FC3C3C3C3C3C32F2FC3C3C3C3C3C32F2F2F2F2F2F2F2F2F2FECECECBEBEEC2F2FEC2FECBEBEECEC2FECECBEECBEECEC2F2F2F2F2F2F2F2F2F2F2F2F2F2F2F2F2F2F2F2F2F2F2F2F2F2F2F2F2F2F2F2FF52FF52F2F2F6900EFF52F2F2F2FF52F2F2F2F2F
310
2FC3C3C3C3C3C3C3C3C3C3C3C3C3C32F2F2F2F2F2F2F2F2F2F2F2FECECECBEBEECEC2FECBEBEECEC2FECECBEECEC2F2F2F2F2F2F2F2F2F2F2F2F2F2F2F2F2F2F2F2F2F2F2F2F2F2F2F2F2F2F2F2F2F2FF52FF52F2F2F0500EFF5F52F2F2FF52F2F2F2F2F2FC3C3C3C3C3C3C3C3C3C3C3C3C3C32F2F2F2F2F2F2F2F2F2F2F2F
310
2F2FECECECBEECECECBEBEECECBEECECECEC2F2F2F2F2F2F2F2F2F2F2F2F2F2F2F2F2F2F2F2F2F2F2F2F2F2F2F2F2F2F2F2F2F2F2FF52FF52F2FF56C00EFF5F52F2F2FF52F2F2F2F2F2F2F2F2F2F2F2F2F2F2F2F2F2F2F2F2F2F2F2F2F2F2F2F2F2F2F2F2F2F2FECECECECBEECBEBEECECBEECECEC2F2F2F2F2F2F2F2F2F2F
310
2F2F2F2F2F2F2F2F2F2F2F2F2F2F2F2F2F2F2F2F2F2F2F2F2F2FF52FF52F2FF57700EFF5F52F2F2FF52F2F2F2F2F2F2F2F2F2F2F2F2F2F2F2F2F2F2F2F2F2F2F2F2F2F2F2F2F2F2F2F2F2F2F2F2FECECECECBEBEECECEC2F2F2F2F2F2F2F2F2F2F2F2F2F2F2F2F2F2F2F2F2F2F2F2F2F2F2F2F2F2F2F2F2F2F2F2F2F2F2FF5
310
2FF52F2FF50300EFF5F52F2F2FF52F2F2F2F2F2F2F2F2F2F2F2F2F2F2F2F2F2F2F2F2F2F2F2F2F2F2F2F2F2F2F2F2F2F2F2F2F2F2FECECECECEC2F2F2F2F2F2F2F2F2F2F2F2F2F2F2F2F2F2F2F2F2F2F2F2F2F2F2F2F2F2F2F2F2F2F2F2F2F2F2F2F2FF52FF52F2FF53D00EFF5F52F2F2FF52F2F2F2F2F2F2F2F2F2F2F2F2F
310
2F2F2F2F2F2F2F2F2F2F2F2F2F2F2F2F2F2F2F2F2F2F2F2F2F2F2F2FEC2F2F2F2F2F2F2F2F2F2F2F2F2F2F2F2F2F2F2F2F2F2F2F2F2F2F2F2F2F2F2F2F2F2F2F2F2F2F2F2F2F2F2FF52FF52F2FF57200EFF5F52F2F2FF52F2F2F2F2F2F2F2F2F2F2F2F2F2F2F2F2F2F2F2F2F2F2F2F2F2F2F2F2F2F2F2F2F2F2F2F2F2F2F2F
310
2F2F2F2F2F2F2F2F2F2F2F2F2F2F2F2F2F2F2F2F2F2F2F2F2F2F2F2F2F2F2F2F2F2F2F2F2F2F2F2F2F2F2F2F2FF52FF52F2FF51300EFF5F52F2F2FF52F2F2F2F2F2F2F2F2F2F2F2F2F2F2F2F2F2F2F2F2F2F2F2F2F2F2F2F2F2F2F2F2F2F2F2F2F2F2F2F2F2F2F2F2F2F2F2F2F2F2F2F2F2F2F2F2F2F2F2F2F2F2F2F2F2F2F
310
2F2F2F2F2F2F2F2F2F2F2F2F2F2F2F2F2F2FF52FF52F2FF56500EFF5F52F2F2FF52F2F2F2F2F2F2F2F2F2F2F2F2F2F2F2F2F2F2F2F2F2F2F2F2F2F2F2F2F2F2F2F2F2F2F2F2F2F2F2F2F2F2F2F2F2F2F2F2F2F2F2F2F2F2F2F2F2F2F2F2F2F2F2F2F2F2F2F2F2F2F2F2F2F2F2F2F2F2F2F2F2F2F2F2FF52FF52F2FF52E00EF
310
F5F52F2F2FF52F2F2F2F2F2F2F2F2F2F2F2F2F2F2F2F2F2F2F2F2F2F2F2F2F2F2F2F2F2F2F2F2F2F2F2F2F2F2F2F2F2F2F2F2F2F2F2F2F2F2F2F2F2F2F2F2F2F2F2F2F2F2F2F2F2F2F2F2F2F2F2F2F2F2F2F2F2F2F2F2F2F2F2F2FF52FF52F2FF56F00EFF5F52F2F2FF5F5F5F5F5F5F5F5F5F5F5F5F5F5F5F5F5F5F5F5F5F5
310
F5F5F5F5F5F5F5F5F5F5F5F5F5F5F5F5F5F5F5F5F5F5F5F5F5F5F5F5F5F5F5F5F5F5F5F5F5F5F5F5F5F5F5F5F5F5F5F5F5F5F5F5F5F5F5F5F5F5F5F5F5F5F5F5F52FF52F2FF57800EFF5F52F2F2FF52F2F2F2F2F2F2F2F2F2F2F2F2F2F2F2F2F2F2F2F2F2F2F2F2F2F2F2F2F2F2F2F2F2F2F2F2F2F2F2F2F2F2F2F2F2F2F2F
310
2F2F2F2F2F2F2F2F2F2F2F2F2F2F2F2F2F2F2F2F2F2F2F2F2F2F2F2F2F2F2F2F2F2F2F2F2F2F2FF52F2FF53600EFF5F52F2F2FF52F2F2F2F2F2F2F2F2F2F2F2F2F2F2F2F2F2F2F2F2F2F2F2F2F2F2F2F2F2F2F2F2F2F2F2F2F2F2F2F2F2F2F2F2F2F2F2F2F2F2F2F2F2F2F2F2F2F2F2F2F2F2F2F2F2F2F2F2F2F2F2F2F2F2F
310
2F2F2F2F2F2F2F2F2F2F2F2FF52F2FF50700EFF5F52F2F2FF52F2F2F2F2F2F2F2F2F2F2F2F2F2F2F2F2F2F2F2F2F2F2F2F2F2F2F2F2F2F2F2F2F2F2F2F2F2F2F2F2F2F2F2F2F2F2F2F2F2F2F2F2F2F2F2F2F2F2F2F2F2F2F2F2F2F2F2F2F2F2F2F2F2F2F2F2F2F2F2F2F2F2F2F2F2F2FF52F2FF50500EFF5F52F2F2FF52F2F
310
2F2F2F2F2F2F2F2F2F2F2F2F2F2F2F2F2F2F2F2F2F2F2F2F2F2F2F2F2F2F2F2F2F2F2F2F2F2F2F2F2F2F2F2F2F2F2F2F2F2F2F2F2F2F2F2F2F2F2F2F2F2F2F2F2F2F2F2F2F2F2F2F2F2F2F2F2F2F2F2F2F2F2F2F2FF52F2FF53300EFF5F52F2F2FF52F2F2F2F2F2F2F2F2F2F2F2F2F2F2F2F2F2F2F2F2F2F2F2F2F2F2F2F2F
310
2F2F2F2F2F2F2F2F2F2F2F2F2F2F2F2F2F2F2F2F2F2F2F2F2F2F2F2F2F2F2F2F2F2F2F2F2F2F2F2F2F2F2F2F2F2F2F2F2F2F2F2F2F2F2F2F2F2FF52F2FF53000EFF5F52F2F2FF52F2F2F2F2F2F2F2F2F2F2F2F2F2F2F2F2F2F2F2F2F2F2F2F2F2F2F2F2F2F2F2F2F2F2F2F2F2F2F2F2F2F2F2F2F2F2F2F2F2F2F2F2F2F2F2F
310
2F2F2F2F2F2F2F2F2F2F2F2F2F2F2F2F2F2F2F2F2F2F2F2F2F2F2F2F2F2F2FF52F2FF53500EFF5F52F2F2FF52F2F2F2F2F2F2F2F2F2F2F2F2F2F2F2F2F2F2F2F2F2F2F2F2F2F2F2F2F2F2F2F2F2F2F2F2F2F2F2F2F2F2F2F2F2F2F2F2F2F2F2F2F2F2F2F2F2F2F2F2F2F2F2F2F2F2F2F2F2F2F2F2F2F2F2F2F2F2F2F2F2F2F
310
2F2F2F2FF52F2FF57400EFF52F2F2F2FF52F2F2F2F2F2F2F2F2F2F2F2F2F2F2F2F2F2F2F2F2F2F2F2F2F2F2F2F2F2F2F2F2F2F2F2F2F2F2F2F2F2F2F2F2F2F2F2F2F2F2F2F2F2F2F2F2F2F2F2F2F2F2F2F2F2F2F2F2F2F2F2F2F2F2F2F2F2F2F2F2F2F2F2F2F2F2FF52F2F2F5C00EFF52F2F2F2FF52F2F2F2F2F2F2F2F2F2F
310
2F2F2F2F2F2F2F2F2F2F2F2F2F2F2F2F2F2F2F2F2F2F2F2F2F2F2F2F2F2F2F2F2F2F2F2F2F2F2F2F2F2F2F2F2F2F2F2F2F2F2F2F2F2F2F2F2F2F2F2F2F2F2F2F2F2F2F2F2F2F2F2F2F2F2F2F2FF52F2F2F5700EFF52F2F2F2FF52F2F2F2F2F2F2F2F2F2F2F2F2F2F2F2F2F2F2F2F2F2F2F2F2F2F2F2F2F2F2F2F2F2F2F2F2F
310
2F2F2F2F2F2F2F2F2F2F2F2F2F2F2F2F2F2F2F2F2F2F2F2F2F2F2F2F2F2F2F2F2F2F2F2F2F2F2F2F2F2F2F2F2F2F2F2F2F2FF52F2F2F0900EFF52F2F2F2FF52F2F2F2F2F2F2F2F2F2F2F2F2F2F2F2F2F2F2F2F2F2F2F2F2F2F2F2F2F2F2F2F2F2F2F2F2F2F2F2F2F2F2F2F2F2F2F2F2F2F2F2F2F2F2F2F2F2F2F2F2F2F2F2F
310
2F2F2F2F2F2F2F2F2F2F2F2F2F2F2F2F2F2F2F2F2F2F2FF52F2F2F1100EFF52F2F2F2FF52F2F2F2F2F2F2F2F2F2F2F2F2F2F2F2F2F2F2F2F2F2F2F2F2F2F2F2F2F2F2F2F2F2F2F2F2F2F2F2F2F2F2F2F2F2F2F2F2F2F2F2F2F2F2F2F2F2F2F2F2F2F2F2F2F2F2F2F2F2F2F2F2F2F2F2F2F2F2F2F2F2F2F2F2F2F2FF52F2F2F
310
0106EFF52F2F2F2FF52F2F2F2F2F2F2F2F2F2F2F2F2F2F2F2F2F2F2F2F2F2F2F2F2F2F2F2F2F2F2F2F2F2F2F2F2F2F2F2F2F2F2F2F2F2F2F2F2F2F2F2F2F2F2F2F2F2F2F2F2F2F2F2F2F2F2F2F2F2F2F2F2F2F2F2F2F2F2F2F2F2F2F2F2F2F2FF52F2F2F2F2FEFF52F2F2F2FF52F2F2F2F2F2F2F2F2F2F2F2F2F2F2F2F2F2F
310
2F2F2F2F2F2F2F2F2F2F2F2F2F2F2F2F2F2F2F2F2F2F2F2F2F2F2F2F2F2F2F2F2F2F2F2F2F2F2F2F2F2F2F2F2F2F2F2F2F2F2F2F2F2F2F2F2F2F2F2F2F2F2F2F2F2F2F2F2FF52F2F2F2F2FEFF52F2F2F2FF52F2F2F2F2F2F2F2F2F2F2F2F2F2F2F2F2F2F2F2F2F2F2F2F2F2F2F2F2F2F2F2F2F2F2F2F2F2F2F2F2F2F2F2F2F
310
2F2F2F2F2F2F2F2F2F2F2F2F2F2F2F2F2F2F2F2F2F2F2F2F2F2F2F2F2F2F2F2F2F2F2F2F2F2F2F2F2F2FF52F2F2F2F2FEFF52F2F2F2FF52F2F2F2F2F2F2F2F2F2F2F2F2F2F2F2F2F2F2F2F2F2F2F2F2F2F2F2F2F2F2F2F2F2F2F2F2F2F2F2F2F2F2F2F2F2F2F2F2F2F2F2F2F2F2F2F2F2F2F2F2F2F2F2F2F2F2F2F2F2F2F2F
310
2F2F2F2F2F2F2F2F2F2F2F2F2F2F2FF52F2F2F2F2FEFF52F2F2F2FF52F2F2F2F2F2F2F2F2F2F2F2F2F2F2F2F2F2F2F2F2F2F2F2F2F2F2F2F2F2F2F2F2F2F2F2F2F2F2F2F2F2F2F2F2F2F2F2F2F2F2F2F2F2F2F2F2F2F2F2F2F2F2F2F2F2F2F2F2F2F2F2F2F2F2F2F2F2F2F2F2F2F2F2F2F2F2FF52F2F2F2F2FEFF5F52F2F2F
310
F52F2F2F2F2F2F2F2F2F2F2F2F2F2F2F2F2F2F2F2F2F2F2F2F2F2F2F2F2F2F2F2F2F2F2F2F2F2F2F2F2F2F2F2F2F2F2F2F2F2F2F2F2F2F2F2F2F2F2F2F2F2F2F2F2F2F2F2F2F2F2F2F2F2F2F2F2F2F2F2F2F2F2F2F2F2F2FF52F2FF52F2FEFF5F52F2F2FF52F2F2F2F2F2F2F2F2F2F2F2F2F2F2F2F2F2F2F2F2F2F2F2F2F2F
310
2F2F2F2F2F2F2F2F2F2F2F2F2F2F2F2F2F2F2F2F2F2F2F2F2F2F2F2F2F2F2F2F2F2F2F2F2F2F2F2F2F2F2F2F2F2F2F2F2F2F2F2F2F2F2F2F2F2F2F2F2FF52F2FF52F2FEFF5F52F2F2FF52F2F2F2F2F2F2F2F2F2F2F2F2F2F2F2F2F2F2F2F2F2F2F2F2F2F2F2F2F2F2F2F2F2F2F2F2F2F2F2F2F2F2F2F2F2F2F2F2F2F2F2F2F
310
2F2F2F2F2F2F2F2F2F2F2F2F2F2F2F2F2F2F2F2F2F2F2F2F2F2F2F2F2F2F2F2F2F2FF52F2FF52F2FEFF5F52F2F2FF52F2F2F2F2F2F2F2F2F2F2F2F2F2F2F2F2F2F2F2F2F2F2F2F2F2F2F2F2F2F2F2F2F2F2F2F2F2F2F2F2F2F2F2F2F2F2F2F2F2F2F2F2F2F2F2F2F2F2F2F2F2F2F2F2F2F2F2F2F2F2F2F2F2F2F2F2F2F2F2F
310
2F2F2F2F2F2F2FF52F2FF52F2FEFF5F52F2F2FF52F2F2F2F2F2F2F2F2F2F2F2F2F2F2F2F2F2F2F2F2F2F2F2F2F2F2F2F2F2F2F2F2F2F2F2F2F2F2F2F2F2F2F2F2F2F2F2F2F2F2F2F2F2F2F2F2F2F2F2F2F2F2F2F2F2F2F2F2F2F2F2F2F2F2F2F2F2F2F2F2F2F2F2F2F2F2FF52F2FF52F2FEFF5F52F2F2FF5F5F5F5F5F5F5F5
310
F5F5F5F5F5F5F5F5F5F5F5F5F5F5F5F5F5F5F5F5F5F5F5F5F5F5F5F5F5F5F5F5F5F5F5F5F5F5F5F5F5F5F5F5F5F5F5F5F5F5F5F5F5F5F5F5F5F5F5F5F5F5F5F5F5F5F5F5F5F5F5F5F5F5F5F5F5F5F5F5F52F2FF57F2FEFF5F52F2F2F2F2F2F2F2F2F2F2F2F2F2F2F2F2F2F2F2F2F2F2F2F2F2F2F2F2F2F2F2F2F2F2F2F2F2F
310
2F2F2F2F2F2F2F2F2F2F2F2F2F2F2F2F2F2F2F2F2F2F2F2F2F2F2F2F2F2F2F2F2F2F2F2F2F2F2F2F2F2F2F2F2F2F2F2F2F2F2F2F2F2F2F2FF52F2FEFF5F52F2F2F2F2F2F2F2F2F2F2F2F2F2F2F2F2F2F2F2F2F2F2F2F2F2F2F2F2F2F2F2F2F2F2F2F2F2F2F2F2F2F2F2F2F2F2F2F2F2F2F2F2F2F2F2F2F2F2F2F2F2F2F2F2F
310
2F2F2F2F2F2F2F2F2F2F2F2F2F2F2F2F2F2F2F2F2F2F2F2F2F2F2F2F2FF52F2FEFF5F5F5F5F5F5F5F5F52F2F2F2F2F2F2F2F2FF5F5F5F5F5F5F5F5F5F5F5F5F5F5F52F2F2F2F2F2F2F2FF5F5F5F5F5F5F5F5F5F5F5F5F5F5F5F52F2F2F2F2F2F2F2FF5F5F5F5F5F5F5F5F5F5F5F5F5F5F52F2F2F2F2F2F2F2F2FF5F5F5F5F5
310
F5F5F5F5F5EFF52F2F2F2F2F2F2F2F2F2F2F2F2F2F2F2F2F2F2F2F2F2F2F2F2F2F2F2F2F2F2F2F2F2F2F2F2F2F2F2F2F2F2F2F2F2F2F2F2F2F2F2F2F2F2F2F2F2F2F2F2F2F2F2F2F2F2F2F2F2F2F2F2F2F2F2F2F2F2F2F2F2F2F2F2F2F2F2F2F2F2F2F2F2F2F2F2F2FEFF5F5F5F5F5F5F5F5F5F5F5F5F5F5F5F5F5F5F5F5F5
310
F5F5F5F5F5F5F5F5F5F5F5F5F5F5F5F5F5F5F5F5F5F5F5F5F5F5F5F5F5F5F5F5F5F5F5F5F5F5F5F5F5F5F5F5F5F5F5F5F5F5F5F5F5F5F5F5F5F5F5F5F5F5F5F5F5F5F5F5F5F5F5F5F5F5F5F52F2F
  0
XRECORD
  5
161A
102
{ACAD_REACTORS
330
1041
102
}
330
1041
100
AcDbXrecord
280
     1
102
MATERIAL
148
0.0
149
0.0
149
0.0
 93
        0
 94
      127
282
     0
 72
     0
 77
     0
171
     0
175
     0
179
     0
273
     0
  0
XRECORD
  5
1043
102
{ACAD_REACTORS
330
1041
102
}
330
1041
100
AcDbXrecord
280
     1
270
     1
271
     1
  0
XRECORD
  5
1042
102
{ACAD_REACTORS
330
1041
102
}
330
1041
100
AcDbXrecord
280
     1
270
     1
271
     1
  0
XRECORD
  5
1046
102
{ACAD_REACTORS
330
1041
102
}
330
1041
100
AcDbXrecord
280
     1
270
     1
271
     1
  0
XRECORD
  5
1045
102
{ACAD_REACTORS
330
1041
102
}
330
1041
100
AcDbXrecord
280
     1
270
     1
271
     1
  0
XRECORD
  5
1047
102
{ACAD_REACTORS
330
1041
102
}
330
1041
100
AcDbXrecord
280
     1
270
     1
271
     1
  0
XRECORD
  5
1044
102
{ACAD_REACTORS
330
1041
102
}
330
1041
100
AcDbXrecord
280
     1
270
     1
271
     1
  0
XRECORD
  5
1619
102
{ACAD_REACTORS
330
1039
102
}
330
1039
100
AcDbXrecord
280
     1
102
MATERIAL
148
0.0
149
0.0
149
0.0
 93
        0
 94
      127
282
     0
 72
     0
 77
     0
171
     0
175
     0
179
     0
273
     0
  0
XRECORD
  5
103B
102
{ACAD_REACTORS
330
1039
102
}
330
1039
100
AcDbXrecord
280
     1
270
     1
271
     1
  0
XRECORD
  5
103A
102
{ACAD_REACTORS
330
1039
102
}
330
1039
100
AcDbXrecord
280
     1
270
     1
271
     1
  0
XRECORD
  5
103E
102
{ACAD_REACTORS
330
1039
102
}
330
1039
100
AcDbXrecord
280
     1
270
     1
271
     1
  0
XRECORD
  5
103D
102
{ACAD_REACTORS
330
1039
102
}
330
1039
100
AcDbXrecord
280
     1
270
     1
271
     1
  0
XRECORD
  5
103F
102
{ACAD_REACTORS
330
1039
102
}
330
1039
100
AcDbXrecord
280
     1
270
     1
271
     1
  0
XRECORD
  5
103C
102
{ACAD_REACTORS
330
1039
102
}
330
1039
100
AcDbXrecord
280
     1
270
     1
271
     1
  0
XRECORD
  5
161B
102
{ACAD_REACTORS
330
1049
102
}
330
1049
100
AcDbXrecord
280
     1
102
MATERIAL
148
0.0
149
0.0
149
0.0
 93
        0
 94
      127
282
     0
 72
     0
 77
     0
171
     0
175
     0
179
     0
273
     0
  0
XRECORD
  5
104B
102
{ACAD_REACTORS
330
1049
102
}
330
1049
100
AcDbXrecord
280
     1
270
     1
271
     1
  0
XRECORD
  5
104A
102
{ACAD_REACTORS
330
1049
102
}
330
1049
100
AcDbXrecord
280
     1
270
     1
271
     1
  0
XRECORD
  5
104E
102
{ACAD_REACTORS
330
1049
102
}
330
1049
100
AcDbXrecord
280
     1
270
     1
271
     1
  0
XRECORD
  5
104D
102
{ACAD_REACTORS
330
1049
102
}
330
1049
100
AcDbXrecord
280
     1
270
     1
271
     1
  0
XRECORD
  5
104F
102
{ACAD_REACTORS
330
1049
102
}
330
1049
100
AcDbXrecord
280
     1
270
     1
271
     1
  0
XRECORD
  5
104C
102
{ACAD_REACTORS
330
1049
102
}
330
1049
100
AcDbXrecord
280
     1
270
     1
271
     1
  0
CELLSTYLEMAP
  5
160E
102
{ACAD_REACTORS
330
1246
102
}
330
1246
100
AcDbCellStyleMap
 90
        3
300
CELLSTYLE
  1
TABLEFORMAT_BEGIN
 90
        5
170
     1
 91
        0
 92
    32768
 62
   257
 93
        1
300
CONTENTFORMAT
  1
CONTENTFORMAT_BEGIN
 90
        0
 91
        0
 92
      512
 93
        0
300

 40
0.0
140
1.0
 94
        5
 62
     0
340
69F
144
0.25
309
CONTENTFORMAT_END
171
     0
 94
        0
309
TABLEFORMAT_END
  1
CELLSTYLE_BEGIN
 90
        1
 91
        1
300
_TITLE
309
CELLSTYLE_END
300
CELLSTYLE
  1
TABLEFORMAT_BEGIN
 90
        5
170
     1
 91
        0
 92
        0
 62
   257
 93
        1
300
CONTENTFORMAT
  1
CONTENTFORMAT_BEGIN
 90
        0
 91
        0
 92
      512
 93
        0
300

 40
0.0
140
1.0
 94
        5
 62
     0
340
69F
144
0.18
309
CONTENTFORMAT_END
171
     0
 94
        0
309
TABLEFORMAT_END
  1
CELLSTYLE_BEGIN
 90
        2
 91
        1
300
_HEADER
309
CELLSTYLE_END
300
CELLSTYLE
  1
TABLEFORMAT_BEGIN
 90
        5
170
     1
 91
        0
 92
        0
 62
   257
 93
        1
300
CONTENTFORMAT
  1
CONTENTFORMAT_BEGIN
 90
        0
 91
        0
 92
      512
 93
        0
300

 40
0.0
140
1.0
 94
        2
 62
     0
340
69F
144
0.18
309
CONTENTFORMAT_END
171
     0
 94
        0
309
TABLEFORMAT_END
  1
CELLSTYLE_BEGIN
 90
        3
 91
        2
300
_DATA
309
CELLSTYLE_END
  0
XRECORD
  5
163C
102
{ACAD_REACTORS
330
1246
102
}
330
1246
100
AcDbXrecord
280
     1
102
ACAD_ROUNDTRIP_PRE2007_TABLESTYLE
 90
      512
 91
        0
  1

 92
      512
 93
        0
  2

 94
      512
 95
        0
  3

  0
XRECORD
  5
1627
102
{ACAD_REACTORS
330
1626
102
}
330
1626
100
AcDbXrecord
280
     1
102
RTVSPost2010Prop28
280
     1
102
RTVSPost2010PropOp28
 70
     1
102
RTVSPost2010Prop29
280
     1
102
RTVSPost2010PropOp29
 70
     1
102
RTVSPost2010Prop30
280
     0
102
RTVSPost2010PropOp30
 70
     1
102
RTVSPost2010Prop31
280
     0
102
RTVSPost2010PropOp31
 70
     1
102
RTVSPost2010Prop32
280
     0
102
RTVSPost2010PropOp32
 70
     1
102
RTVSPost2010Prop33
280
     0
102
RTVSPost2010PropOp33
 70
     1
102
RTVSPost2010Prop34
280
     0
102
RTVSPost2010PropOp34
 70
     1
102
RTVSPost2010Prop35
280
     0
102
RTVSPost2010PropOp35
 70
     1
102
RTVSPost2010Prop36
280
     0
102
RTVSPost2010PropOp36
 70
     1
102
RTVSPost2010Prop37
 90
       50
102
RTVSPost2010PropOp37
 70
     1
102
RTVSPost2010Prop38
140
0.0
102
RTVSPost2010PropOp38
 70
     1
102
RTVSPost2010Prop39
140
1.0
102
RTVSPost2010PropOp39
 70
     1
102
RTVSPost2010Prop40
 90
        0
102
RTVSPost2010PropOp40
 70
     1
102
RTVSPost2010Prop41ColorIndex
 90
       18
102
RTVSPost2010Prop41ColorRGB
 90
        0
102
RTVSPost2010PropOp41
 70
     1
102
RTVSPost2010Prop42
 90
       50
102
RTVSPost2010PropOp42
 70
     1
102
RTVSPost2010Prop43
 90
        3
102
RTVSPost2010PropOp43
 70
     1
102
RTVSPost2010Prop44ColorIndex
 90
        5
102
RTVSPost2010Prop44ColorRGB
 90
      255
102
RTVSPost2010PropOp44
 70
     1
102
RTVSPost2010Prop45
280
     0
102
RTVSPost2010PropOp45
 70
     1
102
RTVSPost2010Prop46
 90
       50
102
RTVSPost2010PropOp46
 70
     1
102
RTVSPost2010Prop47
 90
       50
102
RTVSPost2010PropOp47
 70
     1
102
RTVSPost2010Prop48
 90
       50
102
RTVSPost2010PropOp48
 70
     1
102
RTVSPost2010Prop49
280
     0
102
RTVSPost2010PropOp49
 70
     1
102
RTVSPost2010Prop50
 90
       50
102
RTVSPost2010PropOp50
 70
     1
102
RTVSPost2010Prop51ColorIndex
 90
      256
102
RTVSPost2010Prop51ColorRGB
 90
-16777216
102
RTVSPost2010PropOp51
 70
     0
102
RTVSPost2010Prop52
140
1.0
102
RTVSPost2010PropOp52
 70
     0
102
RTVSPost2010Prop53
 90
        2
102
RTVSPost2010PropOp53
 70
     1
102
RTVSPost2010Prop54
  1
strokes_ogs.tif
102
RTVSPost2010PropOp54
 70
     1
102
RTVSPost2010Prop55
280
     0
102
RTVSPost2010PropOp55
 70
     1
102
RTVSPost2010Prop56
140
1.0
102
RTVSPost2010PropOp56
 70
     1
102
RTVSPost2010Prop57
140
1.0
102
RTVSPost2010PropOp57
 70
     1
102
RTVSPropertyOp0
 70
     1
102
RTVSPropertyOp1
 70
     1
102
RTVSPropertyOp2
 70
     1
102
RTVSPropertyOp3
 70
     1
102
RTVSPropertyOp4
 70
     1
102
RTVSPropertyOp5
 70
     1
102
RTVSPropertyOp6
 70
     1
102
RTVSPropertyOp7
 70
     1
102
RTVSPropertyOp8
 70
     1
102
RTVSPropertyOp9
 70
     1
102
RTVSPropertyOp10
 70
     1
102
RTVSPropertyOp11
 70
     1
102
RTVSPropertyOp12
 70
     1
102
RTVSPropertyOp13
 70
     1
102
RTVSPropertyOp14
 70
     1
102
RTVSPropertyOp15
 70
     1
102
RTVSPropertyOp16
 70
     1
102
RTVSPropertyOp17
 70
     1
102
RTVSPropertyOp18
 70
     1
102
RTVSPropertyOp19
 70
     1
102
RTVSPropertyOp20
 70
     1
102
RTVSPropertyOp21
 70
     1
102
RTVSPropertyOp22
 70
     1
102
RTVSPropertyOp23
 70
     1
102
RTVSPropertyOp24
 70
     1
102
RTVSPropertyOp25
 70
     1
102
RTVSPropertyOp26
 70
     1
102
RTVSPropertyOp27
 70
     1
102
RTVSPropertyOp28
 70
     1
102
RTVSPropertyOp29
 70
     1
102
RTVSPropertyOp30
 70
     1
102
RTVSPropertyOp31
 70
     1
102
RTVSPropertyOp32
 70
     1
102
RTVSPropertyOp33
 70
     1
102
RTVSPropertyOp34
 70
     1
102
RTVSPropertyOp35
 70
     1
102
RTVSPropertyOp36
 70
     1
102
RTVSPropertyOp37
 70
     1
102
RTVSPropertyOp38
 70
     1
102
RTVSPropertyOp39
 70
     1
102
RTVSPropertyOp40
 70
     1
102
RTVSPropertyOp41
 70
     1
102
RTVSPropertyOp42
 70
     1
102
RTVSPropertyOp43
 70
     1
102
RTVSPropertyOp44
 70
     1
102
RTVSPropertyOp45
 70
     1
102
RTVSPropertyOp46
 70
     1
102
RTVSPropertyOp47
 70
     1
102
RTVSPropertyOp48
 70
     1
102
RTVSPropertyOp49
 70
     1
102
RTVSPropertyOp50
 70
     1
102
RTVSPropertyOp51
 70
     0
102
RTVSPropertyOp52
 70
     0
102
RTVSPropertyOp53
 70
     1
102
RTVSPropertyOp54
 70
     1
102
RTVSPropertyOp55
 70
     1
102
RTVSPropertyOp56
 70
     1
102
RTVSPropertyOp57
 70
     1
102
RTVSPropertyOp58
 70
     1
102
RTVSPropertyOp59
 70
     1
102
RTVSPropertyOp60
 70
     1
102
RTVSPropertyOp61
 70
     1
102
RTVSPropertyOp62
 70
     1
  0
XRECORD
  5
162B
102
{ACAD_REACTORS
330
162A
102
}
330
162A
100
AcDbXrecord
280
     1
102
RTVSPost2010Prop28
280
     0
102
RTVSPost2010PropOp28
 70
     1
102
RTVSPost2010Prop29
280
     1
102
RTVSPost2010PropOp29
 70
     1
102
RTVSPost2010Prop30
280
     1
102
RTVSPost2010PropOp30
 70
     1
102
RTVSPost2010Prop31
280
     0
102
RTVSPost2010PropOp31
 70
     1
102
RTVSPost2010Prop32
280
     0
102
RTVSPost2010PropOp32
 70
     1
102
RTVSPost2010Prop33
280
     0
102
RTVSPost2010PropOp33
 70
     1
102
RTVSPost2010Prop34
280
     0
102
RTVSPost2010PropOp34
 70
     1
102
RTVSPost2010Prop35
280
     0
102
RTVSPost2010PropOp35
 70
     1
102
RTVSPost2010Prop36
280
     0
102
RTVSPost2010PropOp36
 70
     1
102
RTVSPost2010Prop37
 90
       50
102
RTVSPost2010PropOp37
 70
     1
102
RTVSPost2010Prop38
140
0.0
102
RTVSPost2010PropOp38
 70
     1
102
RTVSPost2010Prop39
140
1.0
102
RTVSPost2010PropOp39
 70
     1
102
RTVSPost2010Prop40
 90
        0
102
RTVSPost2010PropOp40
 70
     1
102
RTVSPost2010Prop41ColorIndex
 90
       18
102
RTVSPost2010Prop41ColorRGB
 90
        0
102
RTVSPost2010PropOp41
 70
     1
102
RTVSPost2010Prop42
 90
       50
102
RTVSPost2010PropOp42
 70
     1
102
RTVSPost2010Prop43
 90
        3
102
RTVSPost2010PropOp43
 70
     1
102
RTVSPost2010Prop44ColorIndex
 90
        5
102
RTVSPost2010Prop44ColorRGB
 90
      255
102
RTVSPost2010PropOp44
 70
     1
102
RTVSPost2010Prop45
280
     0
102
RTVSPost2010PropOp45
 70
     1
102
RTVSPost2010Prop46
 90
       50
102
RTVSPost2010PropOp46
 70
     1
102
RTVSPost2010Prop47
 90
       50
102
RTVSPost2010PropOp47
 70
     1
102
RTVSPost2010Prop48
 90
       50
102
RTVSPost2010PropOp48
 70
     1
102
RTVSPost2010Prop49
280
     0
102
RTVSPost2010PropOp49
 70
     1
102
RTVSPost2010Prop50
 90
       50
102
RTVSPost2010PropOp50
 70
     1
102
RTVSPost2010Prop51ColorIndex
 90
      256
102
RTVSPost2010Prop51ColorRGB
 90
-16777216
102
RTVSPost2010PropOp51
 70
     0
102
RTVSPost2010Prop52
140
1.0
102
RTVSPost2010PropOp52
 70
     0
102
RTVSPost2010Prop53
 90
        2
102
RTVSPost2010PropOp53
 70
     1
102
RTVSPost2010Prop54
  1
strokes_ogs.tif
102
RTVSPost2010PropOp54
 70
     1
102
RTVSPost2010Prop55
280
     0
102
RTVSPost2010PropOp55
 70
     1
102
RTVSPost2010Prop56
140
1.0
102
RTVSPost2010PropOp56
 70
     1
102
RTVSPost2010Prop57
140
1.0
102
RTVSPost2010PropOp57
 70
     1
102
RTVSPropertyOp0
 70
     1
102
RTVSPropertyOp1
 70
     1
102
RTVSPropertyOp2
 70
     1
102
RTVSPropertyOp3
 70
     1
102
RTVSPropertyOp4
 70
     1
102
RTVSPropertyOp5
 70
     1
102
RTVSPropertyOp6
 70
     1
102
RTVSPropertyOp7
 70
     1
102
RTVSPropertyOp8
 70
     1
102
RTVSPropertyOp9
 70
     1
102
RTVSPropertyOp10
 70
     1
102
RTVSPropertyOp11
 70
     1
102
RTVSPropertyOp12
 70
     1
102
RTVSPropertyOp13
 70
     1
102
RTVSPropertyOp14
 70
     1
102
RTVSPropertyOp15
 70
     1
102
RTVSPropertyOp16
 70
     1
102
RTVSPropertyOp17
 70
     1
102
RTVSPropertyOp18
 70
     1
102
RTVSPropertyOp19
 70
     1
102
RTVSPropertyOp20
 70
     1
102
RTVSPropertyOp21
 70
     1
102
RTVSPropertyOp22
 70
     1
102
RTVSPropertyOp23
 70
     1
102
RTVSPropertyOp24
 70
     1
102
RTVSPropertyOp25
 70
     1
102
RTVSPropertyOp26
 70
     1
102
RTVSPropertyOp27
 70
     1
102
RTVSPropertyOp28
 70
     1
102
RTVSPropertyOp29
 70
     1
102
RTVSPropertyOp30
 70
     1
102
RTVSPropertyOp31
 70
     1
102
RTVSPropertyOp32
 70
     1
102
RTVSPropertyOp33
 70
     1
102
RTVSPropertyOp34
 70
     1
102
RTVSPropertyOp35
 70
     1
102
RTVSPropertyOp36
 70
     1
102
RTVSPropertyOp37
 70
     1
102
RTVSPropertyOp38
 70
     1
102
RTVSPropertyOp39
 70
     1
102
RTVSPropertyOp40
 70
     1
102
RTVSPropertyOp41
 70
     1
102
RTVSPropertyOp42
 70
     1
102
RTVSPropertyOp43
 70
     1
102
RTVSPropertyOp44
 70
     1
102
RTVSPropertyOp45
 70
     1
102
RTVSPropertyOp46
 70
     1
102
RTVSPropertyOp47
 70
     1
102
RTVSPropertyOp48
 70
     1
102
RTVSPropertyOp49
 70
     1
102
RTVSPropertyOp50
 70
     1
102
RTVSPropertyOp51
 70
     0
102
RTVSPropertyOp52
 70
     0
102
RTVSPropertyOp53
 70
     1
102
RTVSPropertyOp54
 70
     1
102
RTVSPropertyOp55
 70
     1
102
RTVSPropertyOp56
 70
     1
102
RTVSPropertyOp57
 70
     1
102
RTVSPropertyOp58
 70
     1
102
RTVSPropertyOp59
 70
     1
102
RTVSPropertyOp60
 70
     1
102
RTVSPropertyOp61
 70
     1
102
RTVSPropertyOp62
 70
     1
  0
XRECORD
  5
1629
102
{ACAD_REACTORS
330
1628
102
}
330
1628
100
AcDbXrecord
280
     1
102
RTVSPost2010Prop28
280
     0
102
RTVSPost2010PropOp28
 70
     1
102
RTVSPost2010Prop29
280
     1
102
RTVSPost2010PropOp29
 70
     1
102
RTVSPost2010Prop30
280
     1
102
RTVSPost2010PropOp30
 70
     1
102
RTVSPost2010Prop31
280
     0
102
RTVSPost2010PropOp31
 70
     1
102
RTVSPost2010Prop32
280
     0
102
RTVSPost2010PropOp32
 70
     1
102
RTVSPost2010Prop33
280
     0
102
RTVSPost2010PropOp33
 70
     1
102
RTVSPost2010Prop34
280
     0
102
RTVSPost2010PropOp34
 70
     1
102
RTVSPost2010Prop35
280
     0
102
RTVSPost2010PropOp35
 70
     1
102
RTVSPost2010Prop36
280
     0
102
RTVSPost2010PropOp36
 70
     1
102
RTVSPost2010Prop37
 90
       50
102
RTVSPost2010PropOp37
 70
     1
102
RTVSPost2010Prop38
140
0.0
102
RTVSPost2010PropOp38
 70
     1
102
RTVSPost2010Prop39
140
1.0
102
RTVSPost2010PropOp39
 70
     1
102
RTVSPost2010Prop40
 90
        0
102
RTVSPost2010PropOp40
 70
     1
102
RTVSPost2010Prop41ColorIndex
 90
       18
102
RTVSPost2010Prop41ColorRGB
 90
        0
102
RTVSPost2010PropOp41
 70
     1
102
RTVSPost2010Prop42
 90
       50
102
RTVSPost2010PropOp42
 70
     1
102
RTVSPost2010Prop43
 90
        3
102
RTVSPost2010PropOp43
 70
     1
102
RTVSPost2010Prop44ColorIndex
 90
        5
102
RTVSPost2010Prop44ColorRGB
 90
      255
102
RTVSPost2010PropOp44
 70
     1
102
RTVSPost2010Prop45
280
     0
102
RTVSPost2010PropOp45
 70
     1
102
RTVSPost2010Prop46
 90
       50
102
RTVSPost2010PropOp46
 70
     1
102
RTVSPost2010Prop47
 90
       50
102
RTVSPost2010PropOp47
 70
     1
102
RTVSPost2010Prop48
 90
       50
102
RTVSPost2010PropOp48
 70
     1
102
RTVSPost2010Prop49
280
     0
102
RTVSPost2010PropOp49
 70
     1
102
RTVSPost2010Prop50
 90
       50
102
RTVSPost2010PropOp50
 70
     1
102
RTVSPost2010Prop51ColorIndex
 90
      256
102
RTVSPost2010Prop51ColorRGB
 90
-16777216
102
RTVSPost2010PropOp51
 70
     0
102
RTVSPost2010Prop52
140
1.0
102
RTVSPost2010PropOp52
 70
     0
102
RTVSPost2010Prop53
 90
        2
102
RTVSPost2010PropOp53
 70
     1
102
RTVSPost2010Prop54
  1
strokes_ogs.tif
102
RTVSPost2010PropOp54
 70
     1
102
RTVSPost2010Prop55
280
     0
102
RTVSPost2010PropOp55
 70
     1
102
RTVSPost2010Prop56
140
1.0
102
RTVSPost2010PropOp56
 70
     1
102
RTVSPost2010Prop57
140
1.0
102
RTVSPost2010PropOp57
 70
     1
102
RTVSPropertyOp0
 70
     1
102
RTVSPropertyOp1
 70
     1
102
RTVSPropertyOp2
 70
     1
102
RTVSPropertyOp3
 70
     1
102
RTVSPropertyOp4
 70
     1
102
RTVSPropertyOp5
 70
     1
102
RTVSPropertyOp6
 70
     1
102
RTVSPropertyOp7
 70
     1
102
RTVSPropertyOp8
 70
     1
102
RTVSPropertyOp9
 70
     1
102
RTVSPropertyOp10
 70
     1
102
RTVSPropertyOp11
 70
     1
102
RTVSPropertyOp12
 70
     1
102
RTVSPropertyOp13
 70
     1
102
RTVSPropertyOp14
 70
     1
102
RTVSPropertyOp15
 70
     1
102
RTVSPropertyOp16
 70
     1
102
RTVSPropertyOp17
 70
     1
102
RTVSPropertyOp18
 70
     1
102
RTVSPropertyOp19
 70
     1
102
RTVSPropertyOp20
 70
     1
102
RTVSPropertyOp21
 70
     1
102
RTVSPropertyOp22
 70
     1
102
RTVSPropertyOp23
 70
     1
102
RTVSPropertyOp24
 70
     1
102
RTVSPropertyOp25
 70
     1
102
RTVSPropertyOp26
 70
     1
102
RTVSPropertyOp27
 70
     1
102
RTVSPropertyOp28
 70
     1
102
RTVSPropertyOp29
 70
     1
102
RTVSPropertyOp30
 70
     1
102
RTVSPropertyOp31
 70
     1
102
RTVSPropertyOp32
 70
     1
102
RTVSPropertyOp33
 70
     1
102
RTVSPropertyOp34
 70
     1
102
RTVSPropertyOp35
 70
     1
102
RTVSPropertyOp36
 70
     1
102
RTVSPropertyOp37
 70
     1
102
RTVSPropertyOp38
 70
     1
102
RTVSPropertyOp39
 70
     1
102
RTVSPropertyOp40
 70
     1
102
RTVSPropertyOp41
 70
     1
102
RTVSPropertyOp42
 70
     1
102
RTVSPropertyOp43
 70
     1
102
RTVSPropertyOp44
 70
     1
102
RTVSPropertyOp45
 70
     1
102
RTVSPropertyOp46
 70
     1
102
RTVSPropertyOp47
 70
     1
102
RTVSPropertyOp48
 70
     1
102
RTVSPropertyOp49
 70
     1
102
RTVSPropertyOp50
 70
     1
102
RTVSPropertyOp51
 70
     0
102
RTVSPropertyOp52
 70
     0
102
RTVSPropertyOp53
 70
     1
102
RTVSPropertyOp54
 70
     1
102
RTVSPropertyOp55
 70
     1
102
RTVSPropertyOp56
 70
     1
102
RTVSPropertyOp57
 70
     1
102
RTVSPropertyOp58
 70
     1
102
RTVSPropertyOp59
 70
     1
102
RTVSPropertyOp60
 70
     1
102
RTVSPropertyOp61
 70
     1
102
RTVSPropertyOp62
 70
     1
  0
XRECORD
  5
1625
102
{ACAD_REACTORS
330
1624
102
}
330
1624
100
AcDbXrecord
280
     1
102
RTVSPost2010Prop28
280
     0
102
RTVSPost2010PropOp28
 70
     1
102
RTVSPost2010Prop29
280
     1
102
RTVSPost2010PropOp29
 70
     1
102
RTVSPost2010Prop30
280
     1
102
RTVSPost2010PropOp30
 70
     1
102
RTVSPost2010Prop31
280
     0
102
RTVSPost2010PropOp31
 70
     1
102
RTVSPost2010Prop32
280
     0
102
RTVSPost2010PropOp32
 70
     1
102
RTVSPost2010Prop33
280
     0
102
RTVSPost2010PropOp33
 70
     1
102
RTVSPost2010Prop34
280
     0
102
RTVSPost2010PropOp34
 70
     1
102
RTVSPost2010Prop35
280
     0
102
RTVSPost2010PropOp35
 70
     1
102
RTVSPost2010Prop36
280
     0
102
RTVSPost2010PropOp36
 70
     1
102
RTVSPost2010Prop37
 90
       50
102
RTVSPost2010PropOp37
 70
     1
102
RTVSPost2010Prop38
140
0.0
102
RTVSPost2010PropOp38
 70
     1
102
RTVSPost2010Prop39
140
1.0
102
RTVSPost2010PropOp39
 70
     1
102
RTVSPost2010Prop40
 90
        0
102
RTVSPost2010PropOp40
 70
     1
102
RTVSPost2010Prop41ColorIndex
 90
       18
102
RTVSPost2010Prop41ColorRGB
 90
        0
102
RTVSPost2010PropOp41
 70
     1
102
RTVSPost2010Prop42
 90
       50
102
RTVSPost2010PropOp42
 70
     1
102
RTVSPost2010Prop43
 90
        3
102
RTVSPost2010PropOp43
 70
     1
102
RTVSPost2010Prop44ColorIndex
 90
        5
102
RTVSPost2010Prop44ColorRGB
 90
      255
102
RTVSPost2010PropOp44
 70
     1
102
RTVSPost2010Prop45
280
     0
102
RTVSPost2010PropOp45
 70
     1
102
RTVSPost2010Prop46
 90
       50
102
RTVSPost2010PropOp46
 70
     1
102
RTVSPost2010Prop47
 90
       50
102
RTVSPost2010PropOp47
 70
     1
102
RTVSPost2010Prop48
 90
       50
102
RTVSPost2010PropOp48
 70
     1
102
RTVSPost2010Prop49
280
     0
102
RTVSPost2010PropOp49
 70
     1
102
RTVSPost2010Prop50
 90
       50
102
RTVSPost2010PropOp50
 70
     1
102
RTVSPost2010Prop51ColorIndex
 90
      256
102
RTVSPost2010Prop51ColorRGB
 90
-16777216
102
RTVSPost2010PropOp51
 70
     0
102
RTVSPost2010Prop52
140
1.0
102
RTVSPost2010PropOp52
 70
     0
102
RTVSPost2010Prop53
 90
        2
102
RTVSPost2010PropOp53
 70
     1
102
RTVSPost2010Prop54
  1
strokes_ogs.tif
102
RTVSPost2010PropOp54
 70
     1
102
RTVSPost2010Prop55
280
     0
102
RTVSPost2010PropOp55
 70
     1
102
RTVSPost2010Prop56
140
1.0
102
RTVSPost2010PropOp56
 70
     1
102
RTVSPost2010Prop57
140
1.0
102
RTVSPost2010PropOp57
 70
     1
102
RTVSPropertyOp0
 70
     1
102
RTVSPropertyOp1
 70
     1
102
RTVSPropertyOp2
 70
     1
102
RTVSPropertyOp3
 70
     1
102
RTVSPropertyOp4
 70
     1
102
RTVSPropertyOp5
 70
     1
102
RTVSPropertyOp6
 70
     1
102
RTVSPropertyOp7
 70
     1
102
RTVSPropertyOp8
 70
     1
102
RTVSPropertyOp9
 70
     1
102
RTVSPropertyOp10
 70
     1
102
RTVSPropertyOp11
 70
     1
102
RTVSPropertyOp12
 70
     1
102
RTVSPropertyOp13
 70
     1
102
RTVSPropertyOp14
 70
     1
102
RTVSPropertyOp15
 70
     1
102
RTVSPropertyOp16
 70
     1
102
RTVSPropertyOp17
 70
     1
102
RTVSPropertyOp18
 70
     1
102
RTVSPropertyOp19
 70
     1
102
RTVSPropertyOp20
 70
     1
102
RTVSPropertyOp21
 70
     1
102
RTVSPropertyOp22
 70
     1
102
RTVSPropertyOp23
 70
     1
102
RTVSPropertyOp24
 70
     1
102
RTVSPropertyOp25
 70
     1
102
RTVSPropertyOp26
 70
     1
102
RTVSPropertyOp27
 70
     1
102
RTVSPropertyOp28
 70
     1
102
RTVSPropertyOp29
 70
     1
102
RTVSPropertyOp30
 70
     1
102
RTVSPropertyOp31
 70
     1
102
RTVSPropertyOp32
 70
     1
102
RTVSPropertyOp33
 70
     1
102
RTVSPropertyOp34
 70
     1
102
RTVSPropertyOp35
 70
     1
102
RTVSPropertyOp36
 70
     1
102
RTVSPropertyOp37
 70
     1
102
RTVSPropertyOp38
 70
     1
102
RTVSPropertyOp39
 70
     1
102
RTVSPropertyOp40
 70
     1
102
RTVSPropertyOp41
 70
     1
102
RTVSPropertyOp42
 70
     1
102
RTVSPropertyOp43
 70
     1
102
RTVSPropertyOp44
 70
     1
102
RTVSPropertyOp45
 70
     1
102
RTVSPropertyOp46
 70
     1
102
RTVSPropertyOp47
 70
     1
102
RTVSPropertyOp48
 70
     1
102
RTVSPropertyOp49
 70
     1
102
RTVSPropertyOp50
 70
     1
102
RTVSPropertyOp51
 70
     0
102
RTVSPropertyOp52
 70
     0
102
RTVSPropertyOp53
 70
     1
102
RTVSPropertyOp54
 70
     1
102
RTVSPropertyOp55
 70
     1
102
RTVSPropertyOp56
 70
     1
102
RTVSPropertyOp57
 70
     1
102
RTVSPropertyOp58
 70
     1
102
RTVSPropertyOp59
 70
     1
102
RTVSPropertyOp60
 70
     1
102
RTVSPropertyOp61
 70
     1
102
RTVSPropertyOp62
 70
     1
  0
XRECORD
  5
1633
102
{ACAD_REACTORS
330
1632
102
}
330
1632
100
AcDbXrecord
280
     1
102
RTVSPost2010Prop28
280
     0
102
RTVSPost2010PropOp28
 70
     1
102
RTVSPost2010Prop29
280
     1
102
RTVSPost2010PropOp29
 70
     1
102
RTVSPost2010Prop30
280
     1
102
RTVSPost2010PropOp30
 70
     1
102
RTVSPost2010Prop31
280
     0
102
RTVSPost2010PropOp31
 70
     1
102
RTVSPost2010Prop32
280
     0
102
RTVSPost2010PropOp32
 70
     1
102
RTVSPost2010Prop33
280
     0
102
RTVSPost2010PropOp33
 70
     1
102
RTVSPost2010Prop34
280
     0
102
RTVSPost2010PropOp34
 70
     1
102
RTVSPost2010Prop35
280
     0
102
RTVSPost2010PropOp35
 70
     1
102
RTVSPost2010Prop36
280
     0
102
RTVSPost2010PropOp36
 70
     1
102
RTVSPost2010Prop37
 90
       50
102
RTVSPost2010PropOp37
 70
     1
102
RTVSPost2010Prop38
140
0.0
102
RTVSPost2010PropOp38
 70
     1
102
RTVSPost2010Prop39
140
1.0
102
RTVSPost2010PropOp39
 70
     1
102
RTVSPost2010Prop40
 90
        0
102
RTVSPost2010PropOp40
 70
     1
102
RTVSPost2010Prop41ColorIndex
 90
       18
102
RTVSPost2010Prop41ColorRGB
 90
        0
102
RTVSPost2010PropOp41
 70
     1
102
RTVSPost2010Prop42
 90
       50
102
RTVSPost2010PropOp42
 70
     1
102
RTVSPost2010Prop43
 90
        3
102
RTVSPost2010PropOp43
 70
     1
102
RTVSPost2010Prop44ColorIndex
 90
        5
102
RTVSPost2010Prop44ColorRGB
 90
      255
102
RTVSPost2010PropOp44
 70
     1
102
RTVSPost2010Prop45
280
     0
102
RTVSPost2010PropOp45
 70
     1
102
RTVSPost2010Prop46
 90
       50
102
RTVSPost2010PropOp46
 70
     1
102
RTVSPost2010Prop47
 90
       50
102
RTVSPost2010PropOp47
 70
     1
102
RTVSPost2010Prop48
 90
       50
102
RTVSPost2010PropOp48
 70
     1
102
RTVSPost2010Prop49
280
     0
102
RTVSPost2010PropOp49
 70
     1
102
RTVSPost2010Prop50
 90
       50
102
RTVSPost2010PropOp50
 70
     1
102
RTVSPost2010Prop51ColorIndex
 90
      256
102
RTVSPost2010Prop51ColorRGB
 90
-16777216
102
RTVSPost2010PropOp51
 70
     0
102
RTVSPost2010Prop52
140
1.0
102
RTVSPost2010PropOp52
 70
     0
102
RTVSPost2010Prop53
 90
        2
102
RTVSPost2010PropOp53
 70
     1
102
RTVSPost2010Prop54
  1
strokes_ogs.tif
102
RTVSPost2010PropOp54
 70
     1
102
RTVSPost2010Prop55
280
     0
102
RTVSPost2010PropOp55
 70
     1
102
RTVSPost2010Prop56
140
1.0
102
RTVSPost2010PropOp56
 70
     1
102
RTVSPost2010Prop57
140
1.0
102
RTVSPost2010PropOp57
 70
     1
102
RTVSPropertyOp0
 70
     1
102
RTVSPropertyOp1
 70
     1
102
RTVSPropertyOp2
 70
     1
102
RTVSPropertyOp3
 70
     1
102
RTVSPropertyOp4
 70
     1
102
RTVSPropertyOp5
 70
     1
102
RTVSPropertyOp6
 70
     1
102
RTVSPropertyOp7
 70
     1
102
RTVSPropertyOp8
 70
     1
102
RTVSPropertyOp9
 70
     1
102
RTVSPropertyOp10
 70
     1
102
RTVSPropertyOp11
 70
     1
102
RTVSPropertyOp12
 70
     1
102
RTVSPropertyOp13
 70
     1
102
RTVSPropertyOp14
 70
     1
102
RTVSPropertyOp15
 70
     1
102
RTVSPropertyOp16
 70
     1
102
RTVSPropertyOp17
 70
     1
102
RTVSPropertyOp18
 70
     1
102
RTVSPropertyOp19
 70
     1
102
RTVSPropertyOp20
 70
     1
102
RTVSPropertyOp21
 70
     1
102
RTVSPropertyOp22
 70
     1
102
RTVSPropertyOp23
 70
     1
102
RTVSPropertyOp24
 70
     1
102
RTVSPropertyOp25
 70
     1
102
RTVSPropertyOp26
 70
     1
102
RTVSPropertyOp27
 70
     1
102
RTVSPropertyOp28
 70
     1
102
RTVSPropertyOp29
 70
     1
102
RTVSPropertyOp30
 70
     1
102
RTVSPropertyOp31
 70
     1
102
RTVSPropertyOp32
 70
     1
102
RTVSPropertyOp33
 70
     1
102
RTVSPropertyOp34
 70
     1
102
RTVSPropertyOp35
 70
     1
102
RTVSPropertyOp36
 70
     1
102
RTVSPropertyOp37
 70
     1
102
RTVSPropertyOp38
 70
     1
102
RTVSPropertyOp39
 70
     1
102
RTVSPropertyOp40
 70
     1
102
RTVSPropertyOp41
 70
     1
102
RTVSPropertyOp42
 70
     1
102
RTVSPropertyOp43
 70
     1
102
RTVSPropertyOp44
 70
     1
102
RTVSPropertyOp45
 70
     1
102
RTVSPropertyOp46
 70
     1
102
RTVSPropertyOp47
 70
     1
102
RTVSPropertyOp48
 70
     1
102
RTVSPropertyOp49
 70
     1
102
RTVSPropertyOp50
 70
     1
102
RTVSPropertyOp51
 70
     0
102
RTVSPropertyOp52
 70
     0
102
RTVSPropertyOp53
 70
     1
102
RTVSPropertyOp54
 70
     1
102
RTVSPropertyOp55
 70
     1
102
RTVSPropertyOp56
 70
     1
102
RTVSPropertyOp57
 70
     1
102
RTVSPropertyOp58
 70
     1
102
RTVSPropertyOp59
 70
     1
102
RTVSPropertyOp60
 70
     1
102
RTVSPropertyOp61
 70
     1
102
RTVSPropertyOp62
 70
     1
  0
XRECORD
  5
163B
102
{ACAD_REACTORS
330
163A
102
}
330
163A
100
AcDbXrecord
280
     1
102
RTVSPost2010Prop28
280
     0
102
RTVSPost2010PropOp28
 70
     1
102
RTVSPost2010Prop29
280
     1
102
RTVSPost2010PropOp29
 70
     1
102
RTVSPost2010Prop30
280
     1
102
RTVSPost2010PropOp30
 70
     1
102
RTVSPost2010Prop31
280
     0
102
RTVSPost2010PropOp31
 70
     1
102
RTVSPost2010Prop32
280
     0
102
RTVSPost2010PropOp32
 70
     1
102
RTVSPost2010Prop33
280
     0
102
RTVSPost2010PropOp33
 70
     1
102
RTVSPost2010Prop34
280
     0
102
RTVSPost2010PropOp34
 70
     1
102
RTVSPost2010Prop35
280
     0
102
RTVSPost2010PropOp35
 70
     1
102
RTVSPost2010Prop36
280
     0
102
RTVSPost2010PropOp36
 70
     1
102
RTVSPost2010Prop37
 90
       50
102
RTVSPost2010PropOp37
 70
     1
102
RTVSPost2010Prop38
140
0.0
102
RTVSPost2010PropOp38
 70
     1
102
RTVSPost2010Prop39
140
1.0
102
RTVSPost2010PropOp39
 70
     1
102
RTVSPost2010Prop40
 90
        0
102
RTVSPost2010PropOp40
 70
     1
102
RTVSPost2010Prop41ColorIndex
 90
       18
102
RTVSPost2010Prop41ColorRGB
 90
        0
102
RTVSPost2010PropOp41
 70
     1
102
RTVSPost2010Prop42
 90
       50
102
RTVSPost2010PropOp42
 70
     1
102
RTVSPost2010Prop43
 90
        3
102
RTVSPost2010PropOp43
 70
     1
102
RTVSPost2010Prop44ColorIndex
 90
        5
102
RTVSPost2010Prop44ColorRGB
 90
      255
102
RTVSPost2010PropOp44
 70
     1
102
RTVSPost2010Prop45
280
     0
102
RTVSPost2010PropOp45
 70
     1
102
RTVSPost2010Prop46
 90
       50
102
RTVSPost2010PropOp46
 70
     1
102
RTVSPost2010Prop47
 90
       50
102
RTVSPost2010PropOp47
 70
     1
102
RTVSPost2010Prop48
 90
       50
102
RTVSPost2010PropOp48
 70
     1
102
RTVSPost2010Prop49
280
     0
102
RTVSPost2010PropOp49
 70
     1
102
RTVSPost2010Prop50
 90
       50
102
RTVSPost2010PropOp50
 70
     1
102
RTVSPost2010Prop51ColorIndex
 90
      256
102
RTVSPost2010Prop51ColorRGB
 90
-16777216
102
RTVSPost2010PropOp51
 70
     0
102
RTVSPost2010Prop52
140
1.0
102
RTVSPost2010PropOp52
 70
     0
102
RTVSPost2010Prop53
 90
        2
102
RTVSPost2010PropOp53
 70
     1
102
RTVSPost2010Prop54
  1
strokes_ogs.tif
102
RTVSPost2010PropOp54
 70
     1
102
RTVSPost2010Prop55
280
     0
102
RTVSPost2010PropOp55
 70
     1
102
RTVSPost2010Prop56
140
1.0
102
RTVSPost2010PropOp56
 70
     1
102
RTVSPost2010Prop57
140
1.0
102
RTVSPost2010PropOp57
 70
     1
102
RTVSPropertyOp0
 70
     1
102
RTVSPropertyOp1
 70
     1
102
RTVSPropertyOp2
 70
     1
102
RTVSPropertyOp3
 70
     1
102
RTVSPropertyOp4
 70
     1
102
RTVSPropertyOp5
 70
     1
102
RTVSPropertyOp6
 70
     1
102
RTVSPropertyOp7
 70
     1
102
RTVSPropertyOp8
 70
     1
102
RTVSPropertyOp9
 70
     1
102
RTVSPropertyOp10
 70
     1
102
RTVSPropertyOp11
 70
     1
102
RTVSPropertyOp12
 70
     1
102
RTVSPropertyOp13
 70
     1
102
RTVSPropertyOp14
 70
     1
102
RTVSPropertyOp15
 70
     1
102
RTVSPropertyOp16
 70
     1
102
RTVSPropertyOp17
 70
     1
102
RTVSPropertyOp18
 70
     1
102
RTVSPropertyOp19
 70
     1
102
RTVSPropertyOp20
 70
     1
102
RTVSPropertyOp21
 70
     1
102
RTVSPropertyOp22
 70
     1
102
RTVSPropertyOp23
 70
     1
102
RTVSPropertyOp24
 70
     1
102
RTVSPropertyOp25
 70
     1
102
RTVSPropertyOp26
 70
     1
102
RTVSPropertyOp27
 70
     1
102
RTVSPropertyOp28
 70
     1
102
RTVSPropertyOp29
 70
     1
102
RTVSPropertyOp30
 70
     1
102
RTVSPropertyOp31
 70
     1
102
RTVSPropertyOp32
 70
     1
102
RTVSPropertyOp33
 70
     1
102
RTVSPropertyOp34
 70
     1
102
RTVSPropertyOp35
 70
     1
102
RTVSPropertyOp36
 70
     1
102
RTVSPropertyOp37
 70
     1
102
RTVSPropertyOp38
 70
     1
102
RTVSPropertyOp39
 70
     1
102
RTVSPropertyOp40
 70
     1
102
RTVSPropertyOp41
 70
     1
102
RTVSPropertyOp42
 70
     1
102
RTVSPropertyOp43
 70
     1
102
RTVSPropertyOp44
 70
     1
102
RTVSPropertyOp45
 70
     1
102
RTVSPropertyOp46
 70
     1
102
RTVSPropertyOp47
 70
     1
102
RTVSPropertyOp48
 70
     1
102
RTVSPropertyOp49
 70
     1
102
RTVSPropertyOp50
 70
     1
102
RTVSPropertyOp51
 70
     0
102
RTVSPropertyOp52
 70
     0
102
RTVSPropertyOp53
 70
     1
102
RTVSPropertyOp54
 70
     1
102
RTVSPropertyOp55
 70
     1
102
RTVSPropertyOp56
 70
     1
102
RTVSPropertyOp57
 70
     1
102
RTVSPropertyOp58
 70
     1
102
RTVSPropertyOp59
 70
     1
102
RTVSPropertyOp60
 70
     1
102
RTVSPropertyOp61
 70
     1
102
RTVSPropertyOp62
 70
     1
  0
XRECORD
  5
162D
102
{ACAD_REACTORS
330
162C
102
}
330
162C
100
AcDbXrecord
280
     1
102
RTVSPost2010Prop28
280
     0
102
RTVSPost2010PropOp28
 70
     1
102
RTVSPost2010Prop29
280
     1
102
RTVSPost2010PropOp29
 70
     1
102
RTVSPost2010Prop30
280
     1
102
RTVSPost2010PropOp30
 70
     1
102
RTVSPost2010Prop31
280
     0
102
RTVSPost2010PropOp31
 70
     1
102
RTVSPost2010Prop32
280
     0
102
RTVSPost2010PropOp32
 70
     1
102
RTVSPost2010Prop33
280
     0
102
RTVSPost2010PropOp33
 70
     1
102
RTVSPost2010Prop34
280
     0
102
RTVSPost2010PropOp34
 70
     1
102
RTVSPost2010Prop35
280
     0
102
RTVSPost2010PropOp35
 70
     1
102
RTVSPost2010Prop36
280
     0
102
RTVSPost2010PropOp36
 70
     1
102
RTVSPost2010Prop37
 90
       50
102
RTVSPost2010PropOp37
 70
     1
102
RTVSPost2010Prop38
140
0.0
102
RTVSPost2010PropOp38
 70
     1
102
RTVSPost2010Prop39
140
1.0
102
RTVSPost2010PropOp39
 70
     1
102
RTVSPost2010Prop40
 90
        0
102
RTVSPost2010PropOp40
 70
     1
102
RTVSPost2010Prop41ColorIndex
 90
       18
102
RTVSPost2010Prop41ColorRGB
 90
        0
102
RTVSPost2010PropOp41
 70
     1
102
RTVSPost2010Prop42
 90
       50
102
RTVSPost2010PropOp42
 70
     1
102
RTVSPost2010Prop43
 90
        3
102
RTVSPost2010PropOp43
 70
     1
102
RTVSPost2010Prop44ColorIndex
 90
        5
102
RTVSPost2010Prop44ColorRGB
 90
      255
102
RTVSPost2010PropOp44
 70
     1
102
RTVSPost2010Prop45
280
     0
102
RTVSPost2010PropOp45
 70
     1
102
RTVSPost2010Prop46
 90
       50
102
RTVSPost2010PropOp46
 70
     1
102
RTVSPost2010Prop47
 90
       50
102
RTVSPost2010PropOp47
 70
     1
102
RTVSPost2010Prop48
 90
       50
102
RTVSPost2010PropOp48
 70
     1
102
RTVSPost2010Prop49
280
     0
102
RTVSPost2010PropOp49
 70
     1
102
RTVSPost2010Prop50
 90
       50
102
RTVSPost2010PropOp50
 70
     1
102
RTVSPost2010Prop51ColorIndex
 90
      256
102
RTVSPost2010Prop51ColorRGB
 90
-16777216
102
RTVSPost2010PropOp51
 70
     0
102
RTVSPost2010Prop52
140
1.0
102
RTVSPost2010PropOp52
 70
     0
102
RTVSPost2010Prop53
 90
        2
102
RTVSPost2010PropOp53
 70
     1
102
RTVSPost2010Prop54
  1
strokes_ogs.tif
102
RTVSPost2010PropOp54
 70
     1
102
RTVSPost2010Prop55
280
     0
102
RTVSPost2010PropOp55
 70
     1
102
RTVSPost2010Prop56
140
1.0
102
RTVSPost2010PropOp56
 70
     1
102
RTVSPost2010Prop57
140
1.0
102
RTVSPost2010PropOp57
 70
     1
102
RTVSPropertyOp0
 70
     1
102
RTVSPropertyOp1
 70
     1
102
RTVSPropertyOp2
 70
     1
102
RTVSPropertyOp3
 70
     1
102
RTVSPropertyOp4
 70
     1
102
RTVSPropertyOp5
 70
     1
102
RTVSPropertyOp6
 70
     1
102
RTVSPropertyOp7
 70
     1
102
RTVSPropertyOp8
 70
     1
102
RTVSPropertyOp9
 70
     1
102
RTVSPropertyOp10
 70
     1
102
RTVSPropertyOp11
 70
     1
102
RTVSPropertyOp12
 70
     1
102
RTVSPropertyOp13
 70
     1
102
RTVSPropertyOp14
 70
     1
102
RTVSPropertyOp15
 70
     1
102
RTVSPropertyOp16
 70
     1
102
RTVSPropertyOp17
 70
     1
102
RTVSPropertyOp18
 70
     1
102
RTVSPropertyOp19
 70
     1
102
RTVSPropertyOp20
 70
     1
102
RTVSPropertyOp21
 70
     1
102
RTVSPropertyOp22
 70
     1
102
RTVSPropertyOp23
 70
     1
102
RTVSPropertyOp24
 70
     1
102
RTVSPropertyOp25
 70
     1
102
RTVSPropertyOp26
 70
     1
102
RTVSPropertyOp27
 70
     1
102
RTVSPropertyOp28
 70
     1
102
RTVSPropertyOp29
 70
     1
102
RTVSPropertyOp30
 70
     1
102
RTVSPropertyOp31
 70
     1
102
RTVSPropertyOp32
 70
     1
102
RTVSPropertyOp33
 70
     1
102
RTVSPropertyOp34
 70
     1
102
RTVSPropertyOp35
 70
     1
102
RTVSPropertyOp36
 70
     1
102
RTVSPropertyOp37
 70
     1
102
RTVSPropertyOp38
 70
     1
102
RTVSPropertyOp39
 70
     1
102
RTVSPropertyOp40
 70
     1
102
RTVSPropertyOp41
 70
     1
102
RTVSPropertyOp42
 70
     1
102
RTVSPropertyOp43
 70
     1
102
RTVSPropertyOp44
 70
     1
102
RTVSPropertyOp45
 70
     1
102
RTVSPropertyOp46
 70
     1
102
RTVSPropertyOp47
 70
     1
102
RTVSPropertyOp48
 70
     1
102
RTVSPropertyOp49
 70
     1
102
RTVSPropertyOp50
 70
     1
102
RTVSPropertyOp51
 70
     0
102
RTVSPropertyOp52
 70
     0
102
RTVSPropertyOp53
 70
     1
102
RTVSPropertyOp54
 70
     1
102
RTVSPropertyOp55
 70
     1
102
RTVSPropertyOp56
 70
     1
102
RTVSPropertyOp57
 70
     1
102
RTVSPropertyOp58
 70
     1
102
RTVSPropertyOp59
 70
     1
102
RTVSPropertyOp60
 70
     1
102
RTVSPropertyOp61
 70
     1
102
RTVSPropertyOp62
 70
     1
  0
XRECORD
  5
1631
102
{ACAD_REACTORS
330
1630
102
}
330
1630
100
AcDbXrecord
280
     1
102
RTVSPost2010Prop28
280
     0
102
RTVSPost2010PropOp28
 70
     1
102
RTVSPost2010Prop29
280
     1
102
RTVSPost2010PropOp29
 70
     1
102
RTVSPost2010Prop30
280
     1
102
RTVSPost2010PropOp30
 70
     1
102
RTVSPost2010Prop31
280
     0
102
RTVSPost2010PropOp31
 70
     1
102
RTVSPost2010Prop32
280
     0
102
RTVSPost2010PropOp32
 70
     1
102
RTVSPost2010Prop33
280
     0
102
RTVSPost2010PropOp33
 70
     1
102
RTVSPost2010Prop34
280
     0
102
RTVSPost2010PropOp34
 70
     1
102
RTVSPost2010Prop35
280
     0
102
RTVSPost2010PropOp35
 70
     1
102
RTVSPost2010Prop36
280
     0
102
RTVSPost2010PropOp36
 70
     1
102
RTVSPost2010Prop37
 90
       50
102
RTVSPost2010PropOp37
 70
     1
102
RTVSPost2010Prop38
140
0.0
102
RTVSPost2010PropOp38
 70
     1
102
RTVSPost2010Prop39
140
1.0
102
RTVSPost2010PropOp39
 70
     1
102
RTVSPost2010Prop40
 90
        0
102
RTVSPost2010PropOp40
 70
     1
102
RTVSPost2010Prop41ColorIndex
 90
       18
102
RTVSPost2010Prop41ColorRGB
 90
        0
102
RTVSPost2010PropOp41
 70
     1
102
RTVSPost2010Prop42
 90
       50
102
RTVSPost2010PropOp42
 70
     1
102
RTVSPost2010Prop43
 90
        3
102
RTVSPost2010PropOp43
 70
     1
102
RTVSPost2010Prop44ColorIndex
 90
        5
102
RTVSPost2010Prop44ColorRGB
 90
      255
102
RTVSPost2010PropOp44
 70
     1
102
RTVSPost2010Prop45
280
     0
102
RTVSPost2010PropOp45
 70
     1
102
RTVSPost2010Prop46
 90
       50
102
RTVSPost2010PropOp46
 70
     1
102
RTVSPost2010Prop47
 90
       50
102
RTVSPost2010PropOp47
 70
     1
102
RTVSPost2010Prop48
 90
       50
102
RTVSPost2010PropOp48
 70
     1
102
RTVSPost2010Prop49
280
     0
102
RTVSPost2010PropOp49
 70
     1
102
RTVSPost2010Prop50
 90
       50
102
RTVSPost2010PropOp50
 70
     1
102
RTVSPost2010Prop51ColorIndex
 90
      256
102
RTVSPost2010Prop51ColorRGB
 90
-16777216
102
RTVSPost2010PropOp51
 70
     0
102
RTVSPost2010Prop52
140
1.0
102
RTVSPost2010PropOp52
 70
     0
102
RTVSPost2010Prop53
 90
        2
102
RTVSPost2010PropOp53
 70
     1
102
RTVSPost2010Prop54
  1
strokes_ogs.tif
102
RTVSPost2010PropOp54
 70
     1
102
RTVSPost2010Prop55
280
     0
102
RTVSPost2010PropOp55
 70
     1
102
RTVSPost2010Prop56
140
1.0
102
RTVSPost2010PropOp56
 70
     1
102
RTVSPost2010Prop57
140
1.0
102
RTVSPost2010PropOp57
 70
     1
102
RTVSPropertyOp0
 70
     1
102
RTVSPropertyOp1
 70
     1
102
RTVSPropertyOp2
 70
     1
102
RTVSPropertyOp3
 70
     1
102
RTVSPropertyOp4
 70
     1
102
RTVSPropertyOp5
 70
     1
102
RTVSPropertyOp6
 70
     1
102
RTVSPropertyOp7
 70
     1
102
RTVSPropertyOp8
 70
     1
102
RTVSPropertyOp9
 70
     1
102
RTVSPropertyOp10
 70
     1
102
RTVSPropertyOp11
 70
     1
102
RTVSPropertyOp12
 70
     1
102
RTVSPropertyOp13
 70
     1
102
RTVSPropertyOp14
 70
     1
102
RTVSPropertyOp15
 70
     1
102
RTVSPropertyOp16
 70
     1
102
RTVSPropertyOp17
 70
     1
102
RTVSPropertyOp18
 70
     1
102
RTVSPropertyOp19
 70
     1
102
RTVSPropertyOp20
 70
     1
102
RTVSPropertyOp21
 70
     1
102
RTVSPropertyOp22
 70
     1
102
RTVSPropertyOp23
 70
     1
102
RTVSPropertyOp24
 70
     1
102
RTVSPropertyOp25
 70
     1
102
RTVSPropertyOp26
 70
     1
102
RTVSPropertyOp27
 70
     1
102
RTVSPropertyOp28
 70
     1
102
RTVSPropertyOp29
 70
     1
102
RTVSPropertyOp30
 70
     1
102
RTVSPropertyOp31
 70
     1
102
RTVSPropertyOp32
 70
     1
102
RTVSPropertyOp33
 70
     1
102
RTVSPropertyOp34
 70
     1
102
RTVSPropertyOp35
 70
     1
102
RTVSPropertyOp36
 70
     1
102
RTVSPropertyOp37
 70
     1
102
RTVSPropertyOp38
 70
     1
102
RTVSPropertyOp39
 70
     1
102
RTVSPropertyOp40
 70
     1
102
RTVSPropertyOp41
 70
     1
102
RTVSPropertyOp42
 70
     1
102
RTVSPropertyOp43
 70
     1
102
RTVSPropertyOp44
 70
     1
102
RTVSPropertyOp45
 70
     1
102
RTVSPropertyOp46
 70
     1
102
RTVSPropertyOp47
 70
     1
102
RTVSPropertyOp48
 70
     1
102
RTVSPropertyOp49
 70
     1
102
RTVSPropertyOp50
 70
     1
102
RTVSPropertyOp51
 70
     0
102
RTVSPropertyOp52
 70
     0
102
RTVSPropertyOp53
 70
     1
102
RTVSPropertyOp54
 70
     1
102
RTVSPropertyOp55
 70
     1
102
RTVSPropertyOp56
 70
     1
102
RTVSPropertyOp57
 70
     1
102
RTVSPropertyOp58
 70
     1
102
RTVSPropertyOp59
 70
     1
102
RTVSPropertyOp60
 70
     1
102
RTVSPropertyOp61
 70
     1
102
RTVSPropertyOp62
 70
     1
  0
XRECORD
  5
1650
102
{ACAD_REACTORS
330
164F
102
}
330
164F
100
AcDbXrecord
280
     1
102
RTVSPost2010Prop28
280
     0
102
RTVSPost2010PropOp28
 70
     0
102
RTVSPost2010Prop29
280
     1
102
RTVSPost2010PropOp29
 70
     0
102
RTVSPost2010Prop30
280
     1
102
RTVSPost2010PropOp30
 70
     0
102
RTVSPost2010Prop31
280
     0
102
RTVSPost2010PropOp31
 70
     0
102
RTVSPost2010Prop32
280
     0
102
RTVSPost2010PropOp32
 70
     0
102
RTVSPost2010Prop33
280
     0
102
RTVSPost2010PropOp33
 70
     0
102
RTVSPost2010Prop34
280
     0
102
RTVSPost2010PropOp34
 70
     0
102
RTVSPost2010Prop35
280
     0
102
RTVSPost2010PropOp35
 70
     0
102
RTVSPost2010Prop36
280
     0
102
RTVSPost2010PropOp36
 70
     0
102
RTVSPost2010Prop37
 90
       50
102
RTVSPost2010PropOp37
 70
     0
102
RTVSPost2010Prop38
140
0.0
102
RTVSPost2010PropOp38
 70
     0
102
RTVSPost2010Prop39
140
1.0
102
RTVSPost2010PropOp39
 70
     0
102
RTVSPost2010Prop40
 90
        0
102
RTVSPost2010PropOp40
 70
     0
102
RTVSPost2010Prop41ColorIndex
 90
       18
102
RTVSPost2010Prop41ColorRGB
 90
        0
102
RTVSPost2010PropOp41
 70
     0
102
RTVSPost2010Prop42
 90
       50
102
RTVSPost2010PropOp42
 70
     0
102
RTVSPost2010Prop43
 90
        3
102
RTVSPost2010PropOp43
 70
     0
102
RTVSPost2010Prop44ColorIndex
 90
        5
102
RTVSPost2010Prop44ColorRGB
 90
      255
102
RTVSPost2010PropOp44
 70
     0
102
RTVSPost2010Prop45
280
     0
102
RTVSPost2010PropOp45
 70
     0
102
RTVSPost2010Prop46
 90
       50
102
RTVSPost2010PropOp46
 70
     0
102
RTVSPost2010Prop47
 90
       50
102
RTVSPost2010PropOp47
 70
     0
102
RTVSPost2010Prop48
 90
       50
102
RTVSPost2010PropOp48
 70
     0
102
RTVSPost2010Prop49
280
     0
102
RTVSPost2010PropOp49
 70
     0
102
RTVSPost2010Prop50
 90
       50
102
RTVSPost2010PropOp50
 70
     0
102
RTVSPost2010Prop51ColorIndex
 90
      256
102
RTVSPost2010Prop51ColorRGB
 90
-16777216
102
RTVSPost2010PropOp51
 70
     0
102
RTVSPost2010Prop52
140
1.0
102
RTVSPost2010PropOp52
 70
     0
102
RTVSPost2010Prop53
 90
        2
102
RTVSPost2010PropOp53
 70
     0
102
RTVSPost2010Prop54
  1
strokes_ogs.tif
102
RTVSPost2010PropOp54
 70
     0
102
RTVSPost2010Prop55
280
     0
102
RTVSPost2010PropOp55
 70
     0
102
RTVSPost2010Prop56
140
1.0
102
RTVSPost2010PropOp56
 70
     0
102
RTVSPost2010Prop57
140
1.0
102
RTVSPost2010PropOp57
 70
     0
102
RTVSPropertyOp0
 70
     0
102
RTVSPropertyOp1
 70
     0
102
RTVSPropertyOp2
 70
     0
102
RTVSPropertyOp3
 70
     0
102
RTVSPropertyOp4
 70
     0
102
RTVSPropertyOp5
 70
     0
102
RTVSPropertyOp6
 70
     0
102
RTVSPropertyOp7
 70
     0
102
RTVSPropertyOp8
 70
     0
102
RTVSPropertyOp9
 70
     0
102
RTVSPropertyOp10
 70
     0
102
RTVSPropertyOp11
 70
     0
102
RTVSPropertyOp12
 70
     0
102
RTVSPropertyOp13
 70
     0
102
RTVSPropertyOp14
 70
     2
102
RTVSPropertyOp15
 70
     0
102
RTVSPropertyOp16
 70
     0
102
RTVSPropertyOp17
 70
     0
102
RTVSPropertyOp18
 70
     0
102
RTVSPropertyOp19
 70
     0
102
RTVSPropertyOp20
 70
     0
102
RTVSPropertyOp21
 70
     0
102
RTVSPropertyOp22
 70
     0
102
RTVSPropertyOp23
 70
     0
102
RTVSPropertyOp24
 70
     0
102
RTVSPropertyOp25
 70
     0
102
RTVSPropertyOp26
 70
     0
102
RTVSPropertyOp27
 70
     0
102
RTVSPropertyOp28
 70
     0
102
RTVSPropertyOp29
 70
     0
102
RTVSPropertyOp30
 70
     0
102
RTVSPropertyOp31
 70
     0
102
RTVSPropertyOp32
 70
     0
102
RTVSPropertyOp33
 70
     0
102
RTVSPropertyOp34
 70
     0
102
RTVSPropertyOp35
 70
     0
102
RTVSPropertyOp36
 70
     0
102
RTVSPropertyOp37
 70
     0
102
RTVSPropertyOp38
 70
     0
102
RTVSPropertyOp39
 70
     0
102
RTVSPropertyOp40
 70
     0
102
RTVSPropertyOp41
 70
     0
102
RTVSPropertyOp42
 70
     0
102
RTVSPropertyOp43
 70
     0
102
RTVSPropertyOp44
 70
     0
102
RTVSPropertyOp45
 70
     0
102
RTVSPropertyOp46
 70
     0
102
RTVSPropertyOp47
 70
     0
102
RTVSPropertyOp48
 70
     0
102
RTVSPropertyOp49
 70
     0
102
RTVSPropertyOp50
 70
     0
102
RTVSPropertyOp51
 70
     0
102
RTVSPropertyOp52
 70
     0
102
RTVSPropertyOp53
 70
     0
102
RTVSPropertyOp54
 70
     0
102
RTVSPropertyOp55
 70
     0
102
RTVSPropertyOp56
 70
     0
102
RTVSPropertyOp57
 70
     0
102
RTVSPropertyOp58
 70
     0
102
RTVSPropertyOp59
 70
     0
102
RTVSPropertyOp60
 70
     0
102
RTVSPropertyOp61
 70
     0
102
RTVSPropertyOp62
 70
     0
  0
XRECORD
  5
1639
102
{ACAD_REACTORS
330
1638
102
}
330
1638
100
AcDbXrecord
280
     1
102
RTVSPost2010Prop28
280
     0
102
RTVSPost2010PropOp28
 70
     1
102
RTVSPost2010Prop29
280
     1
102
RTVSPost2010PropOp29
 70
     1
102
RTVSPost2010Prop30
280
     1
102
RTVSPost2010PropOp30
 70
     1
102
RTVSPost2010Prop31
280
     0
102
RTVSPost2010PropOp31
 70
     1
102
RTVSPost2010Prop32
280
     0
102
RTVSPost2010PropOp32
 70
     1
102
RTVSPost2010Prop33
280
     0
102
RTVSPost2010PropOp33
 70
     1
102
RTVSPost2010Prop34
280
     0
102
RTVSPost2010PropOp34
 70
     1
102
RTVSPost2010Prop35
280
     0
102
RTVSPost2010PropOp35
 70
     1
102
RTVSPost2010Prop36
280
     0
102
RTVSPost2010PropOp36
 70
     1
102
RTVSPost2010Prop37
 90
       50
102
RTVSPost2010PropOp37
 70
     1
102
RTVSPost2010Prop38
140
0.0
102
RTVSPost2010PropOp38
 70
     1
102
RTVSPost2010Prop39
140
1.0
102
RTVSPost2010PropOp39
 70
     1
102
RTVSPost2010Prop40
 90
        0
102
RTVSPost2010PropOp40
 70
     1
102
RTVSPost2010Prop41ColorIndex
 90
       18
102
RTVSPost2010Prop41ColorRGB
 90
        0
102
RTVSPost2010PropOp41
 70
     1
102
RTVSPost2010Prop42
 90
       50
102
RTVSPost2010PropOp42
 70
     1
102
RTVSPost2010Prop43
 90
        3
102
RTVSPost2010PropOp43
 70
     1
102
RTVSPost2010Prop44ColorIndex
 90
        5
102
RTVSPost2010Prop44ColorRGB
 90
      255
102
RTVSPost2010PropOp44
 70
     1
102
RTVSPost2010Prop45
280
     0
102
RTVSPost2010PropOp45
 70
     1
102
RTVSPost2010Prop46
 90
       50
102
RTVSPost2010PropOp46
 70
     1
102
RTVSPost2010Prop47
 90
       50
102
RTVSPost2010PropOp47
 70
     1
102
RTVSPost2010Prop48
 90
       50
102
RTVSPost2010PropOp48
 70
     1
102
RTVSPost2010Prop49
280
     0
102
RTVSPost2010PropOp49
 70
     1
102
RTVSPost2010Prop50
 90
       50
102
RTVSPost2010PropOp50
 70
     1
102
RTVSPost2010Prop51ColorIndex
 90
      256
102
RTVSPost2010Prop51ColorRGB
 90
-16777216
102
RTVSPost2010PropOp51
 70
     0
102
RTVSPost2010Prop52
140
1.0
102
RTVSPost2010PropOp52
 70
     0
102
RTVSPost2010Prop53
 90
        2
102
RTVSPost2010PropOp53
 70
     1
102
RTVSPost2010Prop54
  1
strokes_ogs.tif
102
RTVSPost2010PropOp54
 70
     1
102
RTVSPost2010Prop55
280
     0
102
RTVSPost2010PropOp55
 70
     1
102
RTVSPost2010Prop56
140
1.0
102
RTVSPost2010PropOp56
 70
     1
102
RTVSPost2010Prop57
140
1.0
102
RTVSPost2010PropOp57
 70
     1
102
RTVSPropertyOp0
 70
     1
102
RTVSPropertyOp1
 70
     1
102
RTVSPropertyOp2
 70
     1
102
RTVSPropertyOp3
 70
     1
102
RTVSPropertyOp4
 70
     1
102
RTVSPropertyOp5
 70
     1
102
RTVSPropertyOp6
 70
     1
102
RTVSPropertyOp7
 70
     1
102
RTVSPropertyOp8
 70
     1
102
RTVSPropertyOp9
 70
     1
102
RTVSPropertyOp10
 70
     1
102
RTVSPropertyOp11
 70
     1
102
RTVSPropertyOp12
 70
     1
102
RTVSPropertyOp13
 70
     1
102
RTVSPropertyOp14
 70
     1
102
RTVSPropertyOp15
 70
     1
102
RTVSPropertyOp16
 70
     1
102
RTVSPropertyOp17
 70
     1
102
RTVSPropertyOp18
 70
     1
102
RTVSPropertyOp19
 70
     1
102
RTVSPropertyOp20
 70
     1
102
RTVSPropertyOp21
 70
     1
102
RTVSPropertyOp22
 70
     1
102
RTVSPropertyOp23
 70
     1
102
RTVSPropertyOp24
 70
     1
102
RTVSPropertyOp25
 70
     1
102
RTVSPropertyOp26
 70
     1
102
RTVSPropertyOp27
 70
     1
102
RTVSPropertyOp28
 70
     1
102
RTVSPropertyOp29
 70
     1
102
RTVSPropertyOp30
 70
     1
102
RTVSPropertyOp31
 70
     1
102
RTVSPropertyOp32
 70
     1
102
RTVSPropertyOp33
 70
     1
102
RTVSPropertyOp34
 70
     1
102
RTVSPropertyOp35
 70
     1
102
RTVSPropertyOp36
 70
     1
102
RTVSPropertyOp37
 70
     1
102
RTVSPropertyOp38
 70
     1
102
RTVSPropertyOp39
 70
     1
102
RTVSPropertyOp40
 70
     1
102
RTVSPropertyOp41
 70
     1
102
RTVSPropertyOp42
 70
     1
102
RTVSPropertyOp43
 70
     1
102
RTVSPropertyOp44
 70
     1
102
RTVSPropertyOp45
 70
     1
102
RTVSPropertyOp46
 70
     1
102
RTVSPropertyOp47
 70
     1
102
RTVSPropertyOp48
 70
     1
102
RTVSPropertyOp49
 70
     1
102
RTVSPropertyOp50
 70
     1
102
RTVSPropertyOp51
 70
     0
102
RTVSPropertyOp52
 70
     0
102
RTVSPropertyOp53
 70
     1
102
RTVSPropertyOp54
 70
     1
102
RTVSPropertyOp55
 70
     1
102
RTVSPropertyOp56
 70
     1
102
RTVSPropertyOp57
 70
     1
102
RTVSPropertyOp58
 70
     1
102
RTVSPropertyOp59
 70
     1
102
RTVSPropertyOp60
 70
     1
102
RTVSPropertyOp61
 70
     1
102
RTVSPropertyOp62
 70
     1
  0
XRECORD
  5
161D
102
{ACAD_REACTORS
330
161C
102
}
330
161C
100
AcDbXrecord
280
     1
102
RTVSPost2010Prop28
280
     0
102
RTVSPost2010PropOp28
 70
     1
102
RTVSPost2010Prop29
280
     1
102
RTVSPost2010PropOp29
 70
     1
102
RTVSPost2010Prop30
280
     1
102
RTVSPost2010PropOp30
 70
     1
102
RTVSPost2010Prop31
280
     0
102
RTVSPost2010PropOp31
 70
     1
102
RTVSPost2010Prop32
280
     0
102
RTVSPost2010PropOp32
 70
     1
102
RTVSPost2010Prop33
280
     0
102
RTVSPost2010PropOp33
 70
     1
102
RTVSPost2010Prop34
280
     0
102
RTVSPost2010PropOp34
 70
     1
102
RTVSPost2010Prop35
280
     0
102
RTVSPost2010PropOp35
 70
     1
102
RTVSPost2010Prop36
280
     0
102
RTVSPost2010PropOp36
 70
     1
102
RTVSPost2010Prop37
 90
       50
102
RTVSPost2010PropOp37
 70
     1
102
RTVSPost2010Prop38
140
0.0
102
RTVSPost2010PropOp38
 70
     1
102
RTVSPost2010Prop39
140
1.0
102
RTVSPost2010PropOp39
 70
     1
102
RTVSPost2010Prop40
 90
        0
102
RTVSPost2010PropOp40
 70
     1
102
RTVSPost2010Prop41ColorIndex
 90
       18
102
RTVSPost2010Prop41ColorRGB
 90
        0
102
RTVSPost2010PropOp41
 70
     1
102
RTVSPost2010Prop42
 90
       50
102
RTVSPost2010PropOp42
 70
     1
102
RTVSPost2010Prop43
 90
        3
102
RTVSPost2010PropOp43
 70
     1
102
RTVSPost2010Prop44ColorIndex
 90
        5
102
RTVSPost2010Prop44ColorRGB
 90
      255
102
RTVSPost2010PropOp44
 70
     1
102
RTVSPost2010Prop45
280
     0
102
RTVSPost2010PropOp45
 70
     1
102
RTVSPost2010Prop46
 90
       50
102
RTVSPost2010PropOp46
 70
     1
102
RTVSPost2010Prop47
 90
       50
102
RTVSPost2010PropOp47
 70
     1
102
RTVSPost2010Prop48
 90
       50
102
RTVSPost2010PropOp48
 70
     1
102
RTVSPost2010Prop49
280
     0
102
RTVSPost2010PropOp49
 70
     1
102
RTVSPost2010Prop50
 90
       50
102
RTVSPost2010PropOp50
 70
     1
102
RTVSPost2010Prop51ColorIndex
 90
      256
102
RTVSPost2010Prop51ColorRGB
 90
-16777216
102
RTVSPost2010PropOp51
 70
     0
102
RTVSPost2010Prop52
140
1.0
102
RTVSPost2010PropOp52
 70
     0
102
RTVSPost2010Prop53
 90
        2
102
RTVSPost2010PropOp53
 70
     1
102
RTVSPost2010Prop54
  1
strokes_ogs.tif
102
RTVSPost2010PropOp54
 70
     1
102
RTVSPost2010Prop55
280
     0
102
RTVSPost2010PropOp55
 70
     1
102
RTVSPost2010Prop56
140
1.0
102
RTVSPost2010PropOp56
 70
     1
102
RTVSPost2010Prop57
140
1.0
102
RTVSPost2010PropOp57
 70
     1
102
RTVSPropertyOp0
 70
     1
102
RTVSPropertyOp1
 70
     1
102
RTVSPropertyOp2
 70
     1
102
RTVSPropertyOp3
 70
     1
102
RTVSPropertyOp4
 70
     1
102
RTVSPropertyOp5
 70
     1
102
RTVSPropertyOp6
 70
     1
102
RTVSPropertyOp7
 70
     1
102
RTVSPropertyOp8
 70
     1
102
RTVSPropertyOp9
 70
     1
102
RTVSPropertyOp10
 70
     1
102
RTVSPropertyOp11
 70
     1
102
RTVSPropertyOp12
 70
     1
102
RTVSPropertyOp13
 70
     1
102
RTVSPropertyOp14
 70
     1
102
RTVSPropertyOp15
 70
     1
102
RTVSPropertyOp16
 70
     1
102
RTVSPropertyOp17
 70
     1
102
RTVSPropertyOp18
 70
     1
102
RTVSPropertyOp19
 70
     1
102
RTVSPropertyOp20
 70
     1
102
RTVSPropertyOp21
 70
     1
102
RTVSPropertyOp22
 70
     1
102
RTVSPropertyOp23
 70
     1
102
RTVSPropertyOp24
 70
     1
102
RTVSPropertyOp25
 70
     1
102
RTVSPropertyOp26
 70
     1
102
RTVSPropertyOp27
 70
     1
102
RTVSPropertyOp28
 70
     1
102
RTVSPropertyOp29
 70
     1
102
RTVSPropertyOp30
 70
     1
102
RTVSPropertyOp31
 70
     1
102
RTVSPropertyOp32
 70
     1
102
RTVSPropertyOp33
 70
     1
102
RTVSPropertyOp34
 70
     1
102
RTVSPropertyOp35
 70
     1
102
RTVSPropertyOp36
 70
     1
102
RTVSPropertyOp37
 70
     1
102
RTVSPropertyOp38
 70
     1
102
RTVSPropertyOp39
 70
     1
102
RTVSPropertyOp40
 70
     1
102
RTVSPropertyOp41
 70
     1
102
RTVSPropertyOp42
 70
     1
102
RTVSPropertyOp43
 70
     1
102
RTVSPropertyOp44
 70
     1
102
RTVSPropertyOp45
 70
     1
102
RTVSPropertyOp46
 70
     1
102
RTVSPropertyOp47
 70
     1
102
RTVSPropertyOp48
 70
     1
102
RTVSPropertyOp49
 70
     1
102
RTVSPropertyOp50
 70
     1
102
RTVSPropertyOp51
 70
     0
102
RTVSPropertyOp52
 70
     0
102
RTVSPropertyOp53
 70
     1
102
RTVSPropertyOp54
 70
     1
102
RTVSPropertyOp55
 70
     1
102
RTVSPropertyOp56
 70
     1
102
RTVSPropertyOp57
 70
     1
102
RTVSPropertyOp58
 70
     1
102
RTVSPropertyOp59
 70
     1
102
RTVSPropertyOp60
 70
     1
102
RTVSPropertyOp61
 70
     1
102
RTVSPropertyOp62
 70
     1
  0
XRECORD
  5
161F
102
{ACAD_REACTORS
330
161E
102
}
330
161E
100
AcDbXrecord
280
     1
102
RTVSPost2010Prop28
280
     0
102
RTVSPost2010PropOp28
 70
     1
102
RTVSPost2010Prop29
280
     1
102
RTVSPost2010PropOp29
 70
     1
102
RTVSPost2010Prop30
280
     1
102
RTVSPost2010PropOp30
 70
     1
102
RTVSPost2010Prop31
280
     0
102
RTVSPost2010PropOp31
 70
     1
102
RTVSPost2010Prop32
280
     0
102
RTVSPost2010PropOp32
 70
     1
102
RTVSPost2010Prop33
280
     0
102
RTVSPost2010PropOp33
 70
     1
102
RTVSPost2010Prop34
280
     0
102
RTVSPost2010PropOp34
 70
     1
102
RTVSPost2010Prop35
280
     0
102
RTVSPost2010PropOp35
 70
     1
102
RTVSPost2010Prop36
280
     0
102
RTVSPost2010PropOp36
 70
     1
102
RTVSPost2010Prop37
 90
       50
102
RTVSPost2010PropOp37
 70
     1
102
RTVSPost2010Prop38
140
0.0
102
RTVSPost2010PropOp38
 70
     1
102
RTVSPost2010Prop39
140
1.0
102
RTVSPost2010PropOp39
 70
     1
102
RTVSPost2010Prop40
 90
        0
102
RTVSPost2010PropOp40
 70
     1
102
RTVSPost2010Prop41ColorIndex
 90
       18
102
RTVSPost2010Prop41ColorRGB
 90
        0
102
RTVSPost2010PropOp41
 70
     1
102
RTVSPost2010Prop42
 90
       50
102
RTVSPost2010PropOp42
 70
     1
102
RTVSPost2010Prop43
 90
        3
102
RTVSPost2010PropOp43
 70
     1
102
RTVSPost2010Prop44ColorIndex
 90
        5
102
RTVSPost2010Prop44ColorRGB
 90
      255
102
RTVSPost2010PropOp44
 70
     1
102
RTVSPost2010Prop45
280
     0
102
RTVSPost2010PropOp45
 70
     1
102
RTVSPost2010Prop46
 90
       50
102
RTVSPost2010PropOp46
 70
     1
102
RTVSPost2010Prop47
 90
       50
102
RTVSPost2010PropOp47
 70
     1
102
RTVSPost2010Prop48
 90
       50
102
RTVSPost2010PropOp48
 70
     1
102
RTVSPost2010Prop49
280
     0
102
RTVSPost2010PropOp49
 70
     1
102
RTVSPost2010Prop50
 90
       50
102
RTVSPost2010PropOp50
 70
     1
102
RTVSPost2010Prop51ColorIndex
 90
      256
102
RTVSPost2010Prop51ColorRGB
 90
-16777216
102
RTVSPost2010PropOp51
 70
     0
102
RTVSPost2010Prop52
140
1.0
102
RTVSPost2010PropOp52
 70
     0
102
RTVSPost2010Prop53
 90
        2
102
RTVSPost2010PropOp53
 70
     1
102
RTVSPost2010Prop54
  1
strokes_ogs.tif
102
RTVSPost2010PropOp54
 70
     1
102
RTVSPost2010Prop55
280
     0
102
RTVSPost2010PropOp55
 70
     1
102
RTVSPost2010Prop56
140
1.0
102
RTVSPost2010PropOp56
 70
     1
102
RTVSPost2010Prop57
140
1.0
102
RTVSPost2010PropOp57
 70
     1
102
RTVSPropertyOp0
 70
     1
102
RTVSPropertyOp1
 70
     1
102
RTVSPropertyOp2
 70
     1
102
RTVSPropertyOp3
 70
     1
102
RTVSPropertyOp4
 70
     1
102
RTVSPropertyOp5
 70
     1
102
RTVSPropertyOp6
 70
     1
102
RTVSPropertyOp7
 70
     1
102
RTVSPropertyOp8
 70
     1
102
RTVSPropertyOp9
 70
     1
102
RTVSPropertyOp10
 70
     1
102
RTVSPropertyOp11
 70
     1
102
RTVSPropertyOp12
 70
     1
102
RTVSPropertyOp13
 70
     1
102
RTVSPropertyOp14
 70
     1
102
RTVSPropertyOp15
 70
     1
102
RTVSPropertyOp16
 70
     1
102
RTVSPropertyOp17
 70
     1
102
RTVSPropertyOp18
 70
     1
102
RTVSPropertyOp19
 70
     1
102
RTVSPropertyOp20
 70
     1
102
RTVSPropertyOp21
 70
     1
102
RTVSPropertyOp22
 70
     1
102
RTVSPropertyOp23
 70
     1
102
RTVSPropertyOp24
 70
     1
102
RTVSPropertyOp25
 70
     1
102
RTVSPropertyOp26
 70
     1
102
RTVSPropertyOp27
 70
     1
102
RTVSPropertyOp28
 70
     1
102
RTVSPropertyOp29
 70
     1
102
RTVSPropertyOp30
 70
     1
102
RTVSPropertyOp31
 70
     1
102
RTVSPropertyOp32
 70
     1
102
RTVSPropertyOp33
 70
     1
102
RTVSPropertyOp34
 70
     1
102
RTVSPropertyOp35
 70
     1
102
RTVSPropertyOp36
 70
     1
102
RTVSPropertyOp37
 70
     1
102
RTVSPropertyOp38
 70
     1
102
RTVSPropertyOp39
 70
     1
102
RTVSPropertyOp40
 70
     1
102
RTVSPropertyOp41
 70
     1
102
RTVSPropertyOp42
 70
     1
102
RTVSPropertyOp43
 70
     1
102
RTVSPropertyOp44
 70
     1
102
RTVSPropertyOp45
 70
     1
102
RTVSPropertyOp46
 70
     1
102
RTVSPropertyOp47
 70
     1
102
RTVSPropertyOp48
 70
     1
102
RTVSPropertyOp49
 70
     1
102
RTVSPropertyOp50
 70
     1
102
RTVSPropertyOp51
 70
     0
102
RTVSPropertyOp52
 70
     0
102
RTVSPropertyOp53
 70
     1
102
RTVSPropertyOp54
 70
     1
102
RTVSPropertyOp55
 70
     1
102
RTVSPropertyOp56
 70
     1
102
RTVSPropertyOp57
 70
     1
102
RTVSPropertyOp58
 70
     1
102
RTVSPropertyOp59
 70
     1
102
RTVSPropertyOp60
 70
     1
102
RTVSPropertyOp61
 70
     1
102
RTVSPropertyOp62
 70
     1
  0
XRECORD
  5
1621
102
{ACAD_REACTORS
330
1620
102
}
330
1620
100
AcDbXrecord
280
     1
102
RTVSPost2010Prop28
280
     0
102
RTVSPost2010PropOp28
 70
     1
102
RTVSPost2010Prop29
280
     1
102
RTVSPost2010PropOp29
 70
     1
102
RTVSPost2010Prop30
280
     1
102
RTVSPost2010PropOp30
 70
     1
102
RTVSPost2010Prop31
280
     0
102
RTVSPost2010PropOp31
 70
     1
102
RTVSPost2010Prop32
280
     0
102
RTVSPost2010PropOp32
 70
     1
102
RTVSPost2010Prop33
280
     0
102
RTVSPost2010PropOp33
 70
     1
102
RTVSPost2010Prop34
280
     0
102
RTVSPost2010PropOp34
 70
     1
102
RTVSPost2010Prop35
280
     0
102
RTVSPost2010PropOp35
 70
     1
102
RTVSPost2010Prop36
280
     0
102
RTVSPost2010PropOp36
 70
     1
102
RTVSPost2010Prop37
 90
       50
102
RTVSPost2010PropOp37
 70
     1
102
RTVSPost2010Prop38
140
0.0
102
RTVSPost2010PropOp38
 70
     1
102
RTVSPost2010Prop39
140
1.0
102
RTVSPost2010PropOp39
 70
     1
102
RTVSPost2010Prop40
 90
        0
102
RTVSPost2010PropOp40
 70
     1
102
RTVSPost2010Prop41ColorIndex
 90
       18
102
RTVSPost2010Prop41ColorRGB
 90
        0
102
RTVSPost2010PropOp41
 70
     1
102
RTVSPost2010Prop42
 90
       50
102
RTVSPost2010PropOp42
 70
     1
102
RTVSPost2010Prop43
 90
        3
102
RTVSPost2010PropOp43
 70
     1
102
RTVSPost2010Prop44ColorIndex
 90
        5
102
RTVSPost2010Prop44ColorRGB
 90
      255
102
RTVSPost2010PropOp44
 70
     1
102
RTVSPost2010Prop45
280
     0
102
RTVSPost2010PropOp45
 70
     1
102
RTVSPost2010Prop46
 90
       50
102
RTVSPost2010PropOp46
 70
     1
102
RTVSPost2010Prop47
 90
       50
102
RTVSPost2010PropOp47
 70
     1
102
RTVSPost2010Prop48
 90
       50
102
RTVSPost2010PropOp48
 70
     1
102
RTVSPost2010Prop49
280
     0
102
RTVSPost2010PropOp49
 70
     1
102
RTVSPost2010Prop50
 90
       50
102
RTVSPost2010PropOp50
 70
     1
102
RTVSPost2010Prop51ColorIndex
 90
      256
102
RTVSPost2010Prop51ColorRGB
 90
-16777216
102
RTVSPost2010PropOp51
 70
     0
102
RTVSPost2010Prop52
140
1.0
102
RTVSPost2010PropOp52
 70
     0
102
RTVSPost2010Prop53
 90
        2
102
RTVSPost2010PropOp53
 70
     1
102
RTVSPost2010Prop54
  1
strokes_ogs.tif
102
RTVSPost2010PropOp54
 70
     1
102
RTVSPost2010Prop55
280
     0
102
RTVSPost2010PropOp55
 70
     1
102
RTVSPost2010Prop56
140
1.0
102
RTVSPost2010PropOp56
 70
     1
102
RTVSPost2010Prop57
140
1.0
102
RTVSPost2010PropOp57
 70
     1
102
RTVSPropertyOp0
 70
     1
102
RTVSPropertyOp1
 70
     1
102
RTVSPropertyOp2
 70
     1
102
RTVSPropertyOp3
 70
     1
102
RTVSPropertyOp4
 70
     1
102
RTVSPropertyOp5
 70
     1
102
RTVSPropertyOp6
 70
     1
102
RTVSPropertyOp7
 70
     1
102
RTVSPropertyOp8
 70
     1
102
RTVSPropertyOp9
 70
     1
102
RTVSPropertyOp10
 70
     1
102
RTVSPropertyOp11
 70
     1
102
RTVSPropertyOp12
 70
     1
102
RTVSPropertyOp13
 70
     1
102
RTVSPropertyOp14
 70
     1
102
RTVSPropertyOp15
 70
     1
102
RTVSPropertyOp16
 70
     1
102
RTVSPropertyOp17
 70
     1
102
RTVSPropertyOp18
 70
     1
102
RTVSPropertyOp19
 70
     1
102
RTVSPropertyOp20
 70
     1
102
RTVSPropertyOp21
 70
     1
102
RTVSPropertyOp22
 70
     1
102
RTVSPropertyOp23
 70
     1
102
RTVSPropertyOp24
 70
     1
102
RTVSPropertyOp25
 70
     1
102
RTVSPropertyOp26
 70
     1
102
RTVSPropertyOp27
 70
     1
102
RTVSPropertyOp28
 70
     1
102
RTVSPropertyOp29
 70
     1
102
RTVSPropertyOp30
 70
     1
102
RTVSPropertyOp31
 70
     1
102
RTVSPropertyOp32
 70
     1
102
RTVSPropertyOp33
 70
     1
102
RTVSPropertyOp34
 70
     1
102
RTVSPropertyOp35
 70
     1
102
RTVSPropertyOp36
 70
     1
102
RTVSPropertyOp37
 70
     1
102
RTVSPropertyOp38
 70
     1
102
RTVSPropertyOp39
 70
     1
102
RTVSPropertyOp40
 70
     1
102
RTVSPropertyOp41
 70
     1
102
RTVSPropertyOp42
 70
     1
102
RTVSPropertyOp43
 70
     1
102
RTVSPropertyOp44
 70
     1
102
RTVSPropertyOp45
 70
     1
102
RTVSPropertyOp46
 70
     1
102
RTVSPropertyOp47
 70
     1
102
RTVSPropertyOp48
 70
     1
102
RTVSPropertyOp49
 70
     1
102
RTVSPropertyOp50
 70
     1
102
RTVSPropertyOp51
 70
     0
102
RTVSPropertyOp52
 70
     0
102
RTVSPropertyOp53
 70
     1
102
RTVSPropertyOp54
 70
     1
102
RTVSPropertyOp55
 70
     1
102
RTVSPropertyOp56
 70
     1
102
RTVSPropertyOp57
 70
     1
102
RTVSPropertyOp58
 70
     1
102
RTVSPropertyOp59
 70
     1
102
RTVSPropertyOp60
 70
     1
102
RTVSPropertyOp61
 70
     1
102
RTVSPropertyOp62
 70
     1
  0
XRECORD
  5
1623
102
{ACAD_REACTORS
330
1622
102
}
330
1622
100
AcDbXrecord
280
     1
102
RTVSPost2010Prop28
280
     0
102
RTVSPost2010PropOp28
 70
     1
102
RTVSPost2010Prop29
280
     1
102
RTVSPost2010PropOp29
 70
     1
102
RTVSPost2010Prop30
280
     1
102
RTVSPost2010PropOp30
 70
     1
102
RTVSPost2010Prop31
280
     0
102
RTVSPost2010PropOp31
 70
     1
102
RTVSPost2010Prop32
280
     0
102
RTVSPost2010PropOp32
 70
     1
102
RTVSPost2010Prop33
280
     0
102
RTVSPost2010PropOp33
 70
     1
102
RTVSPost2010Prop34
280
     0
102
RTVSPost2010PropOp34
 70
     1
102
RTVSPost2010Prop35
280
     0
102
RTVSPost2010PropOp35
 70
     1
102
RTVSPost2010Prop36
280
     0
102
RTVSPost2010PropOp36
 70
     1
102
RTVSPost2010Prop37
 90
       50
102
RTVSPost2010PropOp37
 70
     1
102
RTVSPost2010Prop38
140
0.0
102
RTVSPost2010PropOp38
 70
     1
102
RTVSPost2010Prop39
140
1.0
102
RTVSPost2010PropOp39
 70
     1
102
RTVSPost2010Prop40
 90
        0
102
RTVSPost2010PropOp40
 70
     1
102
RTVSPost2010Prop41ColorIndex
 90
       18
102
RTVSPost2010Prop41ColorRGB
 90
        0
102
RTVSPost2010PropOp41
 70
     1
102
RTVSPost2010Prop42
 90
       50
102
RTVSPost2010PropOp42
 70
     1
102
RTVSPost2010Prop43
 90
        3
102
RTVSPost2010PropOp43
 70
     1
102
RTVSPost2010Prop44ColorIndex
 90
        5
102
RTVSPost2010Prop44ColorRGB
 90
      255
102
RTVSPost2010PropOp44
 70
     1
102
RTVSPost2010Prop45
280
     0
102
RTVSPost2010PropOp45
 70
     1
102
RTVSPost2010Prop46
 90
       50
102
RTVSPost2010PropOp46
 70
     1
102
RTVSPost2010Prop47
 90
       50
102
RTVSPost2010PropOp47
 70
     1
102
RTVSPost2010Prop48
 90
       50
102
RTVSPost2010PropOp48
 70
     1
102
RTVSPost2010Prop49
280
     0
102
RTVSPost2010PropOp49
 70
     1
102
RTVSPost2010Prop50
 90
       50
102
RTVSPost2010PropOp50
 70
     1
102
RTVSPost2010Prop51ColorIndex
 90
      256
102
RTVSPost2010Prop51ColorRGB
 90
-16777216
102
RTVSPost2010PropOp51
 70
     0
102
RTVSPost2010Prop52
140
1.0
102
RTVSPost2010PropOp52
 70
     0
102
RTVSPost2010Prop53
 90
        2
102
RTVSPost2010PropOp53
 70
     1
102
RTVSPost2010Prop54
  1
strokes_ogs.tif
102
RTVSPost2010PropOp54
 70
     1
102
RTVSPost2010Prop55
280
     0
102
RTVSPost2010PropOp55
 70
     1
102
RTVSPost2010Prop56
140
1.0
102
RTVSPost2010PropOp56
 70
     1
102
RTVSPost2010Prop57
140
1.0
102
RTVSPost2010PropOp57
 70
     1
102
RTVSPropertyOp0
 70
     1
102
RTVSPropertyOp1
 70
     1
102
RTVSPropertyOp2
 70
     1
102
RTVSPropertyOp3
 70
     1
102
RTVSPropertyOp4
 70
     1
102
RTVSPropertyOp5
 70
     1
102
RTVSPropertyOp6
 70
     1
102
RTVSPropertyOp7
 70
     1
102
RTVSPropertyOp8
 70
     1
102
RTVSPropertyOp9
 70
     1
102
RTVSPropertyOp10
 70
     1
102
RTVSPropertyOp11
 70
     1
102
RTVSPropertyOp12
 70
     1
102
RTVSPropertyOp13
 70
     1
102
RTVSPropertyOp14
 70
     1
102
RTVSPropertyOp15
 70
     1
102
RTVSPropertyOp16
 70
     1
102
RTVSPropertyOp17
 70
     1
102
RTVSPropertyOp18
 70
     1
102
RTVSPropertyOp19
 70
     1
102
RTVSPropertyOp20
 70
     1
102
RTVSPropertyOp21
 70
     1
102
RTVSPropertyOp22
 70
     1
102
RTVSPropertyOp23
 70
     1
102
RTVSPropertyOp24
 70
     1
102
RTVSPropertyOp25
 70
     1
102
RTVSPropertyOp26
 70
     1
102
RTVSPropertyOp27
 70
     1
102
RTVSPropertyOp28
 70
     1
102
RTVSPropertyOp29
 70
     1
102
RTVSPropertyOp30
 70
     1
102
RTVSPropertyOp31
 70
     1
102
RTVSPropertyOp32
 70
     1
102
RTVSPropertyOp33
 70
     1
102
RTVSPropertyOp34
 70
     1
102
RTVSPropertyOp35
 70
     1
102
RTVSPropertyOp36
 70
     1
102
RTVSPropertyOp37
 70
     1
102
RTVSPropertyOp38
 70
     1
102
RTVSPropertyOp39
 70
     1
102
RTVSPropertyOp40
 70
     1
102
RTVSPropertyOp41
 70
     1
102
RTVSPropertyOp42
 70
     1
102
RTVSPropertyOp43
 70
     1
102
RTVSPropertyOp44
 70
     1
102
RTVSPropertyOp45
 70
     1
102
RTVSPropertyOp46
 70
     1
102
RTVSPropertyOp47
 70
     1
102
RTVSPropertyOp48
 70
     1
102
RTVSPropertyOp49
 70
     1
102
RTVSPropertyOp50
 70
     1
102
RTVSPropertyOp51
 70
     0
102
RTVSPropertyOp52
 70
     0
102
RTVSPropertyOp53
 70
     1
102
RTVSPropertyOp54
 70
     1
102
RTVSPropertyOp55
 70
     1
102
RTVSPropertyOp56
 70
     1
102
RTVSPropertyOp57
 70
     1
102
RTVSPropertyOp58
 70
     1
102
RTVSPropertyOp59
 70
     1
102
RTVSPropertyOp60
 70
     1
102
RTVSPropertyOp61
 70
     1
102
RTVSPropertyOp62
 70
     1
  0
XRECORD
  5
1640
102
{ACAD_REACTORS
330
163F
102
}
330
163F
100
AcDbXrecord
280
     1
102
RTVSPost2010Prop28
280
     0
102
RTVSPost2010PropOp28
 70
     1
102
RTVSPost2010Prop29
280
     1
102
RTVSPost2010PropOp29
 70
     1
102
RTVSPost2010Prop30
280
     1
102
RTVSPost2010PropOp30
 70
     1
102
RTVSPost2010Prop31
280
     0
102
RTVSPost2010PropOp31
 70
     1
102
RTVSPost2010Prop32
280
     0
102
RTVSPost2010PropOp32
 70
     1
102
RTVSPost2010Prop33
280
     0
102
RTVSPost2010PropOp33
 70
     1
102
RTVSPost2010Prop34
280
     0
102
RTVSPost2010PropOp34
 70
     1
102
RTVSPost2010Prop35
280
     0
102
RTVSPost2010PropOp35
 70
     1
102
RTVSPost2010Prop36
280
     0
102
RTVSPost2010PropOp36
 70
     1
102
RTVSPost2010Prop37
 90
       50
102
RTVSPost2010PropOp37
 70
     1
102
RTVSPost2010Prop38
140
0.0
102
RTVSPost2010PropOp38
 70
     1
102
RTVSPost2010Prop39
140
1.0
102
RTVSPost2010PropOp39
 70
     1
102
RTVSPost2010Prop40
 90
        0
102
RTVSPost2010PropOp40
 70
     1
102
RTVSPost2010Prop41ColorIndex
 90
       18
102
RTVSPost2010Prop41ColorRGB
 90
        0
102
RTVSPost2010PropOp41
 70
     1
102
RTVSPost2010Prop42
 90
       50
102
RTVSPost2010PropOp42
 70
     1
102
RTVSPost2010Prop43
 90
        3
102
RTVSPost2010PropOp43
 70
     1
102
RTVSPost2010Prop44ColorIndex
 90
        5
102
RTVSPost2010Prop44ColorRGB
 90
      255
102
RTVSPost2010PropOp44
 70
     1
102
RTVSPost2010Prop45
280
     0
102
RTVSPost2010PropOp45
 70
     1
102
RTVSPost2010Prop46
 90
       50
102
RTVSPost2010PropOp46
 70
     1
102
RTVSPost2010Prop47
 90
       50
102
RTVSPost2010PropOp47
 70
     1
102
RTVSPost2010Prop48
 90
       50
102
RTVSPost2010PropOp48
 70
     1
102
RTVSPost2010Prop49
280
     0
102
RTVSPost2010PropOp49
 70
     1
102
RTVSPost2010Prop50
 90
       50
102
RTVSPost2010PropOp50
 70
     1
102
RTVSPost2010Prop51ColorIndex
 90
      256
102
RTVSPost2010Prop51ColorRGB
 90
-16777216
102
RTVSPost2010PropOp51
 70
     0
102
RTVSPost2010Prop52
140
1.0
102
RTVSPost2010PropOp52
 70
     0
102
RTVSPost2010Prop53
 90
        2
102
RTVSPost2010PropOp53
 70
     1
102
RTVSPost2010Prop54
  1
strokes_ogs.tif
102
RTVSPost2010PropOp54
 70
     1
102
RTVSPost2010Prop55
280
     0
102
RTVSPost2010PropOp55
 70
     1
102
RTVSPost2010Prop56
140
1.0
102
RTVSPost2010PropOp56
 70
     1
102
RTVSPost2010Prop57
140
1.0
102
RTVSPost2010PropOp57
 70
     1
102
RTVSPropertyOp0
 70
     1
102
RTVSPropertyOp1
 70
     1
102
RTVSPropertyOp2
 70
     1
102
RTVSPropertyOp3
 70
     1
102
RTVSPropertyOp4
 70
     1
102
RTVSPropertyOp5
 70
     1
102
RTVSPropertyOp6
 70
     1
102
RTVSPropertyOp7
 70
     1
102
RTVSPropertyOp8
 70
     1
102
RTVSPropertyOp9
 70
     1
102
RTVSPropertyOp10
 70
     1
102
RTVSPropertyOp11
 70
     1
102
RTVSPropertyOp12
 70
     1
102
RTVSPropertyOp13
 70
     1
102
RTVSPropertyOp14
 70
     1
102
RTVSPropertyOp15
 70
     1
102
RTVSPropertyOp16
 70
     1
102
RTVSPropertyOp17
 70
     1
102
RTVSPropertyOp18
 70
     1
102
RTVSPropertyOp19
 70
     1
102
RTVSPropertyOp20
 70
     1
102
RTVSPropertyOp21
 70
     1
102
RTVSPropertyOp22
 70
     1
102
RTVSPropertyOp23
 70
     1
102
RTVSPropertyOp24
 70
     1
102
RTVSPropertyOp25
 70
     1
102
RTVSPropertyOp26
 70
     1
102
RTVSPropertyOp27
 70
     1
102
RTVSPropertyOp28
 70
     1
102
RTVSPropertyOp29
 70
     1
102
RTVSPropertyOp30
 70
     1
102
RTVSPropertyOp31
 70
     1
102
RTVSPropertyOp32
 70
     1
102
RTVSPropertyOp33
 70
     1
102
RTVSPropertyOp34
 70
     1
102
RTVSPropertyOp35
 70
     1
102
RTVSPropertyOp36
 70
     1
102
RTVSPropertyOp37
 70
     1
102
RTVSPropertyOp38
 70
     1
102
RTVSPropertyOp39
 70
     1
102
RTVSPropertyOp40
 70
     1
102
RTVSPropertyOp41
 70
     1
102
RTVSPropertyOp42
 70
     1
102
RTVSPropertyOp43
 70
     1
102
RTVSPropertyOp44
 70
     1
102
RTVSPropertyOp45
 70
     1
102
RTVSPropertyOp46
 70
     1
102
RTVSPropertyOp47
 70
     1
102
RTVSPropertyOp48
 70
     1
102
RTVSPropertyOp49
 70
     1
102
RTVSPropertyOp50
 70
     1
102
RTVSPropertyOp51
 70
     0
102
RTVSPropertyOp52
 70
     0
102
RTVSPropertyOp53
 70
     1
102
RTVSPropertyOp54
 70
     1
102
RTVSPropertyOp55
 70
     1
102
RTVSPropertyOp56
 70
     1
102
RTVSPropertyOp57
 70
     1
102
RTVSPropertyOp58
 70
     1
102
RTVSPropertyOp59
 70
     1
102
RTVSPropertyOp60
 70
     1
102
RTVSPropertyOp61
 70
     1
102
RTVSPropertyOp62
 70
     1
  0
XRECORD
  5
164C
102
{ACAD_REACTORS
330
164B
102
}
330
164B
100
AcDbXrecord
280
     1
102
RTVSPost2010Prop28
280
     0
102
RTVSPost2010PropOp28
 70
     0
102
RTVSPost2010Prop29
280
     1
102
RTVSPost2010PropOp29
 70
     0
102
RTVSPost2010Prop30
280
     1
102
RTVSPost2010PropOp30
 70
     0
102
RTVSPost2010Prop31
280
     0
102
RTVSPost2010PropOp31
 70
     0
102
RTVSPost2010Prop32
280
     0
102
RTVSPost2010PropOp32
 70
     0
102
RTVSPost2010Prop33
280
     0
102
RTVSPost2010PropOp33
 70
     0
102
RTVSPost2010Prop34
280
     0
102
RTVSPost2010PropOp34
 70
     0
102
RTVSPost2010Prop35
280
     0
102
RTVSPost2010PropOp35
 70
     0
102
RTVSPost2010Prop36
280
     0
102
RTVSPost2010PropOp36
 70
     0
102
RTVSPost2010Prop37
 90
       50
102
RTVSPost2010PropOp37
 70
     0
102
RTVSPost2010Prop38
140
0.0
102
RTVSPost2010PropOp38
 70
     0
102
RTVSPost2010Prop39
140
1.0
102
RTVSPost2010PropOp39
 70
     0
102
RTVSPost2010Prop40
 90
        0
102
RTVSPost2010PropOp40
 70
     0
102
RTVSPost2010Prop41ColorIndex
 90
       18
102
RTVSPost2010Prop41ColorRGB
 90
        0
102
RTVSPost2010PropOp41
 70
     0
102
RTVSPost2010Prop42
 90
       50
102
RTVSPost2010PropOp42
 70
     0
102
RTVSPost2010Prop43
 90
        3
102
RTVSPost2010PropOp43
 70
     0
102
RTVSPost2010Prop44ColorIndex
 90
        5
102
RTVSPost2010Prop44ColorRGB
 90
      255
102
RTVSPost2010PropOp44
 70
     0
102
RTVSPost2010Prop45
280
     0
102
RTVSPost2010PropOp45
 70
     0
102
RTVSPost2010Prop46
 90
       50
102
RTVSPost2010PropOp46
 70
     0
102
RTVSPost2010Prop47
 90
       50
102
RTVSPost2010PropOp47
 70
     0
102
RTVSPost2010Prop48
 90
       50
102
RTVSPost2010PropOp48
 70
     0
102
RTVSPost2010Prop49
280
     0
102
RTVSPost2010PropOp49
 70
     0
102
RTVSPost2010Prop50
 90
       50
102
RTVSPost2010PropOp50
 70
     0
102
RTVSPost2010Prop51ColorIndex
 90
      256
102
RTVSPost2010Prop51ColorRGB
 90
-16777216
102
RTVSPost2010PropOp51
 70
     0
102
RTVSPost2010Prop52
140
1.0
102
RTVSPost2010PropOp52
 70
     0
102
RTVSPost2010Prop53
 90
        2
102
RTVSPost2010PropOp53
 70
     0
102
RTVSPost2010Prop54
  1
strokes_ogs.tif
102
RTVSPost2010PropOp54
 70
     0
102
RTVSPost2010Prop55
280
     0
102
RTVSPost2010PropOp55
 70
     0
102
RTVSPost2010Prop56
140
1.0
102
RTVSPost2010PropOp56
 70
     0
102
RTVSPost2010Prop57
140
1.0
102
RTVSPost2010PropOp57
 70
     0
102
RTVSPropertyOp0
 70
     0
102
RTVSPropertyOp1
 70
     0
102
RTVSPropertyOp2
 70
     0
102
RTVSPropertyOp3
 70
     0
102
RTVSPropertyOp4
 70
     0
102
RTVSPropertyOp5
 70
     0
102
RTVSPropertyOp6
 70
     0
102
RTVSPropertyOp7
 70
     0
102
RTVSPropertyOp8
 70
     0
102
RTVSPropertyOp9
 70
     0
102
RTVSPropertyOp10
 70
     0
102
RTVSPropertyOp11
 70
     0
102
RTVSPropertyOp12
 70
     0
102
RTVSPropertyOp13
 70
     0
102
RTVSPropertyOp14
 70
     2
102
RTVSPropertyOp15
 70
     0
102
RTVSPropertyOp16
 70
     0
102
RTVSPropertyOp17
 70
     0
102
RTVSPropertyOp18
 70
     0
102
RTVSPropertyOp19
 70
     0
102
RTVSPropertyOp20
 70
     0
102
RTVSPropertyOp21
 70
     0
102
RTVSPropertyOp22
 70
     0
102
RTVSPropertyOp23
 70
     0
102
RTVSPropertyOp24
 70
     0
102
RTVSPropertyOp25
 70
     0
102
RTVSPropertyOp26
 70
     0
102
RTVSPropertyOp27
 70
     0
102
RTVSPropertyOp28
 70
     0
102
RTVSPropertyOp29
 70
     0
102
RTVSPropertyOp30
 70
     0
102
RTVSPropertyOp31
 70
     0
102
RTVSPropertyOp32
 70
     0
102
RTVSPropertyOp33
 70
     0
102
RTVSPropertyOp34
 70
     0
102
RTVSPropertyOp35
 70
     0
102
RTVSPropertyOp36
 70
     0
102
RTVSPropertyOp37
 70
     0
102
RTVSPropertyOp38
 70
     0
102
RTVSPropertyOp39
 70
     0
102
RTVSPropertyOp40
 70
     0
102
RTVSPropertyOp41
 70
     0
102
RTVSPropertyOp42
 70
     0
102
RTVSPropertyOp43
 70
     0
102
RTVSPropertyOp44
 70
     0
102
RTVSPropertyOp45
 70
     0
102
RTVSPropertyOp46
 70
     0
102
RTVSPropertyOp47
 70
     0
102
RTVSPropertyOp48
 70
     0
102
RTVSPropertyOp49
 70
     0
102
RTVSPropertyOp50
 70
     0
102
RTVSPropertyOp51
 70
     0
102
RTVSPropertyOp52
 70
     0
102
RTVSPropertyOp53
 70
     0
102
RTVSPropertyOp54
 70
     0
102
RTVSPropertyOp55
 70
     0
102
RTVSPropertyOp56
 70
     0
102
RTVSPropertyOp57
 70
     0
102
RTVSPropertyOp58
 70
     0
102
RTVSPropertyOp59
 70
     0
102
RTVSPropertyOp60
 70
     0
102
RTVSPropertyOp61
 70
     0
102
RTVSPropertyOp62
 70
     0
  0
XRECORD
  5
1637
102
{ACAD_REACTORS
330
1636
102
}
330
1636
100
AcDbXrecord
280
     1
102
RTVSPost2010Prop28
280
     0
102
RTVSPost2010PropOp28
 70
     1
102
RTVSPost2010Prop29
280
     1
102
RTVSPost2010PropOp29
 70
     1
102
RTVSPost2010Prop30
280
     1
102
RTVSPost2010PropOp30
 70
     1
102
RTVSPost2010Prop31
280
     0
102
RTVSPost2010PropOp31
 70
     1
102
RTVSPost2010Prop32
280
     0
102
RTVSPost2010PropOp32
 70
     1
102
RTVSPost2010Prop33
280
     0
102
RTVSPost2010PropOp33
 70
     1
102
RTVSPost2010Prop34
280
     0
102
RTVSPost2010PropOp34
 70
     1
102
RTVSPost2010Prop35
280
     0
102
RTVSPost2010PropOp35
 70
     1
102
RTVSPost2010Prop36
280
     0
102
RTVSPost2010PropOp36
 70
     1
102
RTVSPost2010Prop37
 90
       50
102
RTVSPost2010PropOp37
 70
     1
102
RTVSPost2010Prop38
140
0.0
102
RTVSPost2010PropOp38
 70
     1
102
RTVSPost2010Prop39
140
1.0
102
RTVSPost2010PropOp39
 70
     1
102
RTVSPost2010Prop40
 90
        0
102
RTVSPost2010PropOp40
 70
     1
102
RTVSPost2010Prop41ColorIndex
 90
       18
102
RTVSPost2010Prop41ColorRGB
 90
        0
102
RTVSPost2010PropOp41
 70
     1
102
RTVSPost2010Prop42
 90
       50
102
RTVSPost2010PropOp42
 70
     1
102
RTVSPost2010Prop43
 90
        3
102
RTVSPost2010PropOp43
 70
     1
102
RTVSPost2010Prop44ColorIndex
 90
        5
102
RTVSPost2010Prop44ColorRGB
 90
      255
102
RTVSPost2010PropOp44
 70
     1
102
RTVSPost2010Prop45
280
     0
102
RTVSPost2010PropOp45
 70
     1
102
RTVSPost2010Prop46
 90
       50
102
RTVSPost2010PropOp46
 70
     1
102
RTVSPost2010Prop47
 90
       50
102
RTVSPost2010PropOp47
 70
     1
102
RTVSPost2010Prop48
 90
       50
102
RTVSPost2010PropOp48
 70
     1
102
RTVSPost2010Prop49
280
     0
102
RTVSPost2010PropOp49
 70
     1
102
RTVSPost2010Prop50
 90
       50
102
RTVSPost2010PropOp50
 70
     1
102
RTVSPost2010Prop51ColorIndex
 90
      256
102
RTVSPost2010Prop51ColorRGB
 90
-16777216
102
RTVSPost2010PropOp51
 70
     0
102
RTVSPost2010Prop52
140
1.0
102
RTVSPost2010PropOp52
 70
     0
102
RTVSPost2010Prop53
 90
        2
102
RTVSPost2010PropOp53
 70
     1
102
RTVSPost2010Prop54
  1
strokes_ogs.tif
102
RTVSPost2010PropOp54
 70
     1
102
RTVSPost2010Prop55
280
     0
102
RTVSPost2010PropOp55
 70
     1
102
RTVSPost2010Prop56
140
1.0
102
RTVSPost2010PropOp56
 70
     1
102
RTVSPost2010Prop57
140
1.0
102
RTVSPost2010PropOp57
 70
     1
102
RTVSPropertyOp0
 70
     1
102
RTVSPropertyOp1
 70
     1
102
RTVSPropertyOp2
 70
     1
102
RTVSPropertyOp3
 70
     1
102
RTVSPropertyOp4
 70
     1
102
RTVSPropertyOp5
 70
     1
102
RTVSPropertyOp6
 70
     1
102
RTVSPropertyOp7
 70
     1
102
RTVSPropertyOp8
 70
     1
102
RTVSPropertyOp9
 70
     1
102
RTVSPropertyOp10
 70
     1
102
RTVSPropertyOp11
 70
     1
102
RTVSPropertyOp12
 70
     1
102
RTVSPropertyOp13
 70
     1
102
RTVSPropertyOp14
 70
     1
102
RTVSPropertyOp15
 70
     1
102
RTVSPropertyOp16
 70
     1
102
RTVSPropertyOp17
 70
     1
102
RTVSPropertyOp18
 70
     1
102
RTVSPropertyOp19
 70
     1
102
RTVSPropertyOp20
 70
     1
102
RTVSPropertyOp21
 70
     1
102
RTVSPropertyOp22
 70
     1
102
RTVSPropertyOp23
 70
     1
102
RTVSPropertyOp24
 70
     1
102
RTVSPropertyOp25
 70
     1
102
RTVSPropertyOp26
 70
     1
102
RTVSPropertyOp27
 70
     1
102
RTVSPropertyOp28
 70
     1
102
RTVSPropertyOp29
 70
     1
102
RTVSPropertyOp30
 70
     1
102
RTVSPropertyOp31
 70
     1
102
RTVSPropertyOp32
 70
     1
102
RTVSPropertyOp33
 70
     1
102
RTVSPropertyOp34
 70
     1
102
RTVSPropertyOp35
 70
     1
102
RTVSPropertyOp36
 70
     1
102
RTVSPropertyOp37
 70
     1
102
RTVSPropertyOp38
 70
     1
102
RTVSPropertyOp39
 70
     1
102
RTVSPropertyOp40
 70
     1
102
RTVSPropertyOp41
 70
     1
102
RTVSPropertyOp42
 70
     1
102
RTVSPropertyOp43
 70
     1
102
RTVSPropertyOp44
 70
     1
102
RTVSPropertyOp45
 70
     1
102
RTVSPropertyOp46
 70
     1
102
RTVSPropertyOp47
 70
     1
102
RTVSPropertyOp48
 70
     1
102
RTVSPropertyOp49
 70
     1
102
RTVSPropertyOp50
 70
     1
102
RTVSPropertyOp51
 70
     0
102
RTVSPropertyOp52
 70
     0
102
RTVSPropertyOp53
 70
     1
102
RTVSPropertyOp54
 70
     1
102
RTVSPropertyOp55
 70
     1
102
RTVSPropertyOp56
 70
     1
102
RTVSPropertyOp57
 70
     1
102
RTVSPropertyOp58
 70
     1
102
RTVSPropertyOp59
 70
     1
102
RTVSPropertyOp60
 70
     1
102
RTVSPropertyOp61
 70
     1
102
RTVSPropertyOp62
 70
     1
  0
XRECORD
  5
164E
102
{ACAD_REACTORS
330
164D
102
}
330
164D
100
AcDbXrecord
280
     1
102
RTVSPost2010Prop28
280
     0
102
RTVSPost2010PropOp28
 70
     0
102
RTVSPost2010Prop29
280
     1
102
RTVSPost2010PropOp29
 70
     0
102
RTVSPost2010Prop30
280
     1
102
RTVSPost2010PropOp30
 70
     0
102
RTVSPost2010Prop31
280
     0
102
RTVSPost2010PropOp31
 70
     0
102
RTVSPost2010Prop32
280
     0
102
RTVSPost2010PropOp32
 70
     0
102
RTVSPost2010Prop33
280
     0
102
RTVSPost2010PropOp33
 70
     0
102
RTVSPost2010Prop34
280
     0
102
RTVSPost2010PropOp34
 70
     0
102
RTVSPost2010Prop35
280
     0
102
RTVSPost2010PropOp35
 70
     0
102
RTVSPost2010Prop36
280
     0
102
RTVSPost2010PropOp36
 70
     0
102
RTVSPost2010Prop37
 90
       50
102
RTVSPost2010PropOp37
 70
     0
102
RTVSPost2010Prop38
140
0.0
102
RTVSPost2010PropOp38
 70
     0
102
RTVSPost2010Prop39
140
1.0
102
RTVSPost2010PropOp39
 70
     0
102
RTVSPost2010Prop40
 90
        0
102
RTVSPost2010PropOp40
 70
     0
102
RTVSPost2010Prop41ColorIndex
 90
       18
102
RTVSPost2010Prop41ColorRGB
 90
        0
102
RTVSPost2010PropOp41
 70
     0
102
RTVSPost2010Prop42
 90
       50
102
RTVSPost2010PropOp42
 70
     0
102
RTVSPost2010Prop43
 90
        3
102
RTVSPost2010PropOp43
 70
     0
102
RTVSPost2010Prop44ColorIndex
 90
        5
102
RTVSPost2010Prop44ColorRGB
 90
      255
102
RTVSPost2010PropOp44
 70
     0
102
RTVSPost2010Prop45
280
     0
102
RTVSPost2010PropOp45
 70
     0
102
RTVSPost2010Prop46
 90
       50
102
RTVSPost2010PropOp46
 70
     0
102
RTVSPost2010Prop47
 90
       50
102
RTVSPost2010PropOp47
 70
     0
102
RTVSPost2010Prop48
 90
       50
102
RTVSPost2010PropOp48
 70
     0
102
RTVSPost2010Prop49
280
     0
102
RTVSPost2010PropOp49
 70
     0
102
RTVSPost2010Prop50
 90
       50
102
RTVSPost2010PropOp50
 70
     0
102
RTVSPost2010Prop51ColorIndex
 90
      256
102
RTVSPost2010Prop51ColorRGB
 90
-16777216
102
RTVSPost2010PropOp51
 70
     0
102
RTVSPost2010Prop52
140
1.0
102
RTVSPost2010PropOp52
 70
     0
102
RTVSPost2010Prop53
 90
        2
102
RTVSPost2010PropOp53
 70
     0
102
RTVSPost2010Prop54
  1
strokes_ogs.tif
102
RTVSPost2010PropOp54
 70
     0
102
RTVSPost2010Prop55
280
     0
102
RTVSPost2010PropOp55
 70
     0
102
RTVSPost2010Prop56
140
1.0
102
RTVSPost2010PropOp56
 70
     0
102
RTVSPost2010Prop57
140
1.0
102
RTVSPost2010PropOp57
 70
     0
102
RTVSPropertyOp0
 70
     0
102
RTVSPropertyOp1
 70
     0
102
RTVSPropertyOp2
 70
     0
102
RTVSPropertyOp3
 70
     0
102
RTVSPropertyOp4
 70
     0
102
RTVSPropertyOp5
 70
     0
102
RTVSPropertyOp6
 70
     0
102
RTVSPropertyOp7
 70
     0
102
RTVSPropertyOp8
 70
     0
102
RTVSPropertyOp9
 70
     0
102
RTVSPropertyOp10
 70
     0
102
RTVSPropertyOp11
 70
     0
102
RTVSPropertyOp12
 70
     0
102
RTVSPropertyOp13
 70
     0
102
RTVSPropertyOp14
 70
     2
102
RTVSPropertyOp15
 70
     0
102
RTVSPropertyOp16
 70
     0
102
RTVSPropertyOp17
 70
     0
102
RTVSPropertyOp18
 70
     0
102
RTVSPropertyOp19
 70
     0
102
RTVSPropertyOp20
 70
     0
102
RTVSPropertyOp21
 70
     0
102
RTVSPropertyOp22
 70
     0
102
RTVSPropertyOp23
 70
     0
102
RTVSPropertyOp24
 70
     0
102
RTVSPropertyOp25
 70
     0
102
RTVSPropertyOp26
 70
     0
102
RTVSPropertyOp27
 70
     0
102
RTVSPropertyOp28
 70
     0
102
RTVSPropertyOp29
 70
     0
102
RTVSPropertyOp30
 70
     0
102
RTVSPropertyOp31
 70
     0
102
RTVSPropertyOp32
 70
     0
102
RTVSPropertyOp33
 70
     0
102
RTVSPropertyOp34
 70
     0
102
RTVSPropertyOp35
 70
     0
102
RTVSPropertyOp36
 70
     0
102
RTVSPropertyOp37
 70
     0
102
RTVSPropertyOp38
 70
     0
102
RTVSPropertyOp39
 70
     0
102
RTVSPropertyOp40
 70
     0
102
RTVSPropertyOp41
 70
     0
102
RTVSPropertyOp42
 70
     0
102
RTVSPropertyOp43
 70
     0
102
RTVSPropertyOp44
 70
     0
102
RTVSPropertyOp45
 70
     0
102
RTVSPropertyOp46
 70
     0
102
RTVSPropertyOp47
 70
     0
102
RTVSPropertyOp48
 70
     0
102
RTVSPropertyOp49
 70
     0
102
RTVSPropertyOp50
 70
     0
102
RTVSPropertyOp51
 70
     0
102
RTVSPropertyOp52
 70
     0
102
RTVSPropertyOp53
 70
     0
102
RTVSPropertyOp54
 70
     0
102
RTVSPropertyOp55
 70
     0
102
RTVSPropertyOp56
 70
     0
102
RTVSPropertyOp57
 70
     0
102
RTVSPropertyOp58
 70
     0
102
RTVSPropertyOp59
 70
     0
102
RTVSPropertyOp60
 70
     0
102
RTVSPropertyOp61
 70
     0
102
RTVSPropertyOp62
 70
     0
  0
XRECORD
  5
162F
102
{ACAD_REACTORS
330
162E
102
}
330
162E
100
AcDbXrecord
280
     1
102
RTVSPost2010Prop28
280
     0
102
RTVSPost2010PropOp28
 70
     1
102
RTVSPost2010Prop29
280
     1
102
RTVSPost2010PropOp29
 70
     1
102
RTVSPost2010Prop30
280
     1
102
RTVSPost2010PropOp30
 70
     1
102
RTVSPost2010Prop31
280
     0
102
RTVSPost2010PropOp31
 70
     1
102
RTVSPost2010Prop32
280
     0
102
RTVSPost2010PropOp32
 70
     1
102
RTVSPost2010Prop33
280
     0
102
RTVSPost2010PropOp33
 70
     1
102
RTVSPost2010Prop34
280
     0
102
RTVSPost2010PropOp34
 70
     1
102
RTVSPost2010Prop35
280
     0
102
RTVSPost2010PropOp35
 70
     1
102
RTVSPost2010Prop36
280
     0
102
RTVSPost2010PropOp36
 70
     1
102
RTVSPost2010Prop37
 90
       50
102
RTVSPost2010PropOp37
 70
     1
102
RTVSPost2010Prop38
140
0.0
102
RTVSPost2010PropOp38
 70
     1
102
RTVSPost2010Prop39
140
1.0
102
RTVSPost2010PropOp39
 70
     1
102
RTVSPost2010Prop40
 90
        0
102
RTVSPost2010PropOp40
 70
     1
102
RTVSPost2010Prop41ColorIndex
 90
       18
102
RTVSPost2010Prop41ColorRGB
 90
        0
102
RTVSPost2010PropOp41
 70
     1
102
RTVSPost2010Prop42
 90
       50
102
RTVSPost2010PropOp42
 70
     1
102
RTVSPost2010Prop43
 90
        3
102
RTVSPost2010PropOp43
 70
     1
102
RTVSPost2010Prop44ColorIndex
 90
        5
102
RTVSPost2010Prop44ColorRGB
 90
      255
102
RTVSPost2010PropOp44
 70
     1
102
RTVSPost2010Prop45
280
     0
102
RTVSPost2010PropOp45
 70
     1
102
RTVSPost2010Prop46
 90
       50
102
RTVSPost2010PropOp46
 70
     1
102
RTVSPost2010Prop47
 90
       50
102
RTVSPost2010PropOp47
 70
     1
102
RTVSPost2010Prop48
 90
       50
102
RTVSPost2010PropOp48
 70
     1
102
RTVSPost2010Prop49
280
     0
102
RTVSPost2010PropOp49
 70
     1
102
RTVSPost2010Prop50
 90
       50
102
RTVSPost2010PropOp50
 70
     1
102
RTVSPost2010Prop51ColorIndex
 90
      256
102
RTVSPost2010Prop51ColorRGB
 90
-16777216
102
RTVSPost2010PropOp51
 70
     0
102
RTVSPost2010Prop52
140
1.0
102
RTVSPost2010PropOp52
 70
     0
102
RTVSPost2010Prop53
 90
        2
102
RTVSPost2010PropOp53
 70
     1
102
RTVSPost2010Prop54
  1
strokes_ogs.tif
102
RTVSPost2010PropOp54
 70
     1
102
RTVSPost2010Prop55
280
     0
102
RTVSPost2010PropOp55
 70
     1
102
RTVSPost2010Prop56
140
1.0
102
RTVSPost2010PropOp56
 70
     1
102
RTVSPost2010Prop57
140
1.0
102
RTVSPost2010PropOp57
 70
     1
102
RTVSPropertyOp0
 70
     1
102
RTVSPropertyOp1
 70
     1
102
RTVSPropertyOp2
 70
     1
102
RTVSPropertyOp3
 70
     1
102
RTVSPropertyOp4
 70
     1
102
RTVSPropertyOp5
 70
     1
102
RTVSPropertyOp6
 70
     1
102
RTVSPropertyOp7
 70
     1
102
RTVSPropertyOp8
 70
     1
102
RTVSPropertyOp9
 70
     1
102
RTVSPropertyOp10
 70
     1
102
RTVSPropertyOp11
 70
     1
102
RTVSPropertyOp12
 70
     1
102
RTVSPropertyOp13
 70
     1
102
RTVSPropertyOp14
 70
     1
102
RTVSPropertyOp15
 70
     1
102
RTVSPropertyOp16
 70
     1
102
RTVSPropertyOp17
 70
     1
102
RTVSPropertyOp18
 70
     1
102
RTVSPropertyOp19
 70
     1
102
RTVSPropertyOp20
 70
     1
102
RTVSPropertyOp21
 70
     1
102
RTVSPropertyOp22
 70
     1
102
RTVSPropertyOp23
 70
     1
102
RTVSPropertyOp24
 70
     1
102
RTVSPropertyOp25
 70
     1
102
RTVSPropertyOp26
 70
     1
102
RTVSPropertyOp27
 70
     1
102
RTVSPropertyOp28
 70
     1
102
RTVSPropertyOp29
 70
     1
102
RTVSPropertyOp30
 70
     1
102
RTVSPropertyOp31
 70
     1
102
RTVSPropertyOp32
 70
     1
102
RTVSPropertyOp33
 70
     1
102
RTVSPropertyOp34
 70
     1
102
RTVSPropertyOp35
 70
     1
102
RTVSPropertyOp36
 70
     1
102
RTVSPropertyOp37
 70
     1
102
RTVSPropertyOp38
 70
     1
102
RTVSPropertyOp39
 70
     1
102
RTVSPropertyOp40
 70
     1
102
RTVSPropertyOp41
 70
     1
102
RTVSPropertyOp42
 70
     1
102
RTVSPropertyOp43
 70
     1
102
RTVSPropertyOp44
 70
     1
102
RTVSPropertyOp45
 70
     1
102
RTVSPropertyOp46
 70
     1
102
RTVSPropertyOp47
 70
     1
102
RTVSPropertyOp48
 70
     1
102
RTVSPropertyOp49
 70
     1
102
RTVSPropertyOp50
 70
     1
102
RTVSPropertyOp51
 70
     0
102
RTVSPropertyOp52
 70
     0
102
RTVSPropertyOp53
 70
     1
102
RTVSPropertyOp54
 70
     1
102
RTVSPropertyOp55
 70
     1
102
RTVSPropertyOp56
 70
     1
102
RTVSPropertyOp57
 70
     1
102
RTVSPropertyOp58
 70
     1
102
RTVSPropertyOp59
 70
     1
102
RTVSPropertyOp60
 70
     1
102
RTVSPropertyOp61
 70
     1
102
RTVSPropertyOp62
 70
     1
  0
XRECORD
  5
164A
102
{ACAD_REACTORS
330
1649
102
}
330
1649
100
AcDbXrecord
280
     1
102
RTVSPost2010Prop28
280
     0
102
RTVSPost2010PropOp28
 70
     1
102
RTVSPost2010Prop29
280
     1
102
RTVSPost2010PropOp29
 70
     1
102
RTVSPost2010Prop30
280
     1
102
RTVSPost2010PropOp30
 70
     1
102
RTVSPost2010Prop31
280
     0
102
RTVSPost2010PropOp31
 70
     1
102
RTVSPost2010Prop32
280
     0
102
RTVSPost2010PropOp32
 70
     1
102
RTVSPost2010Prop33
280
     0
102
RTVSPost2010PropOp33
 70
     1
102
RTVSPost2010Prop34
280
     0
102
RTVSPost2010PropOp34
 70
     1
102
RTVSPost2010Prop35
280
     0
102
RTVSPost2010PropOp35
 70
     1
102
RTVSPost2010Prop36
280
     0
102
RTVSPost2010PropOp36
 70
     1
102
RTVSPost2010Prop37
 90
       50
102
RTVSPost2010PropOp37
 70
     1
102
RTVSPost2010Prop38
140
0.0
102
RTVSPost2010PropOp38
 70
     1
102
RTVSPost2010Prop39
140
1.0
102
RTVSPost2010PropOp39
 70
     1
102
RTVSPost2010Prop40
 90
        0
102
RTVSPost2010PropOp40
 70
     1
102
RTVSPost2010Prop41ColorIndex
 90
       18
102
RTVSPost2010Prop41ColorRGB
 90
        0
102
RTVSPost2010PropOp41
 70
     1
102
RTVSPost2010Prop42
 90
       50
102
RTVSPost2010PropOp42
 70
     1
102
RTVSPost2010Prop43
 90
        3
102
RTVSPost2010PropOp43
 70
     1
102
RTVSPost2010Prop44ColorIndex
 90
        5
102
RTVSPost2010Prop44ColorRGB
 90
      255
102
RTVSPost2010PropOp44
 70
     1
102
RTVSPost2010Prop45
280
     0
102
RTVSPost2010PropOp45
 70
     1
102
RTVSPost2010Prop46
 90
       50
102
RTVSPost2010PropOp46
 70
     1
102
RTVSPost2010Prop47
 90
       50
102
RTVSPost2010PropOp47
 70
     1
102
RTVSPost2010Prop48
 90
       50
102
RTVSPost2010PropOp48
 70
     1
102
RTVSPost2010Prop49
280
     0
102
RTVSPost2010PropOp49
 70
     1
102
RTVSPost2010Prop50
 90
       50
102
RTVSPost2010PropOp50
 70
     1
102
RTVSPost2010Prop51ColorIndex
 90
      256
102
RTVSPost2010Prop51ColorRGB
 90
-16777216
102
RTVSPost2010PropOp51
 70
     0
102
RTVSPost2010Prop52
140
1.0
102
RTVSPost2010PropOp52
 70
     0
102
RTVSPost2010Prop53
 90
        2
102
RTVSPost2010PropOp53
 70
     1
102
RTVSPost2010Prop54
  1
strokes_ogs.tif
102
RTVSPost2010PropOp54
 70
     1
102
RTVSPost2010Prop55
280
     0
102
RTVSPost2010PropOp55
 70
     1
102
RTVSPost2010Prop56
140
1.0
102
RTVSPost2010PropOp56
 70
     1
102
RTVSPost2010Prop57
140
1.0
102
RTVSPost2010PropOp57
 70
     1
102
RTVSPropertyOp0
 70
     1
102
RTVSPropertyOp1
 70
     1
102
RTVSPropertyOp2
 70
     1
102
RTVSPropertyOp3
 70
     1
102
RTVSPropertyOp4
 70
     1
102
RTVSPropertyOp5
 70
     1
102
RTVSPropertyOp6
 70
     1
102
RTVSPropertyOp7
 70
     1
102
RTVSPropertyOp8
 70
     1
102
RTVSPropertyOp9
 70
     1
102
RTVSPropertyOp10
 70
     1
102
RTVSPropertyOp11
 70
     1
102
RTVSPropertyOp12
 70
     1
102
RTVSPropertyOp13
 70
     1
102
RTVSPropertyOp14
 70
     1
102
RTVSPropertyOp15
 70
     1
102
RTVSPropertyOp16
 70
     1
102
RTVSPropertyOp17
 70
     1
102
RTVSPropertyOp18
 70
     1
102
RTVSPropertyOp19
 70
     1
102
RTVSPropertyOp20
 70
     1
102
RTVSPropertyOp21
 70
     1
102
RTVSPropertyOp22
 70
     1
102
RTVSPropertyOp23
 70
     1
102
RTVSPropertyOp24
 70
     1
102
RTVSPropertyOp25
 70
     1
102
RTVSPropertyOp26
 70
     1
102
RTVSPropertyOp27
 70
     1
102
RTVSPropertyOp28
 70
     1
102
RTVSPropertyOp29
 70
     1
102
RTVSPropertyOp30
 70
     1
102
RTVSPropertyOp31
 70
     1
102
RTVSPropertyOp32
 70
     1
102
RTVSPropertyOp33
 70
     1
102
RTVSPropertyOp34
 70
     1
102
RTVSPropertyOp35
 70
     1
102
RTVSPropertyOp36
 70
     1
102
RTVSPropertyOp37
 70
     1
102
RTVSPropertyOp38
 70
     1
102
RTVSPropertyOp39
 70
     1
102
RTVSPropertyOp40
 70
     1
102
RTVSPropertyOp41
 70
     1
102
RTVSPropertyOp42
 70
     1
102
RTVSPropertyOp43
 70
     1
102
RTVSPropertyOp44
 70
     1
102
RTVSPropertyOp45
 70
     1
102
RTVSPropertyOp46
 70
     1
102
RTVSPropertyOp47
 70
     1
102
RTVSPropertyOp48
 70
     1
102
RTVSPropertyOp49
 70
     1
102
RTVSPropertyOp50
 70
     1
102
RTVSPropertyOp51
 70
     0
102
RTVSPropertyOp52
 70
     0
102
RTVSPropertyOp53
 70
     1
102
RTVSPropertyOp54
 70
     1
102
RTVSPropertyOp55
 70
     1
102
RTVSPropertyOp56
 70
     1
102
RTVSPropertyOp57
 70
     1
102
RTVSPropertyOp58
 70
     1
102
RTVSPropertyOp59
 70
     1
102
RTVSPropertyOp60
 70
     1
102
RTVSPropertyOp61
 70
     1
102
RTVSPropertyOp62
 70
     1
  0
XRECORD
  5
1648
102
{ACAD_REACTORS
330
1647
102
}
330
1647
100
AcDbXrecord
280
     1
102
RTVSPost2010Prop28
280
     0
102
RTVSPost2010PropOp28
 70
     1
102
RTVSPost2010Prop29
280
     1
102
RTVSPost2010PropOp29
 70
     1
102
RTVSPost2010Prop30
280
     1
102
RTVSPost2010PropOp30
 70
     1
102
RTVSPost2010Prop31
280
     0
102
RTVSPost2010PropOp31
 70
     1
102
RTVSPost2010Prop32
280
     0
102
RTVSPost2010PropOp32
 70
     1
102
RTVSPost2010Prop33
280
     0
102
RTVSPost2010PropOp33
 70
     1
102
RTVSPost2010Prop34
280
     0
102
RTVSPost2010PropOp34
 70
     1
102
RTVSPost2010Prop35
280
     0
102
RTVSPost2010PropOp35
 70
     1
102
RTVSPost2010Prop36
280
     0
102
RTVSPost2010PropOp36
 70
     1
102
RTVSPost2010Prop37
 90
       50
102
RTVSPost2010PropOp37
 70
     1
102
RTVSPost2010Prop38
140
0.0
102
RTVSPost2010PropOp38
 70
     1
102
RTVSPost2010Prop39
140
1.0
102
RTVSPost2010PropOp39
 70
     1
102
RTVSPost2010Prop40
 90
        0
102
RTVSPost2010PropOp40
 70
     1
102
RTVSPost2010Prop41ColorIndex
 90
       18
102
RTVSPost2010Prop41ColorRGB
 90
        0
102
RTVSPost2010PropOp41
 70
     1
102
RTVSPost2010Prop42
 90
       50
102
RTVSPost2010PropOp42
 70
     1
102
RTVSPost2010Prop43
 90
        3
102
RTVSPost2010PropOp43
 70
     1
102
RTVSPost2010Prop44ColorIndex
 90
        5
102
RTVSPost2010Prop44ColorRGB
 90
      255
102
RTVSPost2010PropOp44
 70
     1
102
RTVSPost2010Prop45
280
     0
102
RTVSPost2010PropOp45
 70
     1
102
RTVSPost2010Prop46
 90
       50
102
RTVSPost2010PropOp46
 70
     1
102
RTVSPost2010Prop47
 90
       50
102
RTVSPost2010PropOp47
 70
     1
102
RTVSPost2010Prop48
 90
       50
102
RTVSPost2010PropOp48
 70
     1
102
RTVSPost2010Prop49
280
     0
102
RTVSPost2010PropOp49
 70
     1
102
RTVSPost2010Prop50
 90
       50
102
RTVSPost2010PropOp50
 70
     1
102
RTVSPost2010Prop51ColorIndex
 90
      256
102
RTVSPost2010Prop51ColorRGB
 90
-16777216
102
RTVSPost2010PropOp51
 70
     0
102
RTVSPost2010Prop52
140
1.0
102
RTVSPost2010PropOp52
 70
     0
102
RTVSPost2010Prop53
 90
        2
102
RTVSPost2010PropOp53
 70
     1
102
RTVSPost2010Prop54
  1
strokes_ogs.tif
102
RTVSPost2010PropOp54
 70
     1
102
RTVSPost2010Prop55
280
     0
102
RTVSPost2010PropOp55
 70
     1
102
RTVSPost2010Prop56
140
1.0
102
RTVSPost2010PropOp56
 70
     1
102
RTVSPost2010Prop57
140
1.0
102
RTVSPost2010PropOp57
 70
     1
102
RTVSPropertyOp0
 70
     1
102
RTVSPropertyOp1
 70
     1
102
RTVSPropertyOp2
 70
     1
102
RTVSPropertyOp3
 70
     1
102
RTVSPropertyOp4
 70
     1
102
RTVSPropertyOp5
 70
     1
102
RTVSPropertyOp6
 70
     1
102
RTVSPropertyOp7
 70
     1
102
RTVSPropertyOp8
 70
     1
102
RTVSPropertyOp9
 70
     1
102
RTVSPropertyOp10
 70
     1
102
RTVSPropertyOp11
 70
     1
102
RTVSPropertyOp12
 70
     1
102
RTVSPropertyOp13
 70
     1
102
RTVSPropertyOp14
 70
     1
102
RTVSPropertyOp15
 70
     1
102
RTVSPropertyOp16
 70
     1
102
RTVSPropertyOp17
 70
     1
102
RTVSPropertyOp18
 70
     1
102
RTVSPropertyOp19
 70
     1
102
RTVSPropertyOp20
 70
     1
102
RTVSPropertyOp21
 70
     1
102
RTVSPropertyOp22
 70
     1
102
RTVSPropertyOp23
 70
     1
102
RTVSPropertyOp24
 70
     1
102
RTVSPropertyOp25
 70
     1
102
RTVSPropertyOp26
 70
     1
102
RTVSPropertyOp27
 70
     1
102
RTVSPropertyOp28
 70
     1
102
RTVSPropertyOp29
 70
     1
102
RTVSPropertyOp30
 70
     1
102
RTVSPropertyOp31
 70
     1
102
RTVSPropertyOp32
 70
     1
102
RTVSPropertyOp33
 70
     1
102
RTVSPropertyOp34
 70
     1
102
RTVSPropertyOp35
 70
     1
102
RTVSPropertyOp36
 70
     1
102
RTVSPropertyOp37
 70
     1
102
RTVSPropertyOp38
 70
     1
102
RTVSPropertyOp39
 70
     1
102
RTVSPropertyOp40
 70
     1
102
RTVSPropertyOp41
 70
     1
102
RTVSPropertyOp42
 70
     1
102
RTVSPropertyOp43
 70
     1
102
RTVSPropertyOp44
 70
     1
102
RTVSPropertyOp45
 70
     1
102
RTVSPropertyOp46
 70
     1
102
RTVSPropertyOp47
 70
     1
102
RTVSPropertyOp48
 70
     1
102
RTVSPropertyOp49
 70
     1
102
RTVSPropertyOp50
 70
     1
102
RTVSPropertyOp51
 70
     0
102
RTVSPropertyOp52
 70
     0
102
RTVSPropertyOp53
 70
     1
102
RTVSPropertyOp54
 70
     1
102
RTVSPropertyOp55
 70
     1
102
RTVSPropertyOp56
 70
     1
102
RTVSPropertyOp57
 70
     1
102
RTVSPropertyOp58
 70
     1
102
RTVSPropertyOp59
 70
     1
102
RTVSPropertyOp60
 70
     1
102
RTVSPropertyOp61
 70
     1
102
RTVSPropertyOp62
 70
     1
  0
XRECORD
  5
1642
102
{ACAD_REACTORS
330
1641
102
}
330
1641
100
AcDbXrecord
280
     1
102
RTVSPost2010Prop28
280
     0
102
RTVSPost2010PropOp28
 70
     1
102
RTVSPost2010Prop29
280
     1
102
RTVSPost2010PropOp29
 70
     1
102
RTVSPost2010Prop30
280
     1
102
RTVSPost2010PropOp30
 70
     1
102
RTVSPost2010Prop31
280
     0
102
RTVSPost2010PropOp31
 70
     1
102
RTVSPost2010Prop32
280
     0
102
RTVSPost2010PropOp32
 70
     1
102
RTVSPost2010Prop33
280
     0
102
RTVSPost2010PropOp33
 70
     1
102
RTVSPost2010Prop34
280
     0
102
RTVSPost2010PropOp34
 70
     1
102
RTVSPost2010Prop35
280
     0
102
RTVSPost2010PropOp35
 70
     1
102
RTVSPost2010Prop36
280
     0
102
RTVSPost2010PropOp36
 70
     1
102
RTVSPost2010Prop37
 90
       50
102
RTVSPost2010PropOp37
 70
     1
102
RTVSPost2010Prop38
140
0.0
102
RTVSPost2010PropOp38
 70
     1
102
RTVSPost2010Prop39
140
1.0
102
RTVSPost2010PropOp39
 70
     1
102
RTVSPost2010Prop40
 90
        0
102
RTVSPost2010PropOp40
 70
     1
102
RTVSPost2010Prop41ColorIndex
 90
       18
102
RTVSPost2010Prop41ColorRGB
 90
        0
102
RTVSPost2010PropOp41
 70
     1
102
RTVSPost2010Prop42
 90
       50
102
RTVSPost2010PropOp42
 70
     1
102
RTVSPost2010Prop43
 90
        3
102
RTVSPost2010PropOp43
 70
     1
102
RTVSPost2010Prop44ColorIndex
 90
        5
102
RTVSPost2010Prop44ColorRGB
 90
      255
102
RTVSPost2010PropOp44
 70
     1
102
RTVSPost2010Prop45
280
     0
102
RTVSPost2010PropOp45
 70
     1
102
RTVSPost2010Prop46
 90
       50
102
RTVSPost2010PropOp46
 70
     1
102
RTVSPost2010Prop47
 90
       50
102
RTVSPost2010PropOp47
 70
     1
102
RTVSPost2010Prop48
 90
       50
102
RTVSPost2010PropOp48
 70
     1
102
RTVSPost2010Prop49
280
     0
102
RTVSPost2010PropOp49
 70
     1
102
RTVSPost2010Prop50
 90
       50
102
RTVSPost2010PropOp50
 70
     1
102
RTVSPost2010Prop51ColorIndex
 90
      256
102
RTVSPost2010Prop51ColorRGB
 90
-16777216
102
RTVSPost2010PropOp51
 70
     0
102
RTVSPost2010Prop52
140
1.0
102
RTVSPost2010PropOp52
 70
     0
102
RTVSPost2010Prop53
 90
        2
102
RTVSPost2010PropOp53
 70
     1
102
RTVSPost2010Prop54
  1
strokes_ogs.tif
102
RTVSPost2010PropOp54
 70
     1
102
RTVSPost2010Prop55
280
     0
102
RTVSPost2010PropOp55
 70
     1
102
RTVSPost2010Prop56
140
1.0
102
RTVSPost2010PropOp56
 70
     1
102
RTVSPost2010Prop57
140
1.0
102
RTVSPost2010PropOp57
 70
     1
102
RTVSPropertyOp0
 70
     1
102
RTVSPropertyOp1
 70
     1
102
RTVSPropertyOp2
 70
     1
102
RTVSPropertyOp3
 70
     1
102
RTVSPropertyOp4
 70
     1
102
RTVSPropertyOp5
 70
     1
102
RTVSPropertyOp6
 70
     1
102
RTVSPropertyOp7
 70
     1
102
RTVSPropertyOp8
 70
     1
102
RTVSPropertyOp9
 70
     1
102
RTVSPropertyOp10
 70
     1
102
RTVSPropertyOp11
 70
     1
102
RTVSPropertyOp12
 70
     1
102
RTVSPropertyOp13
 70
     1
102
RTVSPropertyOp14
 70
     1
102
RTVSPropertyOp15
 70
     1
102
RTVSPropertyOp16
 70
     1
102
RTVSPropertyOp17
 70
     1
102
RTVSPropertyOp18
 70
     1
102
RTVSPropertyOp19
 70
     1
102
RTVSPropertyOp20
 70
     1
102
RTVSPropertyOp21
 70
     1
102
RTVSPropertyOp22
 70
     1
102
RTVSPropertyOp23
 70
     1
102
RTVSPropertyOp24
 70
     1
102
RTVSPropertyOp25
 70
     1
102
RTVSPropertyOp26
 70
     1
102
RTVSPropertyOp27
 70
     1
102
RTVSPropertyOp28
 70
     1
102
RTVSPropertyOp29
 70
     1
102
RTVSPropertyOp30
 70
     1
102
RTVSPropertyOp31
 70
     1
102
RTVSPropertyOp32
 70
     1
102
RTVSPropertyOp33
 70
     1
102
RTVSPropertyOp34
 70
     1
102
RTVSPropertyOp35
 70
     1
102
RTVSPropertyOp36
 70
     1
102
RTVSPropertyOp37
 70
     1
102
RTVSPropertyOp38
 70
     1
102
RTVSPropertyOp39
 70
     1
102
RTVSPropertyOp40
 70
     1
102
RTVSPropertyOp41
 70
     1
102
RTVSPropertyOp42
 70
     1
102
RTVSPropertyOp43
 70
     1
102
RTVSPropertyOp44
 70
     1
102
RTVSPropertyOp45
 70
     1
102
RTVSPropertyOp46
 70
     1
102
RTVSPropertyOp47
 70
     1
102
RTVSPropertyOp48
 70
     1
102
RTVSPropertyOp49
 70
     1
102
RTVSPropertyOp50
 70
     1
102
RTVSPropertyOp51
 70
     0
102
RTVSPropertyOp52
 70
     0
102
RTVSPropertyOp53
 70
     1
102
RTVSPropertyOp54
 70
     1
102
RTVSPropertyOp55
 70
     1
102
RTVSPropertyOp56
 70
     1
102
RTVSPropertyOp57
 70
     1
102
RTVSPropertyOp58
 70
     1
102
RTVSPropertyOp59
 70
     1
102
RTVSPropertyOp60
 70
     1
102
RTVSPropertyOp61
 70
     1
102
RTVSPropertyOp62
 70
     1
  0
XRECORD
  5
1644
102
{ACAD_REACTORS
330
1643
102
}
330
1643
100
AcDbXrecord
280
     1
102
RTVSPost2010Prop28
280
     0
102
RTVSPost2010PropOp28
 70
     1
102
RTVSPost2010Prop29
280
     1
102
RTVSPost2010PropOp29
 70
     1
102
RTVSPost2010Prop30
280
     1
102
RTVSPost2010PropOp30
 70
     1
102
RTVSPost2010Prop31
280
     0
102
RTVSPost2010PropOp31
 70
     1
102
RTVSPost2010Prop32
280
     0
102
RTVSPost2010PropOp32
 70
     1
102
RTVSPost2010Prop33
280
     0
102
RTVSPost2010PropOp33
 70
     1
102
RTVSPost2010Prop34
280
     0
102
RTVSPost2010PropOp34
 70
     1
102
RTVSPost2010Prop35
280
     0
102
RTVSPost2010PropOp35
 70
     1
102
RTVSPost2010Prop36
280
     0
102
RTVSPost2010PropOp36
 70
     1
102
RTVSPost2010Prop37
 90
       50
102
RTVSPost2010PropOp37
 70
     1
102
RTVSPost2010Prop38
140
0.0
102
RTVSPost2010PropOp38
 70
     1
102
RTVSPost2010Prop39
140
1.0
102
RTVSPost2010PropOp39
 70
     1
102
RTVSPost2010Prop40
 90
        0
102
RTVSPost2010PropOp40
 70
     1
102
RTVSPost2010Prop41ColorIndex
 90
       18
102
RTVSPost2010Prop41ColorRGB
 90
        0
102
RTVSPost2010PropOp41
 70
     1
102
RTVSPost2010Prop42
 90
       50
102
RTVSPost2010PropOp42
 70
     1
102
RTVSPost2010Prop43
 90
        3
102
RTVSPost2010PropOp43
 70
     1
102
RTVSPost2010Prop44ColorIndex
 90
        5
102
RTVSPost2010Prop44ColorRGB
 90
      255
102
RTVSPost2010PropOp44
 70
     1
102
RTVSPost2010Prop45
280
     0
102
RTVSPost2010PropOp45
 70
     1
102
RTVSPost2010Prop46
 90
       50
102
RTVSPost2010PropOp46
 70
     1
102
RTVSPost2010Prop47
 90
       50
102
RTVSPost2010PropOp47
 70
     1
102
RTVSPost2010Prop48
 90
       50
102
RTVSPost2010PropOp48
 70
     1
102
RTVSPost2010Prop49
280
     0
102
RTVSPost2010PropOp49
 70
     1
102
RTVSPost2010Prop50
 90
       50
102
RTVSPost2010PropOp50
 70
     1
102
RTVSPost2010Prop51ColorIndex
 90
      256
102
RTVSPost2010Prop51ColorRGB
 90
-16777216
102
RTVSPost2010PropOp51
 70
     0
102
RTVSPost2010Prop52
140
1.0
102
RTVSPost2010PropOp52
 70
     0
102
RTVSPost2010Prop53
 90
        2
102
RTVSPost2010PropOp53
 70
     1
102
RTVSPost2010Prop54
  1
strokes_ogs.tif
102
RTVSPost2010PropOp54
 70
     1
102
RTVSPost2010Prop55
280
     0
102
RTVSPost2010PropOp55
 70
     1
102
RTVSPost2010Prop56
140
1.0
102
RTVSPost2010PropOp56
 70
     1
102
RTVSPost2010Prop57
140
1.0
102
RTVSPost2010PropOp57
 70
     1
102
RTVSPropertyOp0
 70
     1
102
RTVSPropertyOp1
 70
     1
102
RTVSPropertyOp2
 70
     1
102
RTVSPropertyOp3
 70
     1
102
RTVSPropertyOp4
 70
     1
102
RTVSPropertyOp5
 70
     1
102
RTVSPropertyOp6
 70
     1
102
RTVSPropertyOp7
 70
     1
102
RTVSPropertyOp8
 70
     1
102
RTVSPropertyOp9
 70
     1
102
RTVSPropertyOp10
 70
     1
102
RTVSPropertyOp11
 70
     1
102
RTVSPropertyOp12
 70
     1
102
RTVSPropertyOp13
 70
     1
102
RTVSPropertyOp14
 70
     1
102
RTVSPropertyOp15
 70
     1
102
RTVSPropertyOp16
 70
     1
102
RTVSPropertyOp17
 70
     1
102
RTVSPropertyOp18
 70
     1
102
RTVSPropertyOp19
 70
     1
102
RTVSPropertyOp20
 70
     1
102
RTVSPropertyOp21
 70
     1
102
RTVSPropertyOp22
 70
     1
102
RTVSPropertyOp23
 70
     1
102
RTVSPropertyOp24
 70
     1
102
RTVSPropertyOp25
 70
     1
102
RTVSPropertyOp26
 70
     1
102
RTVSPropertyOp27
 70
     1
102
RTVSPropertyOp28
 70
     1
102
RTVSPropertyOp29
 70
     1
102
RTVSPropertyOp30
 70
     1
102
RTVSPropertyOp31
 70
     1
102
RTVSPropertyOp32
 70
     1
102
RTVSPropertyOp33
 70
     1
102
RTVSPropertyOp34
 70
     1
102
RTVSPropertyOp35
 70
     1
102
RTVSPropertyOp36
 70
     1
102
RTVSPropertyOp37
 70
     1
102
RTVSPropertyOp38
 70
     1
102
RTVSPropertyOp39
 70
     1
102
RTVSPropertyOp40
 70
     1
102
RTVSPropertyOp41
 70
     1
102
RTVSPropertyOp42
 70
     1
102
RTVSPropertyOp43
 70
     1
102
RTVSPropertyOp44
 70
     1
102
RTVSPropertyOp45
 70
     1
102
RTVSPropertyOp46
 70
     1
102
RTVSPropertyOp47
 70
     1
102
RTVSPropertyOp48
 70
     1
102
RTVSPropertyOp49
 70
     1
102
RTVSPropertyOp50
 70
     1
102
RTVSPropertyOp51
 70
     0
102
RTVSPropertyOp52
 70
     0
102
RTVSPropertyOp53
 70
     1
102
RTVSPropertyOp54
 70
     1
102
RTVSPropertyOp55
 70
     1
102
RTVSPropertyOp56
 70
     1
102
RTVSPropertyOp57
 70
     1
102
RTVSPropertyOp58
 70
     1
102
RTVSPropertyOp59
 70
     1
102
RTVSPropertyOp60
 70
     1
102
RTVSPropertyOp61
 70
     1
102
RTVSPropertyOp62
 70
     1
  0
XRECORD
  5
1635
102
{ACAD_REACTORS
330
1634
102
}
330
1634
100
AcDbXrecord
280
     1
102
RTVSPost2010Prop28
280
     0
102
RTVSPost2010PropOp28
 70
     1
102
RTVSPost2010Prop29
280
     1
102
RTVSPost2010PropOp29
 70
     1
102
RTVSPost2010Prop30
280
     1
102
RTVSPost2010PropOp30
 70
     1
102
RTVSPost2010Prop31
280
     0
102
RTVSPost2010PropOp31
 70
     1
102
RTVSPost2010Prop32
280
     0
102
RTVSPost2010PropOp32
 70
     1
102
RTVSPost2010Prop33
280
     0
102
RTVSPost2010PropOp33
 70
     1
102
RTVSPost2010Prop34
280
     0
102
RTVSPost2010PropOp34
 70
     1
102
RTVSPost2010Prop35
280
     0
102
RTVSPost2010PropOp35
 70
     1
102
RTVSPost2010Prop36
280
     0
102
RTVSPost2010PropOp36
 70
     1
102
RTVSPost2010Prop37
 90
       50
102
RTVSPost2010PropOp37
 70
     1
102
RTVSPost2010Prop38
140
0.0
102
RTVSPost2010PropOp38
 70
     1
102
RTVSPost2010Prop39
140
1.0
102
RTVSPost2010PropOp39
 70
     1
102
RTVSPost2010Prop40
 90
        0
102
RTVSPost2010PropOp40
 70
     1
102
RTVSPost2010Prop41ColorIndex
 90
       18
102
RTVSPost2010Prop41ColorRGB
 90
        0
102
RTVSPost2010PropOp41
 70
     1
102
RTVSPost2010Prop42
 90
       50
102
RTVSPost2010PropOp42
 70
     1
102
RTVSPost2010Prop43
 90
        3
102
RTVSPost2010PropOp43
 70
     1
102
RTVSPost2010Prop44ColorIndex
 90
        5
102
RTVSPost2010Prop44ColorRGB
 90
      255
102
RTVSPost2010PropOp44
 70
     1
102
RTVSPost2010Prop45
280
     0
102
RTVSPost2010PropOp45
 70
     1
102
RTVSPost2010Prop46
 90
       50
102
RTVSPost2010PropOp46
 70
     1
102
RTVSPost2010Prop47
 90
       50
102
RTVSPost2010PropOp47
 70
     1
102
RTVSPost2010Prop48
 90
       50
102
RTVSPost2010PropOp48
 70
     1
102
RTVSPost2010Prop49
280
     0
102
RTVSPost2010PropOp49
 70
     1
102
RTVSPost2010Prop50
 90
       50
102
RTVSPost2010PropOp50
 70
     1
102
RTVSPost2010Prop51ColorIndex
 90
      256
102
RTVSPost2010Prop51ColorRGB
 90
-16777216
102
RTVSPost2010PropOp51
 70
     0
102
RTVSPost2010Prop52
140
1.0
102
RTVSPost2010PropOp52
 70
     0
102
RTVSPost2010Prop53
 90
        2
102
RTVSPost2010PropOp53
 70
     1
102
RTVSPost2010Prop54
  1
strokes_ogs.tif
102
RTVSPost2010PropOp54
 70
     1
102
RTVSPost2010Prop55
280
     0
102
RTVSPost2010PropOp55
 70
     1
102
RTVSPost2010Prop56
140
1.0
102
RTVSPost2010PropOp56
 70
     1
102
RTVSPost2010Prop57
140
1.0
102
RTVSPost2010PropOp57
 70
     1
102
RTVSPropertyOp0
 70
     1
102
RTVSPropertyOp1
 70
     1
102
RTVSPropertyOp2
 70
     1
102
RTVSPropertyOp3
 70
     1
102
RTVSPropertyOp4
 70
     1
102
RTVSPropertyOp5
 70
     1
102
RTVSPropertyOp6
 70
     1
102
RTVSPropertyOp7
 70
     1
102
RTVSPropertyOp8
 70
     1
102
RTVSPropertyOp9
 70
     1
102
RTVSPropertyOp10
 70
     1
102
RTVSPropertyOp11
 70
     1
102
RTVSPropertyOp12
 70
     1
102
RTVSPropertyOp13
 70
     1
102
RTVSPropertyOp14
 70
     1
102
RTVSPropertyOp15
 70
     1
102
RTVSPropertyOp16
 70
     1
102
RTVSPropertyOp17
 70
     1
102
RTVSPropertyOp18
 70
     1
102
RTVSPropertyOp19
 70
     1
102
RTVSPropertyOp20
 70
     1
102
RTVSPropertyOp21
 70
     1
102
RTVSPropertyOp22
 70
     1
102
RTVSPropertyOp23
 70
     1
102
RTVSPropertyOp24
 70
     1
102
RTVSPropertyOp25
 70
     1
102
RTVSPropertyOp26
 70
     1
102
RTVSPropertyOp27
 70
     1
102
RTVSPropertyOp28
 70
     1
102
RTVSPropertyOp29
 70
     1
102
RTVSPropertyOp30
 70
     1
102
RTVSPropertyOp31
 70
     1
102
RTVSPropertyOp32
 70
     1
102
RTVSPropertyOp33
 70
     1
102
RTVSPropertyOp34
 70
     1
102
RTVSPropertyOp35
 70
     1
102
RTVSPropertyOp36
 70
     1
102
RTVSPropertyOp37
 70
     1
102
RTVSPropertyOp38
 70
     1
102
RTVSPropertyOp39
 70
     1
102
RTVSPropertyOp40
 70
     1
102
RTVSPropertyOp41
 70
     1
102
RTVSPropertyOp42
 70
     1
102
RTVSPropertyOp43
 70
     1
102
RTVSPropertyOp44
 70
     1
102
RTVSPropertyOp45
 70
     1
102
RTVSPropertyOp46
 70
     1
102
RTVSPropertyOp47
 70
     1
102
RTVSPropertyOp48
 70
     1
102
RTVSPropertyOp49
 70
     1
102
RTVSPropertyOp50
 70
     1
102
RTVSPropertyOp51
 70
     0
102
RTVSPropertyOp52
 70
     0
102
RTVSPropertyOp53
 70
     1
102
RTVSPropertyOp54
 70
     1
102
RTVSPropertyOp55
 70
     1
102
RTVSPropertyOp56
 70
     1
102
RTVSPropertyOp57
 70
     1
102
RTVSPropertyOp58
 70
     1
102
RTVSPropertyOp59
 70
     1
102
RTVSPropertyOp60
 70
     1
102
RTVSPropertyOp61
 70
     1
102
RTVSPropertyOp62
 70
     1
  0
XRECORD
  5
163E
102
{ACAD_REACTORS
330
163D
102
}
330
163D
100
AcDbXrecord
280
     1
102
RTVSPost2010Prop28
280
     0
102
RTVSPost2010PropOp28
 70
     1
102
RTVSPost2010Prop29
280
     1
102
RTVSPost2010PropOp29
 70
     1
102
RTVSPost2010Prop30
280
     1
102
RTVSPost2010PropOp30
 70
     1
102
RTVSPost2010Prop31
280
     0
102
RTVSPost2010PropOp31
 70
     1
102
RTVSPost2010Prop32
280
     0
102
RTVSPost2010PropOp32
 70
     1
102
RTVSPost2010Prop33
280
     0
102
RTVSPost2010PropOp33
 70
     1
102
RTVSPost2010Prop34
280
     0
102
RTVSPost2010PropOp34
 70
     1
102
RTVSPost2010Prop35
280
     0
102
RTVSPost2010PropOp35
 70
     1
102
RTVSPost2010Prop36
280
     0
102
RTVSPost2010PropOp36
 70
     1
102
RTVSPost2010Prop37
 90
       50
102
RTVSPost2010PropOp37
 70
     1
102
RTVSPost2010Prop38
140
0.0
102
RTVSPost2010PropOp38
 70
     1
102
RTVSPost2010Prop39
140
1.0
102
RTVSPost2010PropOp39
 70
     1
102
RTVSPost2010Prop40
 90
        0
102
RTVSPost2010PropOp40
 70
     1
102
RTVSPost2010Prop41ColorIndex
 90
       18
102
RTVSPost2010Prop41ColorRGB
 90
        0
102
RTVSPost2010PropOp41
 70
     1
102
RTVSPost2010Prop42
 90
       50
102
RTVSPost2010PropOp42
 70
     1
102
RTVSPost2010Prop43
 90
        3
102
RTVSPost2010PropOp43
 70
     1
102
RTVSPost2010Prop44ColorIndex
 90
        5
102
RTVSPost2010Prop44ColorRGB
 90
      255
102
RTVSPost2010PropOp44
 70
     1
102
RTVSPost2010Prop45
280
     0
102
RTVSPost2010PropOp45
 70
     1
102
RTVSPost2010Prop46
 90
       50
102
RTVSPost2010PropOp46
 70
     1
102
RTVSPost2010Prop47
 90
       50
102
RTVSPost2010PropOp47
 70
     1
102
RTVSPost2010Prop48
 90
       50
102
RTVSPost2010PropOp48
 70
     1
102
RTVSPost2010Prop49
280
     0
102
RTVSPost2010PropOp49
 70
     1
102
RTVSPost2010Prop50
 90
       50
102
RTVSPost2010PropOp50
 70
     1
102
RTVSPost2010Prop51ColorIndex
 90
      256
102
RTVSPost2010Prop51ColorRGB
 90
-16777216
102
RTVSPost2010PropOp51
 70
     0
102
RTVSPost2010Prop52
140
1.0
102
RTVSPost2010PropOp52
 70
     0
102
RTVSPost2010Prop53
 90
        2
102
RTVSPost2010PropOp53
 70
     1
102
RTVSPost2010Prop54
  1
strokes_ogs.tif
102
RTVSPost2010PropOp54
 70
     1
102
RTVSPost2010Prop55
280
     0
102
RTVSPost2010PropOp55
 70
     1
102
RTVSPost2010Prop56
140
1.0
102
RTVSPost2010PropOp56
 70
     1
102
RTVSPost2010Prop57
140
1.0
102
RTVSPost2010PropOp57
 70
     1
102
RTVSPropertyOp0
 70
     1
102
RTVSPropertyOp1
 70
     1
102
RTVSPropertyOp2
 70
     1
102
RTVSPropertyOp3
 70
     1
102
RTVSPropertyOp4
 70
     1
102
RTVSPropertyOp5
 70
     1
102
RTVSPropertyOp6
 70
     1
102
RTVSPropertyOp7
 70
     1
102
RTVSPropertyOp8
 70
     1
102
RTVSPropertyOp9
 70
     1
102
RTVSPropertyOp10
 70
     1
102
RTVSPropertyOp11
 70
     1
102
RTVSPropertyOp12
 70
     1
102
RTVSPropertyOp13
 70
     1
102
RTVSPropertyOp14
 70
     1
102
RTVSPropertyOp15
 70
     1
102
RTVSPropertyOp16
 70
     1
102
RTVSPropertyOp17
 70
     1
102
RTVSPropertyOp18
 70
     1
102
RTVSPropertyOp19
 70
     1
102
RTVSPropertyOp20
 70
     1
102
RTVSPropertyOp21
 70
     1
102
RTVSPropertyOp22
 70
     1
102
RTVSPropertyOp23
 70
     1
102
RTVSPropertyOp24
 70
     1
102
RTVSPropertyOp25
 70
     1
102
RTVSPropertyOp26
 70
     1
102
RTVSPropertyOp27
 70
     1
102
RTVSPropertyOp28
 70
     1
102
RTVSPropertyOp29
 70
     1
102
RTVSPropertyOp30
 70
     1
102
RTVSPropertyOp31
 70
     1
102
RTVSPropertyOp32
 70
     1
102
RTVSPropertyOp33
 70
     1
102
RTVSPropertyOp34
 70
     1
102
RTVSPropertyOp35
 70
     1
102
RTVSPropertyOp36
 70
     1
102
RTVSPropertyOp37
 70
     1
102
RTVSPropertyOp38
 70
     1
102
RTVSPropertyOp39
 70
     1
102
RTVSPropertyOp40
 70
     1
102
RTVSPropertyOp41
 70
     1
102
RTVSPropertyOp42
 70
     1
102
RTVSPropertyOp43
 70
     1
102
RTVSPropertyOp44
 70
     1
102
RTVSPropertyOp45
 70
     1
102
RTVSPropertyOp46
 70
     1
102
RTVSPropertyOp47
 70
     1
102
RTVSPropertyOp48
 70
     1
102
RTVSPropertyOp49
 70
     1
102
RTVSPropertyOp50
 70
     1
102
RTVSPropertyOp51
 70
     0
102
RTVSPropertyOp52
 70
     0
102
RTVSPropertyOp53
 70
     1
102
RTVSPropertyOp54
 70
     1
102
RTVSPropertyOp55
 70
     1
102
RTVSPropertyOp56
 70
     1
102
RTVSPropertyOp57
 70
     1
102
RTVSPropertyOp58
 70
     1
102
RTVSPropertyOp59
 70
     1
102
RTVSPropertyOp60
 70
     1
102
RTVSPropertyOp61
 70
     1
102
RTVSPropertyOp62
 70
     1
  0
XRECORD
  5
1646
102
{ACAD_REACTORS
330
1645
102
}
330
1645
100
AcDbXrecord
280
     1
102
RTVSPost2010Prop28
280
     0
102
RTVSPost2010PropOp28
 70
     1
102
RTVSPost2010Prop29
280
     1
102
RTVSPost2010PropOp29
 70
     1
102
RTVSPost2010Prop30
280
     1
102
RTVSPost2010PropOp30
 70
     1
102
RTVSPost2010Prop31
280
     0
102
RTVSPost2010PropOp31
 70
     1
102
RTVSPost2010Prop32
280
     0
102
RTVSPost2010PropOp32
 70
     1
102
RTVSPost2010Prop33
280
     0
102
RTVSPost2010PropOp33
 70
     1
102
RTVSPost2010Prop34
280
     0
102
RTVSPost2010PropOp34
 70
     1
102
RTVSPost2010Prop35
280
     0
102
RTVSPost2010PropOp35
 70
     1
102
RTVSPost2010Prop36
280
     0
102
RTVSPost2010PropOp36
 70
     1
102
RTVSPost2010Prop37
 90
       50
102
RTVSPost2010PropOp37
 70
     1
102
RTVSPost2010Prop38
140
0.0
102
RTVSPost2010PropOp38
 70
     1
102
RTVSPost2010Prop39
140
1.0
102
RTVSPost2010PropOp39
 70
     1
102
RTVSPost2010Prop40
 90
        0
102
RTVSPost2010PropOp40
 70
     1
102
RTVSPost2010Prop41ColorIndex
 90
       18
102
RTVSPost2010Prop41ColorRGB
 90
        0
102
RTVSPost2010PropOp41
 70
     1
102
RTVSPost2010Prop42
 90
       50
102
RTVSPost2010PropOp42
 70
     1
102
RTVSPost2010Prop43
 90
        3
102
RTVSPost2010PropOp43
 70
     1
102
RTVSPost2010Prop44ColorIndex
 90
        5
102
RTVSPost2010Prop44ColorRGB
 90
      255
102
RTVSPost2010PropOp44
 70
     1
102
RTVSPost2010Prop45
280
     0
102
RTVSPost2010PropOp45
 70
     1
102
RTVSPost2010Prop46
 90
       50
102
RTVSPost2010PropOp46
 70
     1
102
RTVSPost2010Prop47
 90
       50
102
RTVSPost2010PropOp47
 70
     1
102
RTVSPost2010Prop48
 90
       50
102
RTVSPost2010PropOp48
 70
     1
102
RTVSPost2010Prop49
280
     0
102
RTVSPost2010PropOp49
 70
     1
102
RTVSPost2010Prop50
 90
       50
102
RTVSPost2010PropOp50
 70
     1
102
RTVSPost2010Prop51ColorIndex
 90
      256
102
RTVSPost2010Prop51ColorRGB
 90
-16777216
102
RTVSPost2010PropOp51
 70
     0
102
RTVSPost2010Prop52
140
1.0
102
RTVSPost2010PropOp52
 70
     0
102
RTVSPost2010Prop53
 90
        2
102
RTVSPost2010PropOp53
 70
     1
102
RTVSPost2010Prop54
  1
strokes_ogs.tif
102
RTVSPost2010PropOp54
 70
     1
102
RTVSPost2010Prop55
280
     0
102
RTVSPost2010PropOp55
 70
     1
102
RTVSPost2010Prop56
140
1.0
102
RTVSPost2010PropOp56
 70
     1
102
RTVSPost2010Prop57
140
1.0
102
RTVSPost2010PropOp57
 70
     1
102
RTVSPropertyOp0
 70
     1
102
RTVSPropertyOp1
 70
     1
102
RTVSPropertyOp2
 70
     1
102
RTVSPropertyOp3
 70
     1
102
RTVSPropertyOp4
 70
     1
102
RTVSPropertyOp5
 70
     1
102
RTVSPropertyOp6
 70
     1
102
RTVSPropertyOp7
 70
     1
102
RTVSPropertyOp8
 70
     1
102
RTVSPropertyOp9
 70
     1
102
RTVSPropertyOp10
 70
     1
102
RTVSPropertyOp11
 70
     1
102
RTVSPropertyOp12
 70
     1
102
RTVSPropertyOp13
 70
     1
102
RTVSPropertyOp14
 70
     1
102
RTVSPropertyOp15
 70
     1
102
RTVSPropertyOp16
 70
     1
102
RTVSPropertyOp17
 70
     1
102
RTVSPropertyOp18
 70
     1
102
RTVSPropertyOp19
 70
     1
102
RTVSPropertyOp20
 70
     1
102
RTVSPropertyOp21
 70
     1
102
RTVSPropertyOp22
 70
     1
102
RTVSPropertyOp23
 70
     1
102
RTVSPropertyOp24
 70
     1
102
RTVSPropertyOp25
 70
     1
102
RTVSPropertyOp26
 70
     1
102
RTVSPropertyOp27
 70
     1
102
RTVSPropertyOp28
 70
     1
102
RTVSPropertyOp29
 70
     1
102
RTVSPropertyOp30
 70
     1
102
RTVSPropertyOp31
 70
     1
102
RTVSPropertyOp32
 70
     1
102
RTVSPropertyOp33
 70
     1
102
RTVSPropertyOp34
 70
     1
102
RTVSPropertyOp35
 70
     1
102
RTVSPropertyOp36
 70
     1
102
RTVSPropertyOp37
 70
     1
102
RTVSPropertyOp38
 70
     1
102
RTVSPropertyOp39
 70
     1
102
RTVSPropertyOp40
 70
     1
102
RTVSPropertyOp41
 70
     1
102
RTVSPropertyOp42
 70
     1
102
RTVSPropertyOp43
 70
     1
102
RTVSPropertyOp44
 70
     1
102
RTVSPropertyOp45
 70
     1
102
RTVSPropertyOp46
 70
     1
102
RTVSPropertyOp47
 70
     1
102
RTVSPropertyOp48
 70
     1
102
RTVSPropertyOp49
 70
     1
102
RTVSPropertyOp50
 70
     1
102
RTVSPropertyOp51
 70
     0
102
RTVSPropertyOp52
 70
     0
102
RTVSPropertyOp53
 70
     1
102
RTVSPropertyOp54
 70
     1
102
RTVSPropertyOp55
 70
     1
102
RTVSPropertyOp56
 70
     1
102
RTVSPropertyOp57
 70
     1
102
RTVSPropertyOp58
 70
     1
102
RTVSPropertyOp59
 70
     1
102
RTVSPropertyOp60
 70
     1
102
RTVSPropertyOp61
 70
     1
102
RTVSPropertyOp62
 70
     1
  0
ENDSEC
  0
EOF
