  0
SECTION
  2
HEADER
  9
$ACADVER
  1
AC1018
  9
$ACADMAINTVER
 70
   104
  9
$DWGCODEPAGE
  3
ANSI_1252
  9
$LASTSAVEDBY
  1
Dennis
  9
$INSBASE
 10
0.0
 20
0.0
 30
0.0
  9
$EXTMIN
 10
3347.965359110538
 20
42191.64343403013
 30
-0.0015258207003583
  9
$EXTMAX
 10
3728.860330690006
 20
42745.0368002247
 30
0.0000000349246037
  9
$LIMMIN
 10
7745.235280411311
 20
45170.57018819427
  9
$LIMMAX
 10
8688.370072504804
 20
45763.99103806643
  9
$ORTHOMODE
 70
     0
  9
$REGENMODE
 70
     1
  9
$FILLMODE
 70
     1
  9
$QTEXTMODE
 70
     0
  9
$MIRRTEXT
 70
     0
  9
$LTSCALE
 40
5.0
  9
$ATTMODE
 70
     1
  9
$TEXTSIZE
 40
5.0
  9
$TRACEWID
 40
300.0
  9
$TEXTSTYLE
  7
2
  9
$CLAYER
  8
Text
  9
$CELTYPE
  6
BYLAYER
  9
$CECOLOR
 62
   256
  9
$CELTSCALE
 40
1.0
  9
$DISPSILH
 70
     0
  9
$DIMSCALE
 40
1.0
  9
$DIMASZ
 40
3.0
  9
$DIMEXO
 40
1.0
  9
$DIMDLI
 40
1.0
  9
$DIMRND
 40
0.0
  9
$DIMDLE
 40
0.0
  9
$DIMEXE
 40
1.0
  9
$DIMTP
 40
0.0
  9
$DIMTM
 40
0.0
  9
$DIMTXT
 40
2.5
  9
$DIMCEN
 40
0.09
  9
$DIMTSZ
 40
0.0
  9
$DIMTOL
 70
     0
  9
$DIMLIM
 70
     0
  9
$DIMTIH
 70
     0
  9
$DIMTOH
 70
     0
  9
$DIMSE1
 70
     0
  9
$DIMSE2
 70
     0
  9
$DIMTAD
 70
     1
  9
$DIMZIN
 70
     0
  9
$DIMBLK
  1

  9
$DIMASO
 70
     1
  9
$DIMSHO
 70
     1
  9
$DIMPOST
  1

  9
$DIMAPOST
  1

  9
$DIMALT
 70
     0
  9
$DIMALTD
 70
     2
  9
$DIMALTF
 40
25.4
  9
$DIMLFAC
 40
1.0
  9
$DIMTOFL
 70
     0
  9
$DIMTVP
 40
0.0
  9
$DIMTIX
 70
     0
  9
$DIMSOXD
 70
     0
  9
$DIMSAH
 70
     0
  9
$DIMBLK1
  1

  9
$DIMBLK2
  1

  9
$DIMSTYLE
  2
STANDARD
  9
$DIMCLRD
 70
     7
  9
$DIMCLRE
 70
     7
  9
$DIMCLRT
 70
     0
  9
$DIMTFAC
 40
1.0
  9
$DIMGAP
 40
1.0
  9
$DIMJUST
 70
     0
  9
$DIMSD1
 70
     0
  9
$DIMSD2
 70
     0
  9
$DIMTOLJ
 70
     1
  9
$DIMTZIN
 70
     0
  9
$DIMALTZ
 70
     0
  9
$DIMALTTZ
 70
     0
  9
$DIMUPT
 70
     0
  9
$DIMDEC
 70
     0
  9
$DIMTDEC
 70
     0
  9
$DIMALTU
 70
     2
  9
$DIMALTTD
 70
     2
  9
$DIMTXSTY
  7
1
  9
$DIMAUNIT
 70
     0
  9
$DIMADEC
 70
     0
  9
$DIMALTRND
 40
0.0
  9
$DIMAZIN
 70
     0
  9
$DIMDSEP
 70
    46
  9
$DIMATFIT
 70
     3
  9
$DIMFRAC
 70
     0
  9
$DIMLDRBLK
  1

  9
$DIMLUNIT
 70
     2
  9
$DIMLWD
 70
    -2
  9
$DIMLWE
 70
    -2
  9
$DIMTMOVE
 70
     0
  9
$LUNITS
 70
     2
  9
$LUPREC
 70
     1
  9
$SKETCHINC
 40
100.0
  9
$FILLETRAD
 40
0.0
  9
$AUNITS
 70
     0
  9
$AUPREC
 70
     1
  9
$MENU
  1
ACAD
  9
$ELEVATION
 40
0.0
  9
$PELEVATION
 40
0.0
  9
$THICKNESS
 40
0.0
  9
$LIMCHECK
 70
     0
  9
$CHAMFERA
 40
0.0
  9
$CHAMFERB
 40
0.0
  9
$CHAMFERC
 40
0.0
  9
$CHAMFERD
 40
0.0
  9
$SKPOLY
 70
     1
  9
$TDCREATE
 40
2452452.799518588
  9
$TDUCREATE
 40
2452452.257851922
  9
$TDUPDATE
 40
2457479.570618414
  9
$TDUUPDATE
 40
2457479.028951748
  9
$TDINDWG
 40
1.2688731944
  9
$TDUSRTIMER
 40
1.2688731944
  9
$USRTIMER
 70
     1
  9
$ANGBASE
 50
0.0
  9
$ANGDIR
 70
     0
  9
$PDMODE
 70
     0
  9
$PDSIZE
 40
10.0
  9
$PLINEWID
 40
0.0
  9
$SPLFRAME
 70
     0
  9
$SPLINETYPE
 70
     6
  9
$SPLINESEGS
 70
     8
  9
$HANDSEED
  5
8033
  9
$SURFTAB1
 70
     9
  9
$SURFTAB2
 70
     6
  9
$SURFTYPE
 70
     6
  9
$SURFU
 70
     6
  9
$SURFV
 70
     6
  9
$UCSBASE
  2

  9
$UCSNAME
  2

  9
$UCSORG
 10
0.0
 20
0.0
 30
0.0
  9
$UCSXDIR
 10
1.0
 20
0.0
 30
0.0
  9
$UCSYDIR
 10
0.0
 20
1.0
 30
0.0
  9
$UCSORTHOREF
  2

  9
$UCSORTHOVIEW
 70
     0
  9
$UCSORGTOP
 10
0.0
 20
0.0
 30
0.0
  9
$UCSORGBOTTOM
 10
0.0
 20
0.0
 30
0.0
  9
$UCSORGLEFT
 10
0.0
 20
0.0
 30
0.0
  9
$UCSORGRIGHT
 10
0.0
 20
0.0
 30
0.0
  9
$UCSORGFRONT
 10
0.0
 20
0.0
 30
0.0
  9
$UCSORGBACK
 10
0.0
 20
0.0
 30
0.0
  9
$PUCSBASE
  2

  9
$PUCSNAME
  2

  9
$PUCSORG
 10
0.0
 20
0.0
 30
0.0
  9
$PUCSXDIR
 10
1.0
 20
0.0
 30
0.0
  9
$PUCSYDIR
 10
0.0
 20
1.0
 30
0.0
  9
$PUCSORTHOREF
  2

  9
$PUCSORTHOVIEW
 70
     0
  9
$PUCSORGTOP
 10
0.0
 20
0.0
 30
0.0
  9
$PUCSORGBOTTOM
 10
0.0
 20
0.0
 30
0.0
  9
$PUCSORGLEFT
 10
0.0
 20
0.0
 30
0.0
  9
$PUCSORGRIGHT
 10
0.0
 20
0.0
 30
0.0
  9
$PUCSORGFRONT
 10
0.0
 20
0.0
 30
0.0
  9
$PUCSORGBACK
 10
0.0
 20
0.0
 30
0.0
  9
$USERI1
 70
    11
  9
$USERI2
 70
   110
  9
$USERI3
 70
     1
  9
$USERI4
 70
   250
  9
$USERI5
 70
   280
  9
$USERR1
 40
100.0
  9
$USERR2
 40
450.0
  9
$USERR3
 40
1.0
  9
$USERR4
 40
0.0
  9
$USERR5
 40
0.0
  9
$WORLDVIEW
 70
     0
  9
$SHADEDGE
 70
     3
  9
$SHADEDIF
 70
    70
  9
$TILEMODE
 70
     1
  9
$MAXACTVP
 70
    16
  9
$PINSBASE
 10
0.0
 20
0.0
 30
0.0
  9
$PLIMCHECK
 70
     0
  9
$PEXTMIN
 10
-9.858442879548192
 20
409.6180983502865
 30
0.0
  9
$PEXTMAX
 10
181.4438427307965
 20
686.221153824377
 30
0.0
  9
$PLIMMIN
 10
-21.31373901966532
 20
398.1466391030053
  9
$PLIMMAX
 10
188.6595886170535
 20
695.1784689369897
  9
$UNITMODE
 70
     0
  9
$VISRETAIN
 70
     0
  9
$PLINEGEN
 70
     0
  9
$PSLTSCALE
 70
     0
  9
$TREEDEPTH
 70
     0
  9
$CMLSTYLE
  2
STANDARD
  9
$CMLJUST
 70
     0
  9
$CMLSCALE
 40
1.0
  9
$PROXYGRAPHICS
 70
     1
  9
$MEASUREMENT
 70
     0
  9
$CELWEIGHT
370
    -1
  9
$ENDCAPS
280
     0
  9
$JOINSTYLE
280
     0
  9
$LWDISPLAY
290
     1
  9
$INSUNITS
 70
     0
  9
$HYPERLINKBASE
  1

  9
$STYLESHEET
  1
Hebel monochrome.ctb
  9
$XEDIT
290
     1
  9
$CEPSNTYPE
380
     0
  9
$PSTYLEMODE
290
     1
  9
$FINGERPRINTGUID
  2
{563ABA43-34A0-4C26-9C44-B165A630EF25}
  9
$VERSIONGUID
  2
{F6B05EA2-71AE-4774-852A-129762CE9974}
  9
$EXTNAMES
290
     1
  9
$PSVPSCALE
 40
0.0
  9
$OLESTARTUP
290
     0
  9
$SORTENTS
280
   127
  9
$INDEXCTL
280
     0
  9
$HIDETEXT
280
     0
  9
$XCLIPFRAME
290
     0
  9
$HALOGAP
280
     0
  9
$OBSCOLOR
 70
   257
  9
$OBSLTYPE
280
     0
  9
$INTERSECTIONDISPLAY
280
     0
  9
$INTERSECTIONCOLOR
 70
   257
  9
$DIMASSOC
280
     2
  9
$PROJECTNAME
  1

  0
ENDSEC
  0
SECTION
  2
CLASSES
  0
CLASS
  1
DICTIONARYVAR
  2
AcDbDictionaryVar
  3
ObjectDBX Classes
 90
        0
 91
       10
280
     0
281
     0
  0
CLASS
  1
RASTERVARIABLES
  2
AcDbRasterVariables
  3
ISM
 90
        0
 91
        1
280
     0
281
     0
  0
CLASS
  1
ACDBDICTIONARYWDFLT
  2
AcDbDictionaryWithDefault
  3
ObjectDBX Classes
 90
        0
 91
        1
280
     0
281
     0
  0
CLASS
  1
DIMASSOC
  2
AcDbDimAssoc
  3
"AcDbDimAssoc|Product Desc:     AcDim ARX App For Dimension|Company:          Autodesk, Inc.|WEB Address:      www.autodesk.com"
 90
        0
 91
        0
280
     0
281
     0
  0
CLASS
  1
MATERIAL
  2
AcDbMaterial
  3
ObjectDBX Classes
 90
     1153
 91
        3
280
     0
281
     0
  0
CLASS
  1
VISUALSTYLE
  2
AcDbVisualStyle
  3
ObjectDBX Classes
 90
     4095
 91
       26
280
     0
281
     0
  0
CLASS
  1
TABLESTYLE
  2
AcDbTableStyle
  3
ObjectDBX Classes
 90
     4095
 91
        1
280
     0
281
     0
  0
CLASS
  1
SCALE
  2
AcDbScale
  3
ObjectDBX Classes
 90
     1153
 91
       33
280
     0
281
     0
  0
CLASS
  1
MLEADERSTYLE
  2
AcDbMLeaderStyle
  3
ACDB_MLEADERSTYLE_CLASS
 90
     4095
 91
        1
280
     0
281
     0
  0
CLASS
  1
EXACXREFPANELOBJECT
  2
ExAcXREFPanelObject
  3
EXAC_ESW
 90
     1025
 91
        1
280
     0
281
     0
  0
CLASS
  1
NPOCOLLECTION
  2
AcDbImpNonPersistentObjectsCollection
  3
ObjectDBX Classes
 90
     1153
 91
        1
280
     0
281
     0
  0
CLASS
  1
CELLSTYLEMAP
  2
AcDbCellStyleMap
  3
ObjectDBX Classes
 90
     1152
 91
        3
280
     0
281
     0
  0
CLASS
  1
IMAGE
  2
AcDbRasterImage
  3
ISM
 90
     2175
 91
        4
280
     0
281
     1
  0
CLASS
  1
IMAGEDEF_REACTOR
  2
AcDbRasterImageDefReactor
  3
ISM
 90
        1
 91
        4
280
     0
281
     0
  0
CLASS
  1
SORTENTSTABLE
  2
AcDbSortentsTable
  3
ObjectDBX Classes
 90
        0
 91
        5
280
     0
281
     0
  0
CLASS
  1
IMAGEDEF
  2
AcDbRasterImageDef
  3
ISM
 90
        0
 91
        4
280
     0
281
     0
  0
CLASS
  1
AEC_REFEDIT_STATUS_TRACKER
  2
AecDbRefEditStatusTracker
  3
AecArchBase50|Product Desc: Autodesk Architectural Desktop 2007 |Company: Autodesk,Inc. |WEB Address: www.autodesk.com
 90
      129
 91
        0
280
     0
281
     0
  0
CLASS
  1
PLOTSETTINGS
  2
AcDbPlotSettings
  3
ObjectDBX Classes
 90
        0
 91
        1
280
     0
281
     0
  0
CLASS
  1
ACDBSECTIONVIEWSTYLE
  2
AcDbSectionViewStyle
  3
ObjectDBX Classes
 90
     1025
 91
        1
280
     0
281
     0
  0
CLASS
  1
ACDBDETAILVIEWSTYLE
  2
AcDbDetailViewStyle
  3
ObjectDBX Classes
 90
     1025
 91
        1
280
     0
281
     0
  0
ENDSEC
  0
SECTION
  2
TABLES
  0
TABLE
  2
VPORT
  5
55B
102
{ACAD_XDICTIONARY
360
2FC5
102
}
330
0
100
AcDbSymbolTable
 70
     1
  0
VPORT
  5
2F34
330
55B
100
AcDbSymbolTableRecord
100
AcDbViewportTableRecord
  2
*Active
 70
     0
 10
0.0
 20
0.0
 11
1.0
 21
1.0
 12
-19649.12931746194
 22
8400.398833710763
 13
0.0
 23
0.0
 14
1.0
 24
1.0
 15
1900.0
 25
1900.0
 16
0.0
 26
0.0
 36
1.0
 17
23187.54216236222
 27
34067.94128341666
 37
1200.0
 40
557.6690059491523
 41
1.500641848523748
 42
50.0
 43
0.0
 44
0.0
 50
0.0
 51
0.0
 71
     0
 72
 20000
 73
     1
 74
     0
 75
     0
 76
     0
 77
     0
 78
     1
281
     0
 65
     1
110
0.0
120
0.0
130
0.0
111
1.0
121
0.0
131
0.0
112
0.0
122
1.0
132
0.0
 79
     0
146
0.0
1001
ACAD_NAV_VCDISPLAY
1070
     3
  0
ENDTAB
  0
TABLE
  2
LTYPE
  5
556
330
0
100
AcDbSymbolTable
 70
     5
  0
LTYPE
  5
557
330
556
100
AcDbSymbolTableRecord
100
AcDbLinetypeTableRecord
  2
BYBLOCK
 70
     0
  3

 72
    65
 73
     0
 40
0.0
  0
LTYPE
  5
558
330
556
100
AcDbSymbolTableRecord
100
AcDbLinetypeTableRecord
  2
BYLAYER
 70
     0
  3

 72
    65
 73
     0
 40
0.0
  0
LTYPE
  5
5
330
556
100
AcDbSymbolTableRecord
100
AcDbLinetypeTableRecord
  2
CONTINUOUS
 70
     0
  3
Solid line
 72
    65
 73
     0
 40
0.0
  0
LTYPE
  5
7C2F
330
556
100
AcDbSymbolTableRecord
100
AcDbLinetypeTableRecord
  2
PHANTOM2
 70
     0
  3
Phantom (.5x) ___ _ _ ___ _ _ ___ _ _ ___ _ _
 72
    65
 73
     6
 40
1.25
 49
0.625
 74
     0
 49
-0.125
 74
     0
 49
0.125
 74
     0
 49
-0.125
 74
     0
 49
0.125
 74
     0
 49
-0.125
 74
     0
  0
ENDTAB
  0
TABLE
  2
LAYER
  5
553
102
{ACAD_XDICTIONARY
360
2C65
102
}
330
0
100
AcDbSymbolTable
 70
    16
  0
LAYER
  5
24
102
{ACAD_XDICTIONARY
360
2F90
102
}
330
553
100
AcDbSymbolTableRecord
100
AcDbLayerTableRecord
  2
0
 70
     0
 62
     7
  6
CONTINUOUS
370
    -3
390
58B
  0
LAYER
  5
2F
330
553
100
AcDbSymbolTableRecord
100
AcDbLayerTableRecord
  2
DEFPOINTS
 70
     0
 62
   210
  6
CONTINUOUS
290
     0
370
    -3
390
58B
  0
LAYER
  5
2FEE
330
553
100
AcDbSymbolTableRecord
100
AcDbLayerTableRecord
  2
Border
 70
     0
 62
     7
  6
CONTINUOUS
370
    -3
390
58B
1001
AcAecLayerStandard
1000

1000

  0
LAYER
  5
2FF6
102
{ACAD_XDICTIONARY
360
2FF7
102
}
330
553
100
AcDbSymbolTableRecord
100
AcDbLayerTableRecord
  2
3
 70
     0
 62
     2
  6
CONTINUOUS
370
    -3
390
58B
  0
LAYER
  5
2FF8
102
{ACAD_XDICTIONARY
360
2FF9
102
}
330
553
100
AcDbSymbolTableRecord
100
AcDbLayerTableRecord
  2
Title block
 70
     0
 62
     7
  6
CONTINUOUS
370
    50
390
58B
  0
LAYER
  5
30A7
330
553
100
AcDbSymbolTableRecord
100
AcDbLayerTableRecord
  2
Text
 70
     0
 62
     7
  6
CONTINUOUS
370
    -3
390
58B
1001
AcAecLayerStandard
1000

1000

  0
LAYER
  5
3774
330
553
100
AcDbSymbolTableRecord
100
AcDbLayerTableRecord
  2
Hatch
 70
     0
 62
     2
  6
CONTINUOUS
370
    20
390
58B
1001
AcAecLayerStandard
1000

1000

  0
LAYER
  5
37C0
102
{ACAD_XDICTIONARY
360
37C1
102
}
330
553
100
AcDbSymbolTableRecord
100
AcDbLayerTableRecord
  2
Fastenings and sealants
 70
     0
 62
     4
  6
CONTINUOUS
370
    13
390
58B
  0
LAYER
  5
4EC4
330
553
100
AcDbSymbolTableRecord
100
AcDbLayerTableRecord
  2
Steel
 70
     0
 62
   240
  6
CONTINUOUS
370
    35
390
58B
1001
AcAecLayerStandard
1000

1000

  0
LAYER
  5
4FC4
330
553
100
AcDbSymbolTableRecord
100
AcDbLayerTableRecord
  2
Lining
 70
     0
 62
    93
  6
CONTINUOUS
370
    35
390
58B
1001
AcAecLayerStandard
1000

1000

  0
LAYER
  5
4FC6
330
553
100
AcDbSymbolTableRecord
100
AcDbLayerTableRecord
  2
Insulation
 70
     0
 62
     6
  6
CONTINUOUS
370
    20
390
58B
1001
AcAecLayerStandard
1000

1000

  0
LAYER
  5
73BF
330
553
100
AcDbSymbolTableRecord
100
AcDbLayerTableRecord
  2
Electrics
 70
     0
 62
     5
  6
CONTINUOUS
370
    20
390
58B
1001
AcAecLayerStandard
1000

1000

  0
LAYER
  5
7EF6
102
{ACAD_XDICTIONARY
360
7EF7
102
}
330
553
100
AcDbSymbolTableRecord
100
AcDbLayerTableRecord
  2
Supercrete
 70
     0
 62
     7
  6
CONTINUOUS
370
    40
390
58B
  0
ENDTAB
  0
TABLE
  2
STYLE
  5
554
330
0
100
AcDbSymbolTable
 70
    12
  0
STYLE
  5
555
330
554
100
AcDbSymbolTableRecord
100
AcDbTextStyleTableRecord
  2
STANDARD
 70
     0
 40
0.0
 41
1.0
 50
0.0
 71
     0
 42
150.0
  3
times.ttf
  4

1001
ACAD
1000
Times New Roman
1071
       18
  0
STYLE
  5
6
330
554
100
AcDbSymbolTableRecord
100
AcDbTextStyleTableRecord
  2
ROMANS
 70
     0
 40
0.0
 41
1.0
 50
0.0
 71
     0
 42
100.0
  3
romans.shx
  4

  0
STYLE
  5
2FFB
330
554
100
AcDbSymbolTableRecord
100
AcDbTextStyleTableRecord
  2
Title block
 70
     0
 40
2.5
 41
1.0
 50
0.0
 71
     0
 42
2.5
  3
times.ttf
  4

1001
ACAD
1000
Times New Roman
1071
       18
  0
STYLE
  5
30E8
330
554
100
AcDbSymbolTableRecord
100
AcDbTextStyleTableRecord
  2
1
 70
     0
 40
2.5
 41
1.0
 50
0.0
 71
     0
 42
2.5
  3
swiss.ttf
  4

1001
ACAD
1000
Swis721 BT
1071
       34
  0
STYLE
  5
7F6C
330
554
100
AcDbSymbolTableRecord
100
AcDbTextStyleTableRecord
  2
2
 70
     0
 40
5.0
 41
1.0
 50
0.0
 71
     0
 42
5.0
  3
swiss.ttf
  4

1001
ACAD
1000
Swis721 BT
1071
       34
  0
ENDTAB
  0
TABLE
  2
VIEW
  5
559
330
0
100
AcDbSymbolTable
 70
     5
  0
ENDTAB
  0
TABLE
  2
UCS
  5
55A
330
0
100
AcDbSymbolTable
 70
     0
  0
ENDTAB
  0
TABLE
  2
APPID
  5
55D
330
0
100
AcDbSymbolTable
 70
    32
  0
APPID
  5
62
330
55D
100
AcDbSymbolTableRecord
100
AcDbRegAppTableRecord
  2
ACAD
 70
     0
  0
APPID
  5
597
330
55D
100
AcDbSymbolTableRecord
100
AcDbRegAppTableRecord
  2
DCO15
 70
     0
  0
APPID
  5
F23
330
55D
100
AcDbSymbolTableRecord
100
AcDbRegAppTableRecord
  2
ACAD_DIMASSOC_CALC_DIMLFAC
 70
     0
  0
APPID
  5
F24
330
55D
100
AcDbSymbolTableRecord
100
AcDbRegAppTableRecord
  2
ACAD_DIMASSOC_DIMLFAC
 70
     0
  0
APPID
  5
F25
330
55D
100
AcDbSymbolTableRecord
100
AcDbRegAppTableRecord
  2
ACAD_DIMASSOC_OVERRIDDEN_DIMLFAC
 70
     0
  0
APPID
  5
2F87
330
55D
100
AcDbSymbolTableRecord
100
AcDbRegAppTableRecord
  2
ACAD_MLEADERVER
 70
     0
  0
APPID
  5
2FEF
330
55D
100
AcDbSymbolTableRecord
100
AcDbRegAppTableRecord
  2
AcAecLayerStandard
 70
     0
  0
APPID
  5
2FFD
330
55D
100
AcDbSymbolTableRecord
100
AcDbRegAppTableRecord
  2
AcadAnnoPO
 70
     0
  0
APPID
  5
2FFE
330
55D
100
AcDbSymbolTableRecord
100
AcDbRegAppTableRecord
  2
AcadAnnotative
 70
     0
  0
APPID
  5
2FFF
330
55D
100
AcDbSymbolTableRecord
100
AcDbRegAppTableRecord
  2
ACAD_DSTYLE_DIMJAG
 70
     0
  0
APPID
  5
3000
330
55D
100
AcDbSymbolTableRecord
100
AcDbRegAppTableRecord
  2
ACAD_DSTYLE_DIMTALN
 70
     0
  0
APPID
  5
3001
330
55D
100
AcDbSymbolTableRecord
100
AcDbRegAppTableRecord
  2
ACAD_PSEXT
 70
     0
  0
APPID
  5
3002
330
55D
100
AcDbSymbolTableRecord
100
AcDbRegAppTableRecord
  2
PROGE_PRINT_SETTINGS
 70
     0
  0
APPID
  5
3003
330
55D
100
AcDbSymbolTableRecord
100
AcDbRegAppTableRecord
  2
PCAD_LAYOUT
 70
     0
  0
APPID
  5
3004
330
55D
100
AcDbSymbolTableRecord
100
AcDbRegAppTableRecord
  2
RAK
 70
     0
  0
APPID
  5
3005
330
55D
100
AcDbSymbolTableRecord
100
AcDbRegAppTableRecord
  2
ACAD_DSTYLE_DIM_EXT1_LINETYPE
 70
     0
  0
APPID
  5
3006
330
55D
100
AcDbSymbolTableRecord
100
AcDbRegAppTableRecord
  2
ACAD_DSTYLE_DIM_EXT2_LINETYPE
 70
     0
  0
APPID
  5
3007
330
55D
100
AcDbSymbolTableRecord
100
AcDbRegAppTableRecord
  2
ACAD_DSTYLE_DIM_LINETYPE
 70
     0
  0
APPID
  5
3008
330
55D
100
AcDbSymbolTableRecord
100
AcDbRegAppTableRecord
  2
AcDbAttr
 70
     0
  0
APPID
  5
3009
330
55D
100
AcDbSymbolTableRecord
100
AcDbRegAppTableRecord
  2
ACAD_EXEMPT_FROM_CAD_STANDARDS
 70
     0
  0
APPID
  5
37C8
330
55D
100
AcDbSymbolTableRecord
100
AcDbRegAppTableRecord
  2
ACAD_DSTYLE_DIMJOGGED_JOGANGLE_SYMBOL
 70
     0
  0
APPID
  5
3981
330
55D
100
AcDbSymbolTableRecord
100
AcDbRegAppTableRecord
  2
ACAD_DSTYLE_DIMEXT_LENGTH
 70
     0
  0
APPID
  5
485F
330
55D
100
AcDbSymbolTableRecord
100
AcDbRegAppTableRecord
  2
ACAD_DSTYLE_DIMTEXT_FILL
 70
     0
  0
APPID
  5
4860
330
55D
100
AcDbSymbolTableRecord
100
AcDbRegAppTableRecord
  2
ACAD_DSTYLE_DIMEXT_ENABLED
 70
     0
  0
APPID
  5
4861
330
55D
100
AcDbSymbolTableRecord
100
AcDbRegAppTableRecord
  2
ACAD_DSTYLE_DIMARC_LENGTH_SYMBOL
 70
     0
  0
APPID
  5
4862
330
55D
100
AcDbSymbolTableRecord
100
AcDbRegAppTableRecord
  2
AcDbDynamicBlockGUID
 70
     0
  0
APPID
  5
4863
330
55D
100
AcDbSymbolTableRecord
100
AcDbRegAppTableRecord
  2
AcDbBlockRepETag
 70
     0
  0
APPID
  5
4864
330
55D
100
AcDbSymbolTableRecord
100
AcDbRegAppTableRecord
  2
ACAUTHENVIRON
 70
     0
  0
APPID
  5
4865
330
55D
100
AcDbSymbolTableRecord
100
AcDbRegAppTableRecord
  2
AcDbDynamicBlockTrueName
 70
     0
  0
APPID
  5
4866
330
55D
100
AcDbSymbolTableRecord
100
AcDbRegAppTableRecord
  2
ACAD_DSTYLE_DIMBREAK
 70
     0
  0
APPID
  5
73C6
330
55D
100
AcDbSymbolTableRecord
100
AcDbRegAppTableRecord
  2
ACAD_DSTYLE_DIMRADIAL_EXTENSION
 70
     0
  0
APPID
  5
7C45
330
55D
100
AcDbSymbolTableRecord
100
AcDbRegAppTableRecord
  2
ACAD_NAV_VCDISPLAY
 70
     0
  0
ENDTAB
  0
TABLE
  2
DIMSTYLE
  5
55E
330
0
100
AcDbSymbolTable
 70
     9
100
AcDbDimStyleTable
 71
     1
340
663
  0
DIMSTYLE
105
663
102
{ACAD_REACTORS
330
7F42
330
7F43
330
7F40
102
}
330
55E
100
AcDbSymbolTableRecord
100
AcDbDimStyleTableRecord
  2
STANDARD
 70
     0
 41
3.0
 42
1.0
 43
1.0
 44
1.0
 73
     0
 74
     0
 77
     1
140
2.5
147
1.0
176
     7
177
     7
271
     0
272
     0
340
30E8
1001
ACAD_DSTYLE_DIMJAG
1070
   388
1040
1.5
1001
ACAD_DSTYLE_DIMTALN
1070
   392
1070
     0
  0
ENDTAB
  0
TABLE
  2
BLOCK_RECORD
  5
1
330
0
100
AcDbSymbolTable
 70
     7
  0
BLOCK_RECORD
  5
2
102
{ACAD_XDICTIONARY
360
30CC
102
}
330
1
100
AcDbSymbolTableRecord
100
AcDbBlockTableRecord
  2
*MODEL_SPACE
340
58E
  0
BLOCK_RECORD
  5
5E
330
1
100
AcDbSymbolTableRecord
100
AcDbBlockTableRecord
  2
*PAPER_SPACE
340
58F
  0
BLOCK_RECORD
  5
300A
102
{ACAD_XDICTIONARY
360
3021
102
}
330
1
100
AcDbSymbolTableRecord
100
AcDbBlockTableRecord
  2
A4 Title Block
340
0
102
{BLKREFS
331
3700
102
}
1001
ACAD
1000
DesignCenter Data
1002
{
1070
     1
1070
     4
1002
}
  0
BLOCK_RECORD
  5
7845
330
1
100
AcDbSymbolTableRecord
100
AcDbBlockTableRecord
  2
_Dot
340
0
  0
ENDTAB
  0
ENDSEC
  0
SECTION
  2
BLOCKS
  0
BLOCK
  5
5C
330
2
100
AcDbEntity
  8
0
100
AcDbBlockBegin
  2
*MODEL_SPACE
 70
     0
 10
0.0
 20
0.0
 30
0.0
  3
*MODEL_SPACE
  1

  0
ENDBLK
  5
5D
330
2
100
AcDbEntity
  8
0
100
AcDbBlockEnd
  0
BLOCK
  5
551
330
5E
100
AcDbEntity
 67
     1
  8
0
100
AcDbBlockBegin
  2
*PAPER_SPACE
 70
     0
 10
0.0
 20
0.0
 30
0.0
  3
*PAPER_SPACE
  1

  0
ENDBLK
  5
552
330
5E
100
AcDbEntity
 67
     1
  8
0
100
AcDbBlockEnd
  0
BLOCK
  5
3023
330
300A
100
AcDbEntity
  8
0
100
AcDbBlockBegin
  2
A4 Title Block
 70
     2
 10
0.0
 20
0.0
 30
0.0
  3
A4 Title Block
  1

  0
TEXT
  5
7EFC
330
300A
100
AcDbEntity
  8
3
 62
     7
100
AcDbText
 10
-853.4347976406543
 20
37.0581002795501
 30
0.0
 40
8.0
  1

 41
0.85
  7
ROMANS
100
AcDbText
  0
LINE
  5
7EFD
330
300A
100
AcDbEntity
  8
Title block
100
AcDbLine
 10
-53.39424020223919
 20
255.4041454248354
 30
0.0
 11
-53.39424020223919
 21
-21.19891004925512
 31
0.0
  0
LINE
  5
7EFE
330
300A
100
AcDbEntity
  8
Title block
100
AcDbLine
 10
-53.39424020223919
 20
-21.19891004925512
 30
0.0
 11
136.6057597977608
 21
-21.19891004925512
 31
0.0
  0
LINE
  5
7EFF
330
300A
100
AcDbEntity
  8
Title block
100
AcDbLine
 10
136.6057597977608
 20
-21.19891004925512
 30
0.0
 11
136.6057597977608
 21
255.4041454248354
 31
0.0
  0
LINE
  5
7F00
330
300A
100
AcDbEntity
  8
Title block
100
AcDbLine
 10
136.6057597977608
 20
255.4041454248354
 30
0.0
 11
-53.39424020223919
 21
255.4041454248354
 31
0.0
  0
LINE
  5
7F01
330
300A
100
AcDbEntity
  8
Title block
100
AcDbLine
 10
5.322295774367375
 20
-1.849809968847825
 30
0.0
 11
136.7843384162145
 21
-1.849809968847711
 31
0.0
  0
LINE
  5
7F02
330
300A
100
AcDbEntity
  8
Title block
100
AcDbLine
 10
5.322295774367375
 20
-10.88464955839267
 30
0.0
 11
136.7843384162147
 21
-10.88464955839255
 31
0.0
  0
TEXT
  5
7F03
330
300A
100
AcDbEntity
  8
0
100
AcDbText
 10
9.675893772968493
 20
-7.472611373172771
 30
0.0
 40
2.5
  1
Date:
  7
Title block
100
AcDbText
  0
TEXT
  5
7F04
330
300A
100
AcDbEntity
  8
0
100
AcDbText
 10
91.38994071143883
 20
-7.411777803461195
 30
0.0
 40
2.5
  1
Detail No.
  7
Title block
100
AcDbText
  0
TEXT
  5
7F05
330
300A
100
AcDbEntity
  8
0
100
AcDbText
 10
9.502250865730047
 20
7.648243604712661
 30
0.0
 40
2.5
  1
Title:
  7
Title block
100
AcDbText
  0
LWPOLYLINE
  5
7F06
330
300A
100
AcDbEntity
  8
Title block
100
AcDbPolyline
 90
        2
 70
     0
 43
0.0
 10
-53.39424020223919
 20
12.10448104516263
 10
136.6057597977608
 20
12.10448104516263
  0
MTEXT
  5
7F07
330
300A
100
AcDbEntity
  8
Title block
100
AcDbMText
 10
6.609142078680179
 20
-12.95411800504515
 30
0.0
 40
2.5
 41
129.8458211596216
 71
     1
 72
     1
  1
This drawing is to be read in conjunction with all the current, relevant Supercrete \PTechnical Literature, Project Specific Design Documentation and Specifications
  7
Title block
 73
     1
 44
1.0
  0
LWPOLYLINE
  5
7F08
330
300A
100
AcDbEntity
  8
Title block
100
AcDbPolyline
 90
        2
 70
     0
 43
0.0
 10
46.71209860759859
 20
-1.849809968847822
 10
46.71209860759859
 20
-10.88464955839267
  0
LWPOLYLINE
  5
7F09
330
300A
100
AcDbEntity
  8
Title block
100
AcDbPolyline
 90
        2
 70
     0
 43
0.0
 10
89.74925677747592
 20
-1.849809968847832
 10
89.74925677747592
 20
-10.88464955839268
  0
TEXT
  5
7F0A
330
300A
100
AcDbEntity
  8
0
100
AcDbText
 10
51.06569660619993
 20
-7.472611373172771
 30
0.0
 40
2.5
  1
Scale:
  7
Title block
100
AcDbText
  0
ATTDEF
  5
7F0B
330
300A
100
AcDbEntity
  8
Title block
100
AcDbText
 10
20.96937096573947
 20
-7.642940466626214
 30
0.0
 40
2.5
  1

100
AcDbAttributeDefinition
  3
Date
  2
DATE
 70
     0
1001
AcDbAttr
1070
     0
1070
     1
  0
ATTDEF
  5
7F0C
330
300A
100
AcDbEntity
  8
Title block
100
AcDbText
 10
63.23629700150786
 20
-7.642940466626214
 30
0.0
 40
2.5
  1

100
AcDbAttributeDefinition
  3
Scale
  2
SCALE
 70
     0
1001
AcDbAttr
1070
     0
1070
     1
  0
ATTDEF
  5
7F0D
330
300A
100
AcDbEntity
  8
Title block
100
AcDbText
 10
111.1388136280311
 20
-7.311601095675996
 30
0.0
 40
2.5
  1

100
AcDbAttributeDefinition
  3
Drg No
  2
DRGNO
 70
     0
1001
AcDbAttr
1070
     0
1070
     1
  0
ATTDEF
  5
7F0E
330
300A
100
AcDbEntity
  8
Title block
100
AcDbText
 10
8.067229221254478
 20
-0.0001543750333894
 30
0.0
 40
3.5
  1

  7
1
100
AcDbAttributeDefinition
  3
Title
  2
TITLE
 70
     0
  0
ATTDEF
  5
7F0F
330
300A
100
AcDbEntity
  8
Title block
100
AcDbText
 10
19.80232515842442
 20
6.748439479395983
 30
0.0
 40
3.5
  1

  7
1
100
AcDbAttributeDefinition
  3
Title2
  2
TITLE2
 70
     0
  0
LINE
  5
7F10
330
300A
100
AcDbEntity
  8
Title block
100
AcDbLine
 10
5.160599931094154
 20
12.11369795074488
 30
0.0
 11
5.160599931094154
 21
-21.18969314367286
 31
0.0
  0
IMAGE
  5
7F11
330
300A
100
AcDbEntity
  8
Title block
 92
      140
310
8C0000000100000084000000060000000500000060B1837676B24AC0005F2FB1C06AF1BF000000000000000060B1837676B24AC0F80C208A7E35284000000000000000003028EF4E74A41440F80C208A7E35284000000000000000003028EF4E74A41440005F2FB1C06AF1BF000000000000000060B1837676B24AC0005F2F
310
B1C06AF1BF0000000000000000
100
AcDbRasterImage
 90
        0
 10
-53.39424020223919
 20
-1.088562671784472
 30
0.0
 11
0.0428345575225555
 21
0.0
 31
0.0
 12
0.0
 22
0.0428345575225555
 32
0.0
 13
1367.0
 23
308.0
340
7F14
 70
     7
280
     0
281
    50
282
    50
283
     0
360
7F12
 71
     1
 91
        2
 14
-0.5
 24
-0.5
 14
1366.5
 24
307.5
  0
ENDBLK
  5
3024
330
300A
100
AcDbEntity
  8
0
100
AcDbBlockEnd
  0
BLOCK
  5
7848
330
7845
100
AcDbEntity
  8
0
100
AcDbBlockBegin
  2
_Dot
 70
     0
 10
0.0
 20
0.0
 30
0.0
  3
_Dot
  1

  0
LWPOLYLINE
  5
7846
330
7845
100
AcDbEntity
  8
0
  6
ByBlock
 62
     0
100
AcDbPolyline
 90
        2
 70
     1
 43
0.5
 10
-0.25
 20
0.0
 42
1.0
 10
0.25
 20
0.0
 42
1.0
  0
LINE
  5
7847
330
7845
100
AcDbEntity
  8
0
  6
ByBlock
 62
     0
370
    -2
100
AcDbLine
 10
-0.5
 20
0.0
 30
0.0
 11
-1.0
 21
0.0
 31
0.0
  0
ENDBLK
  5
7849
330
7845
100
AcDbEntity
  8
0
100
AcDbBlockEnd
  0
ENDSEC
  0
SECTION
  2
ENTITIES
  0
LINE
  5
5E3F
330
2
100
AcDbEntity
  8
Supercrete
370
    50
100
AcDbLine
 10
3524.477275342067
 20
42320.44572937921
 30
0.0
 11
3524.47727534207
 21
42482.62159907018
 31
0.0
  0
LINE
  5
6009
330
2
100
AcDbEntity
  8
Supercrete
370
    50
100
AcDbLine
 10
3449.477275342065
 20
42320.44572937921
 30
0.0
 11
3449.477275342069
 21
42437.62159907019
 31
0.0
  0
LINE
  5
600C
330
2
100
AcDbEntity
  8
Text
370
     9
100
AcDbLine
 10
3593.798093334626
 20
42660.34277993616
 30
0.0
 11
3586.887004836863
 21
42654.79746876114
 31
0.0
  0
LINE
  5
600D
330
2
100
AcDbEntity
  8
Text
370
     9
100
AcDbLine
 10
3596.851828860025
 20
42649.25215758614
 30
0.0
 11
3593.798093334626
 21
42660.34277993616
 31
0.0
  0
LINE
  5
600E
330
2
100
AcDbEntity
  8
Text
370
     9
100
AcDbLine
 10
3603.762917357788
 20
42654.79746876114
 30
0.0
 11
3596.851828860025
 21
42649.25215758614
 31
0.0
  0
LINE
  5
600F
330
2
100
AcDbEntity
  8
Text
370
     9
100
AcDbLine
 10
3655.403876582081
 20
42654.79746876114
 30
0.0
 11
3603.762917357788
 21
42654.79746876114
 31
0.0
  0
LINE
  5
6010
330
2
100
AcDbEntity
  8
Text
370
     9
100
AcDbLine
 10
3566.684197753879
 20
42654.79746876114
 30
0.0
 11
3586.887004836856
 21
42654.79746876114
 31
0.0
  0
LINE
  5
6011
330
2
100
AcDbEntity
  8
Text
370
     9
100
AcDbLine
 10
3536.516566647733
 20
42660.34277993616
 30
0.0
 11
3529.60547814997
 21
42654.79746876114
 31
0.0
  0
LINE
  5
6012
330
2
100
AcDbEntity
  8
Text
370
     9
100
AcDbLine
 10
3539.570302173132
 20
42649.25215758614
 30
0.0
 11
3536.516566647733
 21
42660.34277993616
 31
0.0
  0
LINE
  5
6013
330
2
100
AcDbEntity
  8
Text
370
     9
100
AcDbLine
 10
3546.481390670896
 20
42654.79746876114
 30
0.0
 11
3539.570302173132
 21
42649.25215758614
 31
0.0
  0
LINE
  5
6014
330
2
100
AcDbEntity
  8
Text
370
     9
100
AcDbLine
 10
3566.684197753879
 20
42654.79746876114
 30
0.0
 11
3546.481390670896
 21
42654.79746876114
 31
0.0
  0
LINE
  5
6015
330
2
100
AcDbEntity
  8
Text
370
     9
100
AcDbLine
 10
3489.19986398401
 20
42654.79746876114
 30
0.0
 11
3529.605478149963
 21
42654.79746876114
 31
0.0
  0
LINE
  5
6016
330
2
100
AcDbEntity
  8
Text
370
     9
100
AcDbLine
 10
3479.23503996084
 20
42660.34277993616
 30
0.0
 11
3472.323951463077
 21
42654.79746876114
 31
0.0
  0
LINE
  5
6017
330
2
100
AcDbEntity
  8
Text
370
     9
100
AcDbLine
 10
3482.288775486239
 20
42649.25215758614
 30
0.0
 11
3479.23503996084
 21
42660.34277993616
 31
0.0
  0
LINE
  5
6018
330
2
100
AcDbEntity
  8
Text
370
     9
100
AcDbLine
 10
3489.199863984003
 20
42654.79746876114
 30
0.0
 11
3482.288775486239
 21
42649.25215758614
 31
0.0
  0
LINE
  5
6019
330
2
100
AcDbEntity
  8
Text
370
     9
100
AcDbLine
 10
3431.918337297117
 20
42654.79746876114
 30
0.0
 11
3472.32395146307
 21
42654.79746876114
 31
0.0
  0
LINE
  5
6108
330
2
100
AcDbEntity
  8
Lining
370
    50
100
AcDbLine
 10
3644.477275342004
 20
42654.79746876114
 30
0.0
 11
3644.477275342018
 21
42320.44572937921
 31
0.0
  0
LINE
  5
6154
330
2
100
AcDbEntity
  8
Text
370
     9
100
AcDbLine
 10
3593.798093334626
 20
42314.9004182042
 30
0.0
 11
3586.887004836863
 21
42320.44572937921
 31
0.0
  0
LINE
  5
6155
330
2
100
AcDbEntity
  8
Text
370
     9
100
AcDbLine
 10
3596.851828860025
 20
42325.99104055422
 30
0.0
 11
3593.798093334626
 21
42314.9004182042
 31
0.0
  0
LINE
  5
6156
330
2
100
AcDbEntity
  8
Text
370
     9
100
AcDbLine
 10
3603.762917357788
 20
42320.44572937921
 30
0.0
 11
3596.851828860025
 21
42325.99104055422
 31
0.0
  0
LINE
  5
6157
330
2
100
AcDbEntity
  8
Text
370
     9
100
AcDbLine
 10
3655.403876582081
 20
42320.44572937921
 30
0.0
 11
3603.762917357788
 21
42320.44572937921
 31
0.0
  0
LINE
  5
6158
330
2
100
AcDbEntity
  8
Text
370
     9
100
AcDbLine
 10
3566.684197753879
 20
42320.44572937921
 30
0.0
 11
3586.887004836856
 21
42320.44572937921
 31
0.0
  0
LINE
  5
6159
330
2
100
AcDbEntity
  8
Text
370
     9
100
AcDbLine
 10
3536.516566647733
 20
42314.9004182042
 30
0.0
 11
3529.60547814997
 21
42320.44572937921
 31
0.0
  0
LINE
  5
615A
330
2
100
AcDbEntity
  8
Text
370
     9
100
AcDbLine
 10
3539.570302173132
 20
42325.99104055422
 30
0.0
 11
3536.516566647733
 21
42314.9004182042
 31
0.0
  0
LINE
  5
615B
330
2
100
AcDbEntity
  8
Text
370
     9
100
AcDbLine
 10
3546.481390670896
 20
42320.44572937921
 30
0.0
 11
3539.570302173132
 21
42325.99104055422
 31
0.0
  0
LINE
  5
615C
330
2
100
AcDbEntity
  8
Text
370
     9
100
AcDbLine
 10
3566.684197753879
 20
42320.44572937921
 30
0.0
 11
3546.481390670896
 21
42320.44572937921
 31
0.0
  0
LINE
  5
615D
330
2
100
AcDbEntity
  8
Text
370
     9
100
AcDbLine
 10
3489.19986398401
 20
42320.44572937921
 30
0.0
 11
3529.605478149963
 21
42320.44572937921
 31
0.0
  0
LINE
  5
615E
330
2
100
AcDbEntity
  8
Text
370
     9
100
AcDbLine
 10
3479.23503996084
 20
42314.9004182042
 30
0.0
 11
3472.323951463077
 21
42320.44572937921
 31
0.0
  0
LINE
  5
615F
330
2
100
AcDbEntity
  8
Text
370
     9
100
AcDbLine
 10
3482.288775486239
 20
42325.99104055422
 30
0.0
 11
3479.23503996084
 21
42314.9004182042
 31
0.0
  0
LINE
  5
6160
330
2
100
AcDbEntity
  8
Text
370
     9
100
AcDbLine
 10
3489.199863984003
 20
42320.44572937921
 30
0.0
 11
3482.288775486239
 21
42325.99104055422
 31
0.0
  0
LINE
  5
6161
330
2
100
AcDbEntity
  8
Text
370
     9
100
AcDbLine
 10
3431.918337297117
 20
42320.44572937921
 30
0.0
 11
3472.32395146307
 21
42320.44572937921
 31
0.0
  0
LINE
  5
6190
330
2
100
AcDbEntity
  8
Lining
370
    50
100
AcDbLine
 10
3439.477275342065
 20
42320.44572937921
 30
0.0
 11
3439.477275342067
 21
42442.62159907019
 31
0.0
  0
LINE
  5
727E
330
2
100
AcDbEntity
  8
Steel
100
AcDbLine
 10
3634.477275342022
 20
42320.44572937921
 30
0.0
 11
3634.477275342006
 21
42654.79746876114
 31
0.0
  0
LINE
  5
727F
330
2
100
AcDbEntity
  8
Steel
100
AcDbLine
 10
3633.727275342022
 20
42320.44572937921
 30
0.0
 11
3633.727275342022
 21
42654.79746876114
 31
0.0
  0
LINE
  5
7280
330
2
100
AcDbEntity
  8
Steel
100
AcDbLine
 10
3544.477275342023
 20
42322.0537891129
 30
0.0
 11
3544.477275342023
 21
42484.39735975671
 31
0.0
  0
LINE
  5
7281
330
2
100
AcDbEntity
  8
Steel
100
AcDbLine
 10
3545.227275342022
 20
42321.45200498257
 30
0.0
 11
3545.227275342022
 21
42484.31262815658
 31
0.0
  0
HATCH
  5
72B8
330
2
100
AcDbEntity
  8
Hatch
100
AcDbHatch
 10
0.0
 20
0.0
 30
0.0
210
0.0
220
0.0
230
1.0
  2
AR-SAND
 70
     0
 71
     0
 91
        1
 92
        1
 93
       10
 72
     1
 10
3449.477275342071
 20
42537.62159907019
 11
3494.47727534207
 21
42537.62159907019
 72
     1
 10
3494.47727534207
 20
42537.62159907019
 11
3494.477275342069
 21
42497.13575057049
 72
     1
 10
3494.477275342069
 20
42497.13575057049
 11
3524.477275342071
 21
42497.13575057049
 72
     1
 10
3524.477275342071
 20
42497.13575057049
 11
3524.477275342075
 21
42654.79746876115
 72
     1
 10
3524.477275342075
 20
42654.79746876115
 11
3489.199863984006
 21
42654.79746876114
 72
     1
 10
3489.199863984006
 20
42654.79746876114
 11
3482.288775486239
 21
42649.25215758614
 72
     1
 10
3482.288775486239
 20
42649.25215758614
 11
3479.235039960841
 21
42660.34277993616
 72
     1
 10
3479.235039960841
 20
42660.34277993616
 11
3472.323951463088
 21
42654.79746876114
 72
     1
 10
3472.323951463088
 20
42654.79746876114
 11
3449.477275342073
 21
42654.79746876114
 72
     1
 10
3449.477275342073
 20
42654.79746876114
 11
3449.477275342071
 21
42537.62159907019
 97
        0
 75
     0
 76
     1
 52
0.0
 41
10.0
 77
     0
 78
     4
 53
142.5
 43
3524.477275342081
 44
42497.13575057049
 45
0.6299335810960816
 46
19.26823769013158
 79
     6
 49
0.0
 49
-15.2
 49
0.0
 49
-17.0
 49
0.0
 49
-16.25
 53
172.5
 43
3524.477275342081
 44
42497.13575057049
 45
-17.69776705267727
 46
28.2214606522974
 79
     6
 49
0.0
 49
-8.199999999999999
 49
0.0
 49
-13.7
 49
0.0
 49
-5.25
 53
212.5
 43
3536.77727534208
 44
42497.13575057049
 45
-31.14141861751495
 46
0.056590535369645
 79
     6
 49
0.0
 49
-5.0
 49
0.0
 49
-18.0
 49
0.0
 49
-23.5
 53
222.5
 43
3536.77727534208
 44
42497.13575057049
 45
-30.06126604572293
 46
8.77675564934249
 79
     6
 49
0.0
 49
-2.5
 49
0.0
 49
-11.8
 49
0.0
 49
-13.5
 98
        1
 10
3466.998918874033
 20
42803.94699642212
1001
ACAD
1010
3636.60959347879
1020
42685.01646600608
1030
0.0
  0
HATCH
  5
72C1
330
2
100
AcDbEntity
  8
Hatch
100
AcDbHatch
 10
0.0
 20
0.0
 30
0.0
210
0.0
220
0.0
230
1.0
  2
AR-SAND
 70
     0
 71
     0
 91
        1
 92
        1
 93
       10
 72
     1
 10
3524.47727534207
 20
42482.62159907019
 11
3494.477275342069
 21
42482.62159907018
 72
     1
 10
3494.477275342069
 20
42482.62159907018
 11
3494.477275342068
 21
42437.62159907019
 72
     1
 10
3494.477275342068
 20
42437.62159907019
 11
3449.477275342069
 21
42437.62159907019
 72
     1
 10
3449.477275342069
 20
42437.62159907019
 11
3449.477275342065
 21
42320.44572937921
 72
     1
 10
3449.477275342065
 20
42320.44572937921
 11
3472.323951463084
 21
42320.44572937921
 72
     1
 10
3472.323951463084
 20
42320.44572937921
 11
3479.235039960844
 21
42314.9004182042
 72
     1
 10
3479.235039960844
 20
42314.9004182042
 11
3482.288775486239
 21
42325.99104055423
 72
     1
 10
3482.288775486239
 20
42325.99104055423
 11
3489.199863984006
 21
42320.44572937921
 72
     1
 10
3489.199863984006
 20
42320.44572937921
 11
3524.477275342067
 21
42320.44572937921
 72
     1
 10
3524.477275342067
 20
42320.44572937921
 11
3524.47727534207
 21
42482.62159907019
 97
        0
 75
     0
 76
     1
 52
0.0
 41
10.0
 77
     0
 78
     4
 53
142.5
 43
3524.47727534207
 44
42024.7484438209
 45
0.6299335810960816
 46
19.26823769013158
 79
     6
 49
0.0
 49
-15.2
 49
0.0
 49
-17.0
 49
0.0
 49
-16.25
 53
172.5
 43
3524.47727534207
 44
42024.7484438209
 45
-17.69776705267727
 46
28.2214606522974
 79
     6
 49
0.0
 49
-8.199999999999999
 49
0.0
 49
-13.7
 49
0.0
 49
-5.25
 53
212.5
 43
3536.77727534207
 44
42024.7484438209
 45
-31.14141861751495
 46
0.056590535369645
 79
     6
 49
0.0
 49
-5.0
 49
0.0
 49
-18.0
 49
0.0
 49
-23.5
 53
222.5
 43
3536.77727534207
 44
42024.7484438209
 45
-30.06126604572293
 46
8.77675564934249
 79
     6
 49
0.0
 49
-2.5
 49
0.0
 49
-11.8
 49
0.0
 49
-13.5
 98
        1
 10
3494.573783996261
 20
42270.5482575898
1001
ACAD
1010
3636.60959347879
1020
42685.01646600608
1030
0.0
  0
HATCH
  5
72DD
330
2
100
AcDbEntity
  8
Hatch
100
AcDbHatch
 10
0.0
 20
0.0
 30
0.0
210
0.0
220
0.0
230
1.0
  2
AR-CONC
 70
     0
 71
     0
 91
        2
 92
        1
 93
        6
 72
     1
 10
3447.977275342071
 20
42562.62159907018
 11
3449.47727534207
 21
42562.62159907018
 72
     1
 10
3449.47727534207
 20
42562.62159907018
 11
3449.477275342073
 21
42654.79746876114
 72
     1
 10
3449.477275342073
 20
42654.79746876114
 11
3439.477275342073
 21
42654.79746876114
 72
     1
 10
3439.477275342073
 20
42654.79746876114
 11
3439.477275342071
 21
42529.62159907019
 72
     1
 10
3439.477275342071
 20
42529.62159907019
 11
3447.977275342071
 21
42529.6215990702
 72
     1
 10
3447.977275342071
 20
42529.6215990702
 11
3447.977275342071
 21
42562.62159907018
 97
        0
 92
        1
 93
        6
 72
     1
 10
3447.977275342068
 20
42442.6215990702
 11
3439.47727534207
 21
42442.6215990702
 72
     1
 10
3439.47727534207
 20
42442.6215990702
 11
3439.477275342065
 21
42320.44572937922
 72
     1
 10
3439.477275342065
 20
42320.44572937922
 11
3449.477275342064
 21
42320.44572937921
 72
     1
 10
3449.477275342064
 20
42320.44572937921
 11
3449.477275342067
 21
42412.62159907019
 72
     1
 10
3449.477275342067
 20
42412.62159907019
 11
3447.977275342067
 21
42412.62159907019
 72
     1
 10
3447.977275342067
 20
42412.62159907019
 11
3447.977275342068
 21
42442.6215990702
 97
        0
 75
     0
 76
     1
 52
0.0
 41
2.0
 77
     0
 78
    13
 53
130.0
 43
3449.477275342081
 44
42030.29375499592
 45
-14.34520365201507
 46
-1.255042699651902
 79
     2
 49
1.5
 49
-16.5
 53
185.0
 43
3449.477275342081
 44
42030.29375499592
 45
2.77502667226
 46
15.04384267400024
 79
     2
 49
1.199999999999999
 49
-13.2
 53
79.54860000000002
 43
3448.281841742082
 44
42030.18916819591
 45
-11.57018763428043
 46
13.78879084121907
 79
     2
 49
1.2748038
 49
-14.02284224
 53
133.8158
 43
3449.477275342081
 44
42034.29375499592
 45
-21.34482097251289
 46
-3.310380286580361
 79
     2
 49
2.25
 49
-24.75
 53
83.36440000000001
 43
3447.698540442081
 44
42034.01788885591
 45
-18.69325411097406
 46
19.48235741800883
 79
     2
 49
1.912205759999999
 49
-21.03426
 53
188.8158
 43
3449.477275342081
 44
42034.29375499592
 45
-18.69323890267254
 46
19.48237201850649
 79
     2
 49
1.8
 49
-19.8
 53
159.0
 43
3447.477275342082
 44
42033.29375499591
 45
-11.93814104236923
 46
-8.052377813306776
 79
     2
 49
1.5
 49
-16.5
 53
214.0
 43
3447.477275342082
 44
42033.29375499591
 45
-4.866306638431634
 46
14.50300090093706
 79
     2
 49
1.199999999999999
 49
-13.2
 53
108.5486
 43
3446.482430682081
 44
42032.62272287592
 45
-16.8044525716298
 46
6.450609934199047
 79
     2
 49
1.2748038
 49
-14.02284224
 53
142.5
 43
3449.477275342081
 44
42030.29375499592
 45
-0.2431971063458134
 46
6.657877076626229
 79
     6
 49
0.0
 49
-13.04
 49
0.0
 49
-13.4
 49
0.0
 49
-13.25
 53
172.5
 43
3449.477275342081
 44
42030.29375499592
 45
-5.261390748842972
 46
7.888234237647204
 79
     6
 49
0.0
 49
-7.639999999999999
 49
0.0
 49
-12.74
 49
0.0
 49
-5.049999999999999
 53
212.5
 43
3453.937275342081
 44
42030.29375499592
 45
-10.67644872344818
 46
-0.451097434687596
 79
     6
 49
0.0
 49
-5.0
 49
0.0
 49
-15.6
 49
0.0
 49
-20.7
 53
222.5
 43
3455.937275342081
 44
42030.29375499592
 45
-11.66372338684772
 46
2.002099646646352
 79
     6
 49
0.0
 49
-6.5
 49
0.0
 49
-10.36
 49
0.0
 49
-14.7
 98
        1
 10
3442.999339667411
 20
42810.51841551665
1001
ACAD
1010
3626.609593478784
1020
42030.29375499592
1030
0.0
  0
HATCH
  5
72FA
330
2
100
AcDbEntity
  8
Hatch
100
AcDbHatch
 10
0.0
 20
0.0
 30
0.0
210
0.0
220
0.0
230
1.0
  2
AR-CONC
 70
     0
 71
     0
 91
        1
 92
        1
 93
        4
 72
     1
 10
3634.477275342015
 20
42654.79746876115
 11
3644.477275342
 21
42654.79746876115
 72
     1
 10
3644.477275342
 20
42654.79746876115
 11
3644.477275342018
 21
42320.44572937921
 72
     1
 10
3644.477275342018
 20
42320.44572937921
 11
3634.477275342023
 21
42320.44572937922
 72
     1
 10
3634.477275342023
 20
42320.44572937922
 11
3634.477275342015
 21
42654.79746876115
 97
        0
 75
     0
 76
     1
 52
0.0
 41
2.0
 77
     0
 78
    13
 53
130.0
 43
3644.477275342032
 44
42030.29375499591
 45
-14.34520365201507
 46
-1.255042699651902
 79
     2
 49
1.5
 49
-16.5
 53
185.0
 43
3644.477275342032
 44
42030.29375499591
 45
2.77502667226
 46
15.04384267400024
 79
     2
 49
1.199999999999999
 49
-13.2
 53
79.54860000000002
 43
3643.281841742032
 44
42030.18916819591
 45
-11.57018763428043
 46
13.78879084121907
 79
     2
 49
1.2748038
 49
-14.02284224
 53
133.8158
 43
3644.477275342032
 44
42034.29375499591
 45
-21.34482097251289
 46
-3.310380286580361
 79
     2
 49
2.25
 49
-24.75
 53
83.36440000000001
 43
3642.698540442032
 44
42034.01788885591
 45
-18.69325411097406
 46
19.48235741800883
 79
     2
 49
1.912205759999999
 49
-21.03426
 53
188.8158
 43
3644.477275342032
 44
42034.29375499591
 45
-18.69323890267254
 46
19.48237201850649
 79
     2
 49
1.8
 49
-19.8
 53
159.0
 43
3642.477275342031
 44
42033.29375499591
 45
-11.93814104236923
 46
-8.052377813306776
 79
     2
 49
1.5
 49
-16.5
 53
214.0
 43
3642.477275342031
 44
42033.29375499591
 45
-4.866306638431634
 46
14.50300090093706
 79
     2
 49
1.199999999999999
 49
-13.2
 53
108.5486
 43
3641.482430682032
 44
42032.62272287591
 45
-16.8044525716298
 46
6.450609934199047
 79
     2
 49
1.2748038
 49
-14.02284224
 53
142.5
 43
3644.477275342032
 44
42030.29375499591
 45
-0.2431971063458134
 46
6.657877076626229
 79
     6
 49
0.0
 49
-13.04
 49
0.0
 49
-13.4
 49
0.0
 49
-13.25
 53
172.5
 43
3644.477275342032
 44
42030.29375499591
 45
-5.261390748842972
 46
7.888234237647204
 79
     6
 49
0.0
 49
-7.639999999999999
 49
0.0
 49
-12.74
 49
0.0
 49
-5.049999999999999
 53
212.5
 43
3648.937275342032
 44
42030.29375499591
 45
-10.67644872344818
 46
-0.451097434687596
 79
     6
 49
0.0
 49
-5.0
 49
0.0
 49
-15.6
 49
0.0
 49
-20.7
 53
222.5
 43
3650.937275342032
 44
42030.29375499591
 45
-11.66372338684772
 46
2.002099646646352
 79
     6
 49
0.0
 49
-6.5
 49
0.0
 49
-10.36
 49
0.0
 49
-14.7
 98
        3
 10
3637.987297445139
 20
42689.71609067743
 10
3637.987297445139
 20
42833.06818325288
 10
3639.598769075921
 20
42140.46818290828
1001
ACAD
1010
3431.609593478833
1020
42030.29375499591
1030
0.0
  0
LWPOLYLINE
  5
73C0
330
2
100
AcDbEntity
  8
Electrics
100
AcDbPolyline
 90
        6
 70
     1
 43
0.0
 10
3432.477275342068
 20
42430.12159907019
 10
3439.477275342068
 20
42430.12159907019
 10
3439.477275342068
 20
42545.12159907019
 10
3432.477275342068
 20
42545.12159907019
 42
0.4142135623730951
 10
3427.477275342069
 20
42540.12159907019
 10
3427.477275342069
 20
42435.12159907019
 42
0.4142135623730951
  0
LINE
  5
73C3
330
2
100
AcDbEntity
  8
Electrics
100
AcDbLine
 10
3427.477275342069
 20
42502.05919803298
 30
0.0
 11
3423.055045044907
 21
42502.05919803298
 31
0.0
  0
ARC
  5
73C9
330
2
100
AcDbEntity
  8
Electrics
100
AcDbCircle
 10
3392.477275342069
 20
42482.05919803298
 30
0.0
 40
35.0
100
AcDbArc
 50
0.0
 51
31.85543082403507
  0
ARC
  5
73CA
330
2
100
AcDbEntity
  8
Electrics
100
AcDbCircle
 10
3423.055045044907
 20
42501.05919803299
 30
0.0
 40
1.0
100
AcDbArc
 50
89.99999999997395
 51
211.8554308241455
  0
LINE
  5
73D9
102
{ACAD_REACTORS
330
72DD
102
}
330
2
100
AcDbEntity
  8
Electrics
100
AcDbLine
 10
3447.977275342071
 20
42562.62159907018
 30
0.0
 11
3449.477275342071
 21
42562.62159907018
 31
0.0
  0
LINE
  5
73DA
330
2
100
AcDbEntity
  8
Electrics
100
AcDbLine
 10
3446.547127498006
 20
42412.62159907019
 30
0.0
 11
3448.047127498006
 21
42412.62159907019
 31
0.0
  0
LINE
  5
73DC
330
2
100
AcDbEntity
  8
Supercrete
370
    50
100
AcDbLine
 10
3449.47727534207
 20
42537.62159907019
 30
0.0
 11
3495.477275342069
 21
42537.62159907019
 31
0.0
  0
LINE
  5
73DD
330
2
100
AcDbEntity
  8
Supercrete
370
    50
100
AcDbLine
 10
3449.477275342069
 20
42437.62159907019
 30
0.0
 11
3495.477275342068
 21
42437.62159907019
 31
0.0
  0
LINE
  5
73DE
330
2
100
AcDbEntity
  8
Electrics
100
AcDbLine
 10
3494.477275342068
 20
42438.62159907019
 30
0.0
 11
3494.477275342069
 21
42485.12159907019
 31
0.0
  0
LINE
  5
73F6
330
2
100
AcDbEntity
  8
Lining
370
    50
100
AcDbLine
 10
3439.477275342068
 20
42532.62159907019
 30
0.0
 11
3449.477275342071
 21
42532.62159907019
 31
0.0
  0
LINE
  5
73F7
330
2
100
AcDbEntity
  8
Lining
370
    50
100
AcDbLine
 10
3439.477275342068
 20
42442.62159907019
 30
0.0
 11
3449.477275342068
 21
42442.62159907019
 31
0.0
  0
LINE
  5
73F8
330
2
100
AcDbEntity
  8
Lining
370
    50
100
AcDbLine
 10
3439.477275342071
 20
42532.62159907019
 30
0.0
 11
3439.477275342073
 21
42654.79746876115
 31
0.0
  0
LINE
  5
7413
330
2
100
AcDbEntity
  8
Electrics
100
AcDbLine
 10
3439.477275342068
 20
42531.12159907018
 30
0.0
 11
3456.47727534207
 21
42531.1215990702
 31
0.0
  0
LINE
  5
7414
330
2
100
AcDbEntity
  8
Electrics
100
AcDbLine
 10
3439.477275342068
 20
42528.12159907018
 30
0.0
 11
3456.47727534207
 21
42528.1215990702
 31
0.0
  0
LINE
  5
7415
330
2
100
AcDbEntity
  8
Electrics
100
AcDbLine
 10
3457.97727534207
 20
42531.12159907019
 30
0.0
 11
3467.630184079843
 21
42531.12159907019
 31
0.0
  0
LINE
  5
7416
330
2
100
AcDbEntity
  8
Electrics
100
AcDbLine
 10
3457.97727534207
 20
42528.12159907018
 30
0.0
 11
3467.630184079843
 21
42528.12159907019
 31
0.0
  0
LINE
  5
7418
330
2
100
AcDbEntity
  8
Electrics
100
AcDbLine
 10
3467.630184079843
 20
42531.12159907019
 30
0.0
 11
3467.630184079843
 21
42528.12159907018
 31
0.0
  0
LINE
  5
7419
330
2
100
AcDbEntity
  8
Electrics
100
AcDbLine
 10
3439.477275342068
 20
42447.12159907019
 30
0.0
 11
3456.477275342068
 21
42447.12159907018
 31
0.0
  0
LINE
  5
741A
330
2
100
AcDbEntity
  8
Electrics
100
AcDbLine
 10
3457.977275342067
 20
42447.12159907019
 30
0.0
 11
3467.630184079843
 21
42447.12159907019
 31
0.0
  0
LINE
  5
741B
330
2
100
AcDbEntity
  8
Electrics
100
AcDbLine
 10
3439.477275342068
 20
42444.12159907018
 30
0.0
 11
3456.477275342067
 21
42444.12159907017
 31
0.0
  0
LINE
  5
741C
330
2
100
AcDbEntity
  8
Electrics
100
AcDbLine
 10
3457.977275342067
 20
42444.12159907018
 30
0.0
 11
3467.630184079843
 21
42444.12159907018
 31
0.0
  0
LINE
  5
741D
330
2
100
AcDbEntity
  8
Electrics
100
AcDbLine
 10
3467.630184079843
 20
42444.12159907018
 30
0.0
 11
3467.630184079843
 21
42447.12159907019
 31
0.0
  0
LINE
  5
7439
330
2
100
AcDbEntity
  8
Electrics
100
AcDbLine
 10
3439.477275342068
 20
42519.62159907018
 30
0.0
 11
3464.477275342068
 21
42519.62159907018
 31
0.0
  0
LINE
  5
743A
330
2
100
AcDbEntity
  8
Electrics
100
AcDbLine
 10
3439.477275342068
 20
42455.62159907018
 30
0.0
 11
3464.477275342068
 21
42455.62159907018
 31
0.0
  0
LINE
  5
743C
330
2
100
AcDbEntity
  8
Electrics
100
AcDbLine
 10
3464.477275342068
 20
42519.62159907018
 30
0.0
 11
3464.477275342068
 21
42455.62159907018
 31
0.0
  0
LINE
  5
743E
330
2
100
AcDbEntity
  8
Electrics
100
AcDbLine
 10
3464.477275342068
 20
42490.12159907018
 30
0.0
 11
3524.477275342069
 21
42490.12159907018
 31
0.0
  0
LINE
  5
743F
330
2
100
AcDbEntity
  8
Electrics
100
AcDbLine
 10
3464.477275342068
 20
42485.12159907019
 30
0.0
 11
3524.47727534207
 21
42485.12159907019
 31
0.0
  0
LINE
  5
7440
330
2
100
AcDbEntity
  8
Supercrete
370
    50
100
AcDbLine
 10
3495.477275342068
 20
42492.62159907019
 30
0.0
 11
3524.47727534207
 21
42492.62159907019
 31
0.0
  0
LINE
  5
7441
330
2
100
AcDbEntity
  8
Supercrete
370
    50
100
AcDbLine
 10
3495.477275342068
 20
42482.62159907018
 30
0.0
 11
3524.47727534207
 21
42482.62159907018
 31
0.0
  0
LINE
  5
7450
330
2
100
AcDbEntity
  8
Supercrete
370
    50
100
AcDbLine
 10
3524.47727534207
 20
42492.62159907019
 30
0.0
 11
3524.477275342074
 21
42654.79746876114
 31
0.0
  0
LINE
  5
7451
330
2
100
AcDbEntity
  8
Electrics
100
AcDbLine
 10
3494.477275342069
 20
42490.12159907018
 30
0.0
 11
3494.477275342069
 21
42536.62159907019
 31
0.0
  0
SPLINE
  5
7452
330
2
100
AcDbEntity
  8
Electrics
100
AcDbSpline
210
0.0
220
0.0
230
1.0
 70
  1064
 71
     3
 72
    15
 73
    11
 74
     9
 42
0.000000001
 43
0.0000000001
 44
0.0000000001
 40
0.0
 40
0.0
 40
0.0
 40
0.0
 40
32.31878042243092
 40
54.75179857568787
 40
80.37694007552342
 40
100.8673080138133
 40
125.1956823578256
 40
149.157448879761
 40
176.9451972716064
 40
219.9326264294992
 40
219.9326264294992
 40
219.9326264294992
 40
219.9326264294992
 10
3524.47727534207
 20
42485.12159907018
 30
0.0
 10
3535.557302358216
 20
42485.10714803301
 30
0.0
 10
3554.328165598469
 20
42485.08266628383
 30
0.0
 10
3577.361092022335
 20
42472.02790579793
 30
0.0
 10
3599.890389619867
 20
42459.42288346634
 30
0.0
 10
3598.301097949615
 20
42433.81813780023
 30
0.0
 10
3596.83956469055
 20
42411.01445483519
 30
0.0
 10
3582.324376120946
 20
42389.30356827688
 30
0.0
 10
3573.857856218279
 20
42358.51831743085
 30
0.0
 10
3573.641927840672
 20
42334.83220248397
 30
0.0
 10
3573.510777257136
 20
42320.44572937921
 30
0.0
 11
3524.47727534207
 21
42485.12159907018
 31
0.0
 11
3556.643810248578
 21
42481.98829408954
 31
0.0
 11
3576.887209059481
 21
42472.32159309866
 31
0.0
 11
3596.576859028778
 21
42455.92142355767
 31
0.0
 11
3598.399976970224
 21
42435.51232217574
 31
0.0
 11
3594.753745846996
 21
42411.45874038802
 31
0.0
 11
3584.179671305938
 21
42389.95629395856
 31
0.0
 11
3576.157961882902
 21
42363.3515737266
 31
0.0
 11
3573.510777257136
 21
42320.44572937921
 31
0.0
  0
SPLINE
  5
7459
330
2
100
AcDbEntity
  8
Electrics
100
AcDbSpline
210
0.0
220
0.0
230
1.0
 70
     8
 71
     3
 72
    82
 73
    78
 74
     0
 42
0.000000001
 43
0.0000000001
 40
0.0
 40
0.0
 40
0.0
 40
0.0
 40
14.71013720667253
 40
14.71013720667253
 40
26.55483931560256
 40
26.55483931560256
 40
31.55764577792262
 40
31.55764577792262
 40
34.0555204198195
 40
34.0555204198195
 40
36.55339506171639
 40
36.55339506171639
 40
41.54914434551016
 40
41.54914434551016
 40
48.73472876767105
 40
48.73472876767105
 40
53.17641428651538
 40
53.17641428651538
 40
55.84412032208536
 40
55.84412032208536
 40
58.51182635765535
 40
58.51182635765535
 40
63.84723842879531
 40
63.84723842879531
 40
70.00030042970259
 40
70.00030042970259
 40
76.15336243060986
 40
76.15336243060986
 40
78.70155448987029
 40
78.70155448987029
 40
80.43529057619956
 40
80.43529057619956
 40
82.16902666252883
 40
82.16902666252883
 40
85.63649883518738
 40
85.63649883518738
 40
89.10397100784592
 40
89.10397100784592
 40
96.47934269417916
 40
96.47934269417916
 40
99.81775670149481
 40
99.81775670149481
 40
102.3402072050102
 40
102.3402072050102
 40
104.8626577085255
 40
104.8626577085255
 40
109.9075587155563
 40
109.9075587155563
 40
118.173415658537
 40
118.173415658537
 40
121.9801686182901
 40
121.9801686182901
 40
124.5904543774487
 40
124.5904543774487
 40
126.9173037985383
 40
126.9173037985383
 40
129.2441532196279
 40
129.2441532196279
 40
133.8978520618071
 40
133.8978520618071
 40
142.7302123402134
 40
142.7302123402134
 40
146.8455706573063
 40
146.8455706573063
 40
149.3631071876962
 40
149.3631071876962
 40
151.880643718086
 40
151.880643718086
 40
156.9157167788658
 40
156.9157167788658
 40
166.9858629004252
 40
166.9858629004252
 40
179.6361544942798
 40
179.6361544942798
 40
192.2864460881344
 40
192.2864460881344
 40
219.9326264294992
 40
219.9326264294992
 40
219.9326264294992
 40
219.9326264294992
 10
3524.483796546782
 20
42490.12159481757
 30
0.0
 10
3529.526954597016
 20
42490.11501731876
 30
0.0
 10
3534.664935226045
 20
42490.11141275486
 30
0.0
 10
3543.946373270332
 20
42489.5518473427
 30
0.0
 10
3548.090611033579
 20
42489.10320745114
 30
0.0
 10
3553.918008199278
 20
42487.92114372617
 30
0.0
 10
3555.639778041107
 20
42487.50162534726
 30
0.0
 10
3558.199576538591
 20
42486.74803199637
 30
0.0
 10
3559.047702303533
 20
42486.47585473406
 30
0.0
 10
3560.718711862636
 20
42485.89761796562
 30
0.0
 10
3561.544037538306
 20
42485.59111730531
 30
0.0
 10
3563.993158530501
 20
42484.62662523872
 30
0.0
 10
3565.590013958205
 20
42483.92376606587
 30
0.0
 10
3569.423825687638
 20
42482.10735989126
 30
0.0
 10
3571.634683029495
 20
42480.94911257635
 30
0.0
 10
3575.189078456908
 20
42479.00964732846
 30
0.0
 10
3576.541453012803
 20
42478.25319905984
 30
0.0
 10
3578.710945312347
 20
42477.03326751099
 30
0.0
 10
3579.523050752408
 20
42476.57605602586
 30
0.0
 10
3581.17652418643
 20
42475.64341867907
 30
0.0
 10
3582.015012944005
 20
42475.16832467722
 30
0.0
 10
3584.546524146857
 20
42473.70832343376
 30
0.0
 10
3586.255487820269
 20
42472.68927068621
 30
0.0
 10
3589.875825980172
 20
42470.3346030375
 30
0.0
 10
3591.779164275292
 20
42468.97506803547
 30
0.0
 10
3595.357135788044
 20
42465.93585876907
 30
0.0
 10
3597.034876336486
 20
42464.25410300057
 30
0.0
 10
3599.08884142594
 20
42461.5444911038
 30
0.0
 10
3599.65095915845
 20
42460.71085814632
 30
0.0
 10
3600.510055658025
 20
42459.23810974302
 30
0.0
 10
3600.834634197402
 20
42458.62129698679
 30
0.0
 10
3601.427328265013
 20
42457.35137085627
 30
0.0
 10
3601.690941997825
 20
42456.70844161056
 30
0.0
 10
3602.39374266863
 20
42454.76545012535
 30
0.0
 10
3602.745030820074
 20
42453.45189322342
 30
0.0
 10
3603.271655026347
 20
42450.81952146689
 30
0.0
 10
3603.447236580319
 20
42449.50021641028
 30
0.0
 10
3603.803379502919
 20
42445.38929236325
 30
0.0
 10
3603.770317554079
 20
42442.61183371178
 30
0.0
 10
3603.602301311373
 20
42438.69136788437
 30
0.0
 10
3603.532206128423
 20
42437.48611190025
 30
0.0
 10
3603.404200907241
 20
42435.41233995959
 30
0.0
 10
3603.348787218725
 20
42434.53634279434
 30
0.0
 10
3603.236122398008
 20
42432.77582640502
 30
0.0
 10
3603.178321628454
 20
42431.89569569133
 30
0.0
 10
3602.993228504614
 20
42429.25575756904
 30
0.0
 10
3602.854336274056
 20
42427.49638040736
 30
0.0
 10
3602.393042031076
 20
42422.85673714895
 30
0.0
 10
3602.010602416542
 20
42419.97720100786
 30
0.0
 10
3601.168286491915
 20
42415.78439225894
 30
0.0
 10
3600.861328323289
 20
42414.46433572711
 30
0.0
 10
3600.257252554194
 20
42412.24588314888
 30
0.0
 10
3599.987358951169
 20
42411.34538205067
 30
0.0
 10
3599.425147456335
 20
42409.6475950296
 30
0.0
 10
3599.138148644455
 20
42408.8516254732
 30
0.0
 10
3598.533780897395
 20
42407.28945950601
 30
0.0
 10
3598.21563083647
 20
42406.52001230388
 30
0.0
 10
3597.224297599907
 20
42404.24286021344
 30
0.0
 10
3596.514413632347
 20
42402.76629638726
 30
0.0
 10
3594.392961330164
 20
42398.57805786923
 30
0.0
 10
3592.924800031513
 20
42395.94615840309
 30
0.0
 10
3590.893449984894
 20
42392.16789689329
 30
0.0
 10
3590.265400500189
 20
42390.97918871161
 30
0.0
 10
3589.305184072395
 20
42389.07644634346
 30
0.0
 10
3588.953336499809
 20
42388.35842523985
 30
0.0
 10
3588.277681678499
 20
42386.92224606863
 30
0.0
 10
3587.951096445569
 20
42386.19882906948
 30
0.0
 10
3587.003972430335
 20
42384.01342973512
 30
0.0
 10
3586.416062354545
 20
42382.53628688243
 30
0.0
 10
3584.774265058301
 20
42378.05135372123
 30
0.0
 10
3583.842338745863
 20
42374.9899160262
 30
0.0
 10
3582.055307521468
 20
42367.96889350783
 30
0.0
 10
3581.281302929396
 20
42363.98140578216
 30
0.0
 10
3580.081451061572
 20
42355.93316823557
 30
0.0
 10
3579.655003076807
 20
42351.86704373104
 30
0.0
 10
3578.68186751737
 20
42338.79659602094
 30
0.0
 10
3578.5949153887
 20
42329.6524137487
 30
0.0
 10
3578.510569505372
 20
42320.40015005855
 30
0.0
  0
LINE
  5
745A
330
2
100
AcDbEntity
  8
Steel
100
AcDbLine
 10
3545.227275342021
 20
42489.34541544215
 30
0.0
 11
3545.227275342021
 21
42653.79119315779
 31
0.0
  0
LINE
  5
745B
330
2
100
AcDbEntity
  8
Steel
100
AcDbLine
 10
3544.477275342023
 20
42489.42553403169
 30
0.0
 11
3544.477275342023
 21
42653.18940902746
 31
0.0
  0
LINE
  5
770B
330
2
100
AcDbEntity
  8
Supercrete
370
    50
100
AcDbLine
 10
3449.47727534207
 20
42537.62159907019
 30
0.0
 11
3449.477275342073
 21
42654.79746876115
 31
0.0
  0
ARC
  5
782D
330
2
100
AcDbEntity
  8
Electrics
100
AcDbCircle
 10
3526.97727534207
 20
42482.62159907018
 30
0.0
 40
2.5
100
AcDbArc
 50
93.31095910842735
 51
180.0
  0
ARC
  5
782E
330
2
100
AcDbEntity
  8
Electrics
100
AcDbCircle
 10
3526.992284118705
 20
42492.62756337216
 30
0.0
 40
2.515015848747681
100
AcDbArc
 50
180.1358757446959
 51
266.3658021321162
  0
HATCH
  5
7843
330
2
100
AcDbEntity
  8
Fastenings and sealants
100
AcDbHatch
 10
0.0
 20
0.0
 30
0.0
210
0.0
220
0.0
230
1.0
  2
SOLID
 70
     1
 71
     0
 91
        2
 92
        1
 93
      260
 72
     1
 10
3494.477275342069
 20
42485.12159907019
 11
3494.477275342069
 21
42482.62159907019
 72
     1
 10
3494.477275342069
 20
42482.62159907019
 11
3524.47727534207
 21
42482.62159907018
 72
     2
 10
3526.977275342068
 20
42482.6215990702
 40
2.499999999998171
 50
179.9999999996664
 51
266.6890408916878
 73
     0
 72
     1
 10
3526.832887888909
 20
42485.11742604003
 11
3526.823689246319
 21
42485.11745088628
 72
     1
 10
3526.823689246319
 20
42485.11745088628
 11
3526.814490568869
 21
42485.11747563219
 72
     1
 10
3526.814490568869
 20
42485.11747563219
 11
3526.805291856696
 21
42485.11750027815
 72
     1
 10
3526.805291856696
 20
42485.11750027815
 11
3526.796093109935
 21
42485.11752482457
 72
     1
 10
3526.796093109935
 20
42485.11752482457
 11
3526.786894328725
 21
42485.11754927183
 72
     1
 10
3526.786894328725
 20
42485.11754927183
 11
3526.777695513202
 21
42485.11757362033
 72
     1
 10
3526.777695513202
 20
42485.11757362033
 11
3526.768496663501
 21
42485.11759787045
 72
     1
 10
3526.768496663501
 20
42485.11759787045
 11
3526.759297779761
 21
42485.11762202261
 72
     1
 10
3526.759297779761
 20
42485.11762202261
 11
3526.750098862118
 21
42485.11764607717
 72
     1
 10
3526.750098862118
 20
42485.11764607717
 11
3526.740899910708
 21
42485.11767003455
 72
     1
 10
3526.740899910708
 20
42485.11767003455
 11
3526.731700925669
 21
42485.11769389514
 72
     1
 10
3526.731700925669
 20
42485.11769389514
 11
3526.722501907136
 21
42485.11771765931
 72
     1
 10
3526.722501907136
 20
42485.11771765931
 11
3526.713302855248
 21
42485.11774132749
 72
     1
 10
3526.713302855248
 20
42485.11774132749
 11
3526.704103770139
 21
42485.11776490005
 72
     1
 10
3526.704103770139
 20
42485.11776490005
 11
3526.694904651948
 21
42485.11778837739
 72
     1
 10
3526.694904651948
 20
42485.11778837739
 11
3526.68570550081
 21
42485.1178117599
 72
     1
 10
3526.68570550081
 20
42485.1178117599
 11
3526.676506316863
 21
42485.11783504797
 72
     1
 10
3526.676506316863
 20
42485.11783504797
 11
3526.667307100242
 21
42485.117858242
 72
     1
 10
3526.667307100242
 20
42485.117858242
 11
3526.658107851086
 21
42485.11788134239
 72
     1
 10
3526.658107851086
 20
42485.11788134239
 11
3526.64890856953
 21
42485.11790434952
 72
     1
 10
3526.64890856953
 20
42485.11790434952
 11
3526.639709255712
 21
42485.1179272638
 72
     1
 10
3526.639709255712
 20
42485.1179272638
 11
3526.630509909768
 21
42485.1179500856
 72
     1
 10
3526.630509909768
 20
42485.1179500856
 11
3526.621310531834
 21
42485.11797281532
 72
     1
 10
3526.621310531834
 20
42485.11797281532
 11
3526.612111122048
 21
42485.11799545338
 72
     1
 10
3526.612111122048
 20
42485.11799545338
 11
3526.602911680546
 21
42485.11801800014
 72
     1
 10
3526.602911680546
 20
42485.11801800014
 11
3526.593712207465
 21
42485.11804045601
 72
     1
 10
3526.593712207465
 20
42485.11804045601
 11
3526.584512702941
 21
42485.11806282138
 72
     1
 10
3526.584512702941
 20
42485.11806282138
 11
3526.575313167111
 21
42485.11808509665
 72
     1
 10
3526.575313167111
 20
42485.11808509665
 11
3526.566113600113
 21
42485.11810728219
 72
     1
 10
3526.566113600113
 20
42485.11810728219
 11
3526.556914002082
 21
42485.11812937842
 72
     1
 10
3526.556914002082
 20
42485.11812937842
 11
3526.547714373155
 21
42485.11815138573
 72
     1
 10
3526.547714373155
 20
42485.11815138573
 11
3526.53851471347
 21
42485.11817330451
 72
     1
 10
3526.53851471347
 20
42485.11817330451
 11
3526.529315023162
 21
42485.11819513514
 72
     1
 10
3526.529315023162
 20
42485.11819513514
 11
3526.520115302369
 21
42485.11821687802
 72
     1
 10
3526.520115302369
 20
42485.11821687802
 11
3526.510915551226
 21
42485.11823853356
 72
     1
 10
3526.510915551226
 20
42485.11823853356
 11
3526.501715769872
 21
42485.11826010214
 72
     1
 10
3526.501715769872
 20
42485.11826010214
 11
3526.492515958443
 21
42485.11828158416
 72
     1
 10
3526.492515958443
 20
42485.11828158416
 11
3526.483316117074
 21
42485.11830298
 72
     1
 10
3526.483316117074
 20
42485.11830298
 11
3526.474116245904
 21
42485.11832429007
 72
     1
 10
3526.474116245904
 20
42485.11832429007
 11
3526.464916345068
 21
42485.11834551473
 72
     1
 10
3526.464916345068
 20
42485.11834551473
 11
3526.455716414704
 21
42485.11836665443
 72
     1
 10
3526.455716414704
 20
42485.11836665443
 11
3526.446516454948
 21
42485.11838770951
 72
     1
 10
3526.446516454948
 20
42485.11838770951
 11
3526.437316465937
 21
42485.1184086804
 72
     1
 10
3526.437316465937
 20
42485.1184086804
 11
3526.428116447807
 21
42485.11842956748
 72
     1
 10
3526.428116447807
 20
42485.11842956748
 11
3526.418916400696
 21
42485.11845037114
 72
     1
 10
3526.418916400696
 20
42485.11845037114
 11
3526.409716324739
 21
42485.11847109177
 72
     1
 10
3526.409716324739
 20
42485.11847109177
 11
3526.400516220075
 21
42485.11849172977
 72
     1
 10
3526.400516220075
 20
42485.11849172977
 11
3526.391316086838
 21
42485.11851228554
 72
     1
 10
3526.391316086838
 20
42485.11851228554
 11
3526.382115925167
 21
42485.11853275946
 72
     1
 10
3526.382115925167
 20
42485.11853275946
 11
3526.372915735197
 21
42485.11855315194
 72
     1
 10
3526.372915735197
 20
42485.11855315194
 11
3526.363715517066
 21
42485.11857346336
 72
     1
 10
3526.363715517066
 20
42485.11857346336
 11
3526.35451527091
 21
42485.11859369411
 72
     1
 10
3526.35451527091
 20
42485.11859369411
 11
3526.345314996865
 21
42485.1186138446
 72
     1
 10
3526.345314996865
 20
42485.1186138446
 11
3526.33611469507
 21
42485.11863391521
 72
     1
 10
3526.33611469507
 20
42485.11863391521
 11
3526.32691436566
 21
42485.11865390633
 72
     1
 10
3526.32691436566
 20
42485.11865390633
 11
3526.317714008772
 21
42485.11867381838
 72
     1
 10
3526.317714008772
 20
42485.11867381838
 11
3526.308513624542
 21
42485.11869365172
 72
     1
 10
3526.308513624542
 20
42485.11869365172
 11
3526.299313213109
 21
42485.11871340675
 72
     1
 10
3526.299313213109
 20
42485.11871340675
 11
3526.290112774607
 21
42485.11873308389
 72
     1
 10
3526.290112774607
 20
42485.11873308389
 11
3526.280912309174
 21
42485.1187526835
 72
     1
 10
3526.280912309174
 20
42485.1187526835
 11
3526.271711816946
 21
42485.118772206
 72
     1
 10
3526.271711816946
 20
42485.118772206
 11
3526.262511298061
 21
42485.11879165177
 72
     1
 10
3526.262511298061
 20
42485.11879165177
 11
3526.253310752655
 21
42485.1188110212
 72
     1
 10
3526.253310752655
 20
42485.1188110212
 11
3526.244110180864
 21
42485.11883031469
 72
     1
 10
3526.244110180864
 20
42485.11883031469
 11
3526.234909582826
 21
42485.11884953264
 72
     1
 10
3526.234909582826
 20
42485.11884953264
 11
3526.225708958677
 21
42485.11886867543
 72
     1
 10
3526.225708958677
 20
42485.11886867543
 11
3526.216508308554
 21
42485.11888774346
 72
     1
 10
3526.216508308554
 20
42485.11888774346
 11
3526.207307632593
 21
42485.11890673712
 72
     1
 10
3526.207307632593
 20
42485.11890673712
 11
3526.198106930931
 21
42485.11892565681
 72
     1
 10
3526.198106930931
 20
42485.11892565681
 11
3526.188906203705
 21
42485.11894450292
 72
     1
 10
3526.188906203705
 20
42485.11894450292
 11
3526.179705451052
 21
42485.11896327584
 72
     1
 10
3526.179705451052
 20
42485.11896327584
 11
3526.170504673108
 21
42485.11898197596
 72
     1
 10
3526.170504673108
 20
42485.11898197596
 11
3526.161303870011
 21
42485.11900060369
 72
     1
 10
3526.161303870011
 20
42485.11900060369
 11
3526.152103041895
 21
42485.11901915941
 72
     1
 10
3526.152103041895
 20
42485.11901915941
 11
3526.1429021889
 21
42485.11903764352
 72
     1
 10
3526.1429021889
 20
42485.11903764352
 11
3526.13370131116
 21
42485.11905605641
 72
     1
 10
3526.13370131116
 20
42485.11905605641
 11
3526.124500408813
 21
42485.11907439848
 72
     1
 10
3526.124500408813
 20
42485.11907439848
 11
3526.115299481997
 21
42485.1190926701
 72
     1
 10
3526.115299481997
 20
42485.1190926701
 11
3526.106098530846
 21
42485.11911087169
 72
     1
 10
3526.106098530846
 20
42485.11911087169
 11
3526.096897555497
 21
42485.11912900364
 72
     1
 10
3526.096897555497
 20
42485.11912900364
 11
3526.087696556089
 21
42485.11914706634
 72
     1
 10
3526.087696556089
 20
42485.11914706634
 11
3526.078495532757
 21
42485.11916506017
 72
     1
 10
3526.078495532757
 20
42485.11916506017
 11
3526.069294485639
 21
42485.11918298555
 72
     1
 10
3526.069294485639
 20
42485.11918298555
 11
3526.06009341487
 21
42485.11920084284
 72
     1
 10
3526.06009341487
 20
42485.11920084284
 11
3526.050892320587
 21
42485.11921863246
 72
     1
 10
3526.050892320587
 20
42485.11921863246
 11
3526.041691202929
 21
42485.1192363548
 72
     1
 10
3526.041691202929
 20
42485.1192363548
 11
3526.032490062029
 21
42485.11925401024
 72
     1
 10
3526.032490062029
 20
42485.11925401024
 11
3526.023288898026
 21
42485.11927159919
 72
     1
 10
3526.023288898026
 20
42485.11927159919
 11
3526.014087711057
 21
42485.11928912203
 72
     1
 10
3526.014087711057
 20
42485.11928912203
 11
3526.004886501257
 21
42485.11930657916
 72
     1
 10
3526.004886501257
 20
42485.11930657916
 11
3525.995685268764
 21
42485.11932397098
 72
     1
 10
3525.995685268764
 20
42485.11932397098
 11
3525.986484013716
 21
42485.11934129787
 72
     1
 10
3525.986484013716
 20
42485.11934129787
 11
3525.977282736246
 21
42485.11935856024
 72
     1
 10
3525.977282736246
 20
42485.11935856024
 11
3525.968081436494
 21
42485.11937575846
 72
     1
 10
3525.968081436494
 20
42485.11937575846
 11
3525.958880114596
 21
42485.11939289294
 72
     1
 10
3525.958880114596
 20
42485.11939289294
 11
3525.949678770688
 21
42485.11940996407
 72
     1
 10
3525.949678770688
 20
42485.11940996407
 11
3525.940477404907
 21
42485.11942697224
 72
     1
 10
3525.940477404907
 20
42485.11942697224
 11
3525.931276017388
 21
42485.11944391785
 72
     1
 10
3525.931276017388
 20
42485.11944391785
 11
3525.922074608271
 21
42485.1194608013
 72
     1
 10
3525.922074608271
 20
42485.1194608013
 11
3525.912873177691
 21
42485.11947762296
 72
     1
 10
3525.912873177691
 20
42485.11947762296
 11
3525.903671725785
 21
42485.11949438325
 72
     1
 10
3525.903671725785
 20
42485.11949438325
 11
3525.894470252689
 21
42485.11951108254
 72
     1
 10
3525.894470252689
 20
42485.11951108254
 11
3525.88526875854
 21
42485.11952772124
 72
     1
 10
3525.88526875854
 20
42485.11952772124
 11
3525.876067243475
 21
42485.11954429974
 72
     1
 10
3525.876067243475
 20
42485.11954429974
 11
3525.866865707631
 21
42485.11956081843
 72
     1
 10
3525.866865707631
 20
42485.11956081843
 11
3525.857664151145
 21
42485.1195772777
 72
     1
 10
3525.857664151145
 20
42485.1195772777
 11
3525.848462574152
 21
42485.11959367796
 72
     1
 10
3525.848462574152
 20
42485.11959367796
 11
3525.83926097679
 21
42485.11961001958
 72
     1
 10
3525.83926097679
 20
42485.11961001958
 11
3525.830059359196
 21
42485.11962630296
 72
     1
 10
3525.830059359196
 20
42485.11962630296
 11
3525.820857721505
 21
42485.11964252852
 72
     1
 10
3525.820857721505
 20
42485.11964252852
 11
3525.811656063856
 21
42485.11965869662
 72
     1
 10
3525.811656063856
 20
42485.11965869662
 11
3525.802454386383
 21
42485.11967480767
 72
     1
 10
3525.802454386383
 20
42485.11967480767
 11
3525.793252689226
 21
42485.11969086205
 72
     1
 10
3525.793252689226
 20
42485.11969086205
 11
3525.784050972519
 21
42485.11970686017
 72
     1
 10
3525.784050972519
 20
42485.11970686017
 11
3525.7748492364
 21
42485.11972280241
 72
     1
 10
3525.7748492364
 20
42485.11972280241
 11
3525.765647481005
 21
42485.11973868918
 72
     1
 10
3525.765647481005
 20
42485.11973868918
 11
3525.756445706472
 21
42485.11975452085
 72
     1
 10
3525.756445706472
 20
42485.11975452085
 11
3525.747243912937
 21
42485.11977029783
 72
     1
 10
3525.747243912937
 20
42485.11977029783
 11
3525.738042100535
 21
42485.11978602052
 72
     1
 10
3525.738042100535
 20
42485.11978602052
 11
3525.728840269405
 21
42485.1198016893
 72
     1
 10
3525.728840269405
 20
42485.1198016893
 11
3525.719638419683
 21
42485.11981730456
 72
     1
 10
3525.719638419683
 20
42485.11981730456
 11
3525.710436551506
 21
42485.11983286671
 72
     1
 10
3525.710436551506
 20
42485.11983286671
 11
3525.70123466501
 21
42485.11984837613
 72
     1
 10
3525.70123466501
 20
42485.11984837613
 11
3525.692032760332
 21
42485.11986383321
 72
     1
 10
3525.692032760332
 20
42485.11986383321
 11
3525.68283083761
 21
42485.11987923836
 72
     1
 10
3525.68283083761
 20
42485.11987923836
 11
3525.673628896977
 21
42485.11989459196
 72
     1
 10
3525.673628896977
 20
42485.11989459196
 11
3525.664426938573
 21
42485.11990989441
 72
     1
 10
3525.664426938573
 20
42485.11990989441
 11
3525.655224962535
 21
42485.1199251461
 72
     1
 10
3525.655224962535
 20
42485.1199251461
 11
3525.646022968998
 21
42485.11994034743
 72
     1
 10
3525.646022968998
 20
42485.11994034743
 11
3525.636820958099
 21
42485.11995549879
 72
     1
 10
3525.636820958099
 20
42485.11995549879
 11
3525.627618929976
 21
42485.11997060056
 72
     1
 10
3525.627618929976
 20
42485.11997060056
 11
3525.618416884763
 21
42485.11998565316
 72
     1
 10
3525.618416884763
 20
42485.11998565316
 11
3525.6092148226
 21
42485.12000065695
 72
     1
 10
3525.6092148226
 20
42485.12000065695
 11
3525.60001274362
 21
42485.12001561236
 72
     1
 10
3525.60001274362
 20
42485.12001561236
 11
3525.590810647964
 21
42485.12003051975
 72
     1
 10
3525.590810647964
 20
42485.12003051975
 11
3525.581608535766
 21
42485.12004537954
 72
     1
 10
3525.581608535766
 20
42485.12004537954
 11
3525.572406407162
 21
42485.12006019211
 72
     1
 10
3525.572406407162
 20
42485.12006019211
 11
3525.563204262291
 21
42485.12007495786
 72
     1
 10
3525.563204262291
 20
42485.12007495786
 11
3525.554002101289
 21
42485.12008967718
 72
     1
 10
3525.554002101289
 20
42485.12008967718
 11
3525.544799924292
 21
42485.12010435046
 72
     1
 10
3525.544799924292
 20
42485.12010435046
 11
3525.535597731437
 21
42485.12011897809
 72
     1
 10
3525.535597731437
 20
42485.12011897809
 11
3525.526395522861
 21
42485.12013356048
 72
     1
 10
3525.526395522861
 20
42485.12013356048
 11
3525.5171932987
 21
42485.12014809802
 72
     1
 10
3525.5171932987
 20
42485.12014809802
 11
3525.507991059092
 21
42485.12016259108
 72
     1
 10
3525.507991059092
 20
42485.12016259108
 11
3525.498788804172
 21
42485.12017704007
 72
     1
 10
3525.498788804172
 20
42485.12017704007
 11
3525.489586534077
 21
42485.1201914454
 72
     1
 10
3525.489586534077
 20
42485.1201914454
 11
3525.480384248946
 21
42485.12020580743
 72
     1
 10
3525.480384248946
 20
42485.12020580743
 11
3525.471181948912
 21
42485.12022012658
 72
     1
 10
3525.471181948912
 20
42485.12022012658
 11
3525.461979634116
 21
42485.12023440324
 72
     1
 10
3525.461979634116
 20
42485.12023440324
 11
3525.452777304691
 21
42485.12024863779
 72
     1
 10
3525.452777304691
 20
42485.12024863779
 11
3525.443574960775
 21
42485.12026283063
 72
     1
 10
3525.443574960775
 20
42485.12026283063
 11
3525.434372602506
 21
42485.12027698216
 72
     1
 10
3525.434372602506
 20
42485.12027698216
 11
3525.425170230018
 21
42485.12029109277
 72
     1
 10
3525.425170230018
 20
42485.12029109277
 11
3525.41596784345
 21
42485.12030516285
 72
     1
 10
3525.41596784345
 20
42485.12030516285
 11
3525.406765442938
 21
42485.12031919279
 72
     1
 10
3525.406765442938
 20
42485.12031919279
 11
3525.397563028619
 21
42485.12033318299
 72
     1
 10
3525.397563028619
 20
42485.12033318299
 11
3525.388360600628
 21
42485.12034713385
 72
     1
 10
3525.388360600628
 20
42485.12034713385
 11
3525.379158159104
 21
42485.12036104575
 72
     1
 10
3525.379158159104
 20
42485.12036104575
 11
3525.369955704184
 21
42485.12037491909
 72
     1
 10
3525.369955704184
 20
42485.12037491909
 11
3525.360753236002
 21
42485.12038875426
 72
     1
 10
3525.360753236002
 20
42485.12038875426
 11
3525.351550754696
 21
42485.12040255166
 72
     1
 10
3525.351550754696
 20
42485.12040255166
 11
3525.342348260404
 21
42485.12041631168
 72
     1
 10
3525.342348260404
 20
42485.12041631168
 11
3525.33314575326
 21
42485.12043003471
 72
     1
 10
3525.33314575326
 20
42485.12043003471
 11
3525.323943233404
 21
42485.12044372115
 72
     1
 10
3525.323943233404
 20
42485.12044372115
 11
3525.31474070097
 21
42485.12045737139
 72
     1
 10
3525.31474070097
 20
42485.12045737139
 11
3525.305538156096
 21
42485.12047098582
 72
     1
 10
3525.305538156096
 20
42485.12047098582
 11
3525.296335598918
 21
42485.12048456484
 72
     1
 10
3525.296335598918
 20
42485.12048456484
 11
3525.287133029574
 21
42485.12049810885
 72
     1
 10
3525.287133029574
 20
42485.12049810885
 11
3525.277930448199
 21
42485.12051161822
 72
     1
 10
3525.277930448199
 20
42485.12051161822
 11
3525.268727854931
 21
42485.12052509335
 72
     1
 10
3525.268727854931
 20
42485.12052509335
 11
3525.259525249906
 21
42485.12053853465
 72
     1
 10
3525.259525249906
 20
42485.12053853465
 11
3525.250322633262
 21
42485.12055194251
 72
     1
 10
3525.250322633262
 20
42485.12055194251
 11
3525.241120005134
 21
42485.12056531732
 72
     1
 10
3525.241120005134
 20
42485.12056531732
 11
3525.231917365658
 21
42485.12057865946
 72
     1
 10
3525.231917365658
 20
42485.12057865946
 11
3525.222714714974
 21
42485.12059196935
 72
     1
 10
3525.222714714974
 20
42485.12059196935
 11
3525.213512053216
 21
42485.12060524735
 72
     1
 10
3525.213512053216
 20
42485.12060524735
 11
3525.204309380522
 21
42485.12061849388
 72
     1
 10
3525.204309380522
 20
42485.12061849388
 11
3525.195106697027
 21
42485.12063170933
 72
     1
 10
3525.195106697027
 20
42485.12063170933
 11
3525.18590400287
 21
42485.12064489409
 72
     1
 10
3525.18590400287
 20
42485.12064489409
 11
3525.176701298186
 21
42485.12065804853
 72
     1
 10
3525.176701298186
 20
42485.12065804853
 11
3525.167498583112
 21
42485.12067117309
 72
     1
 10
3525.167498583112
 20
42485.12067117309
 11
3525.158295857786
 21
42485.12068426813
 72
     1
 10
3525.158295857786
 20
42485.12068426813
 11
3525.149093122343
 21
42485.12069733406
 72
     1
 10
3525.149093122343
 20
42485.12069733406
 11
3525.139890376921
 21
42485.12071037126
 72
     1
 10
3525.139890376921
 20
42485.12071037126
 11
3525.130687621655
 21
42485.12072338012
 72
     1
 10
3525.130687621655
 20
42485.12072338012
 11
3525.121484856685
 21
42485.12073636105
 72
     1
 10
3525.121484856685
 20
42485.12073636105
 11
3525.112282082144
 21
42485.12074931445
 72
     1
 10
3525.112282082144
 20
42485.12074931445
 11
3525.10307929817
 21
42485.12076224069
 72
     1
 10
3525.10307929817
 20
42485.12076224069
 11
3525.093876504901
 21
42485.12077514017
 72
     1
 10
3525.093876504901
 20
42485.12077514017
 11
3525.084673702472
 21
42485.12078801329
 72
     1
 10
3525.084673702472
 20
42485.12078801329
 11
3525.075470891021
 21
42485.12080086044
 72
     1
 10
3525.075470891021
 20
42485.12080086044
 11
3525.066268070683
 21
42485.12081368202
 72
     1
 10
3525.066268070683
 20
42485.12081368202
 11
3525.057065241597
 21
42485.12082647841
 72
     1
 10
3525.057065241597
 20
42485.12082647841
 11
3525.047862403897
 21
42485.12083925001
 72
     1
 10
3525.047862403897
 20
42485.12083925001
 11
3525.038659557722
 21
42485.12085199722
 72
     1
 10
3525.038659557722
 20
42485.12085199722
 11
3525.029456703208
 21
42485.12086472042
 72
     1
 10
3525.029456703208
 20
42485.12086472042
 11
3525.020253840492
 21
42485.12087742002
 72
     1
 10
3525.020253840492
 20
42485.12087742002
 11
3525.011050969709
 21
42485.1208900964
 72
     1
 10
3525.011050969709
 20
42485.1208900964
 11
3525.001848090999
 21
42485.12090274996
 72
     1
 10
3525.001848090999
 20
42485.12090274996
 11
3524.992645204496
 21
42485.1209153811
 72
     1
 10
3524.992645204496
 20
42485.1209153811
 11
3524.983442310337
 21
42485.12092799019
 72
     1
 10
3524.983442310337
 20
42485.12092799019
 11
3524.974239408659
 21
42485.12094057765
 72
     1
 10
3524.974239408659
 20
42485.12094057765
 11
3524.9650364996
 21
42485.12095314386
 72
     1
 10
3524.9650364996
 20
42485.12095314386
 11
3524.955833583294
 21
42485.12096568921
 72
     1
 10
3524.955833583294
 20
42485.12096568921
 11
3524.94663065988
 21
42485.12097821411
 72
     1
 10
3524.94663065988
 20
42485.12097821411
 11
3524.937427729494
 21
42485.12099071893
 72
     1
 10
3524.937427729494
 20
42485.12099071893
 11
3524.928224792273
 21
42485.12100320408
 72
     1
 10
3524.928224792273
 20
42485.12100320408
 11
3524.919021848353
 21
42485.12101566995
 72
     1
 10
3524.919021848353
 20
42485.12101566995
 11
3524.909818897871
 21
42485.12102811694
 72
     1
 10
3524.909818897871
 20
42485.12102811694
 11
3524.900615940963
 21
42485.12104054542
 72
     1
 10
3524.900615940963
 20
42485.12104054542
 11
3524.891412977768
 21
42485.12105295582
 72
     1
 10
3524.891412977768
 20
42485.12105295582
 11
3524.882210008421
 21
42485.1210653485
 72
     1
 10
3524.882210008421
 20
42485.1210653485
 11
3524.873007033058
 21
42485.12107772387
 72
     1
 10
3524.873007033058
 20
42485.12107772387
 11
3524.863804051817
 21
42485.12109008233
 72
     1
 10
3524.863804051817
 20
42485.12109008233
 11
3524.854601064835
 21
42485.12110242425
 72
     1
 10
3524.854601064835
 20
42485.12110242425
 11
3524.845398072248
 21
42485.12111475004
 72
     1
 10
3524.845398072248
 20
42485.12111475004
 11
3524.836195074192
 21
42485.12112706009
 72
     1
 10
3524.836195074192
 20
42485.12112706009
 11
3524.826992070804
 21
42485.12113935481
 72
     1
 10
3524.826992070804
 20
42485.12113935481
 11
3524.817789062222
 21
42485.12115163456
 72
     1
 10
3524.817789062222
 20
42485.12115163456
 11
3524.808586048582
 21
42485.12116389976
 72
     1
 10
3524.808586048582
 20
42485.12116389976
 11
3524.79938303002
 21
42485.12117615079
 72
     1
 10
3524.79938303002
 20
42485.12117615079
 11
3524.790180006674
 21
42485.12118838805
 72
     1
 10
3524.790180006674
 20
42485.12118838805
 11
3524.78097697868
 21
42485.12120061193
 72
     1
 10
3524.78097697868
 20
42485.12120061193
 11
3524.771773946174
 21
42485.12121282283
 72
     1
 10
3524.771773946174
 20
42485.12121282283
 11
3524.762570909293
 21
42485.12122502114
 72
     1
 10
3524.762570909293
 20
42485.12122502114
 11
3524.753367868175
 21
42485.12123720725
 72
     1
 10
3524.753367868175
 20
42485.12123720725
 11
3524.744164822955
 21
42485.12124938155
 72
     1
 10
3524.744164822955
 20
42485.12124938155
 11
3524.734961773772
 21
42485.12126154444
 72
     1
 10
3524.734961773772
 20
42485.12126154444
 11
3524.72575872076
 21
42485.12127369632
 72
     1
 10
3524.72575872076
 20
42485.12127369632
 11
3524.716555664058
 21
42485.12128583758
 72
     1
 10
3524.716555664058
 20
42485.12128583758
 11
3524.7073526038
 21
42485.1212979686
 72
     1
 10
3524.7073526038
 20
42485.1212979686
 11
3524.698149540126
 21
42485.12131008978
 72
     1
 10
3524.698149540126
 20
42485.12131008978
 11
3524.68894647317
 21
42485.12132220152
 72
     1
 10
3524.68894647317
 20
42485.12132220152
 11
3524.67974340307
 21
42485.12133430422
 72
     1
 10
3524.67974340307
 20
42485.12133430422
 11
3524.670540329962
 21
42485.12134639825
 72
     1
 10
3524.670540329962
 20
42485.12134639825
 11
3524.661337253984
 21
42485.12135848402
 72
     1
 10
3524.661337253984
 20
42485.12135848402
 11
3524.652134175272
 21
42485.12137056192
 72
     1
 10
3524.652134175272
 20
42485.12137056192
 11
3524.642931093962
 21
42485.12138263235
 72
     1
 10
3524.642931093962
 20
42485.12138263235
 11
3524.63372801019
 21
42485.12139469569
 72
     1
 10
3524.63372801019
 20
42485.12139469569
 11
3524.624524924096
 21
42485.12140675235
 72
     1
 10
3524.624524924096
 20
42485.12140675235
 11
3524.615321835814
 21
42485.1214188027
 72
     1
 10
3524.615321835814
 20
42485.1214188027
 11
3524.606118745481
 21
42485.12143084717
 72
     1
 10
3524.606118745481
 20
42485.12143084717
 11
3524.596915653236
 21
42485.12144288611
 72
     1
 10
3524.596915653236
 20
42485.12144288611
 11
3524.587712559212
 21
42485.12145491995
 72
     1
 10
3524.587712559212
 20
42485.12145491995
 11
3524.578509463548
 21
42485.12146694905
 72
     1
 10
3524.578509463548
 20
42485.12146694905
 11
3524.56930636638
 21
42485.12147897384
 72
     1
 10
3524.56930636638
 20
42485.12147897384
 11
3524.560103267845
 21
42485.12149099468
 72
     1
 10
3524.560103267845
 20
42485.12149099468
 11
3524.55090016808
 21
42485.121503012
 72
     1
 10
3524.55090016808
 20
42485.121503012
 11
3524.541697067221
 21
42485.12151502615
 72
     1
 10
3524.541697067221
 20
42485.12151502615
 11
3524.532493965405
 21
42485.12152703756
 72
     1
 10
3524.532493965405
 20
42485.12152703756
 11
3524.523290862769
 21
42485.1215390466
 72
     1
 10
3524.523290862769
 20
42485.1215390466
 11
3524.514087759449
 21
42485.12155105368
 72
     1
 10
3524.514087759449
 20
42485.12155105368
 11
3524.504884655583
 21
42485.12156305918
 72
     1
 10
3524.504884655583
 20
42485.12156305918
 11
3524.495681551306
 21
42485.1215750635
 72
     1
 10
3524.495681551306
 20
42485.1215750635
 11
3524.486478446756
 21
42485.12158706704
 72
     1
 10
3524.486478446756
 20
42485.12158706704
 11
3524.477275336953
 21
42485.12159907019
 72
     1
 10
3524.477275336953
 20
42485.12159907019
 11
3494.477275342069
 21
42485.12159907019
 97
        0
 92
        1
 93
      261
 72
     1
 10
3494.477275342068
 20
42492.62159907019
 11
3494.477275342068
 21
42490.12159907018
 72
     1
 10
3494.477275342068
 20
42490.12159907018
 11
3524.480537436788
 21
42490.12159907018
 72
     1
 10
3524.480537436788
 20
42490.12159907018
 11
3524.483796546782
 21
42490.12159481757
 72
     1
 10
3524.483796546782
 20
42490.12159481757
 11
3524.492947390593
 21
42490.12158288597
 72
     1
 10
3524.492947390593
 20
42490.12158288597
 11
3524.502098442412
 21
42490.12157096051
 72
     1
 10
3524.502098442412
 20
42490.12157096051
 11
3524.511249702114
 21
42490.12155904074
 72
     1
 10
3524.511249702114
 20
42490.12155904074
 11
3524.520401169578
 21
42490.12154712627
 72
     1
 10
3524.520401169578
 20
42490.12154712627
 11
3524.529552844685
 21
42490.12153521667
 72
     1
 10
3524.529552844685
 20
42490.12153521667
 11
3524.538704727312
 21
42490.12152331156
 72
     1
 10
3524.538704727312
 20
42490.12152331156
 11
3524.547856817339
 21
42490.1215114105
 72
     1
 10
3524.547856817339
 20
42490.1215114105
 11
3524.557009114643
 21
42490.12149951309
 72
     1
 10
3524.557009114643
 20
42490.12149951309
 11
3524.566161619105
 21
42490.12148761893
 72
     1
 10
3524.566161619105
 20
42490.12148761893
 11
3524.575314330602
 21
42490.12147572758
 72
     1
 10
3524.575314330602
 20
42490.12147572758
 11
3524.584467249013
 21
42490.12146383867
 72
     1
 10
3524.584467249013
 20
42490.12146383867
 11
3524.593620374218
 21
42490.12145195176
 72
     1
 10
3524.593620374218
 20
42490.12145195176
 11
3524.602773706094
 21
42490.12144006645
 72
     1
 10
3524.602773706094
 20
42490.12144006645
 11
3524.611927244521
 21
42490.12142818232
 72
     1
 10
3524.611927244521
 20
42490.12142818232
 11
3524.621080989377
 21
42490.12141629897
 72
     1
 10
3524.621080989377
 20
42490.12141629897
 11
3524.630234940542
 21
42490.12140441599
 72
     1
 10
3524.630234940542
 20
42490.12140441599
 11
3524.639389097893
 21
42490.12139253295
 72
     1
 10
3524.639389097893
 20
42490.12139253295
 11
3524.64854346131
 21
42490.12138064947
 72
     1
 10
3524.64854346131
 20
42490.12138064947
 11
3524.657698030672
 21
42490.12136876512
 72
     1
 10
3524.657698030672
 20
42490.12136876512
 11
3524.666852805857
 21
42490.12135687948
 72
     1
 10
3524.666852805857
 20
42490.12135687948
 11
3524.676007786744
 21
42490.12134499216
 72
     1
 10
3524.676007786744
 20
42490.12134499216
 11
3524.685162973212
 21
42490.12133310275
 72
     1
 10
3524.685162973212
 20
42490.12133310275
 11
3524.694318365139
 21
42490.12132121082
 72
     1
 10
3524.694318365139
 20
42490.12132121082
 11
3524.703473962405
 21
42490.12130931597
 72
     1
 10
3524.703473962405
 20
42490.12130931597
 11
3524.712629764888
 21
42490.12129741779
 72
     1
 10
3524.712629764888
 20
42490.12129741779
 11
3524.721785772466
 21
42490.12128551588
 72
     1
 10
3524.721785772466
 20
42490.12128551588
 11
3524.73094198502
 21
42490.1212736098
 72
     1
 10
3524.73094198502
 20
42490.1212736098
 11
3524.740098402426
 21
42490.12126169917
 72
     1
 10
3524.740098402426
 20
42490.12126169917
 11
3524.749255024565
 21
42490.12124978357
 72
     1
 10
3524.749255024565
 20
42490.12124978357
 11
3524.758411851315
 21
42490.12123786258
 72
     1
 10
3524.758411851315
 20
42490.12123786258
 11
3524.767568882554
 21
42490.1212259358
 72
     1
 10
3524.767568882554
 20
42490.1212259358
 11
3524.776726118162
 21
42490.1212140028
 72
     1
 10
3524.776726118162
 20
42490.1212140028
 11
3524.785883558017
 21
42490.1212020632
 72
     1
 10
3524.785883558017
 20
42490.1212020632
 11
3524.795041201998
 21
42490.12119011656
 72
     1
 10
3524.795041201998
 20
42490.12119011656
 11
3524.804199049984
 21
42490.12117816249
 72
     1
 10
3524.804199049984
 20
42490.12117816249
 11
3524.813357101854
 21
42490.12116620058
 72
     1
 10
3524.813357101854
 20
42490.12116620058
 11
3524.822515357485
 21
42490.12115423041
 72
     1
 10
3524.822515357485
 20
42490.12115423041
 11
3524.831673816758
 21
42490.12114225156
 72
     1
 10
3524.831673816758
 20
42490.12114225156
 11
3524.840832479551
 21
42490.12113026363
 72
     1
 10
3524.840832479551
 20
42490.12113026363
 11
3524.849991345742
 21
42490.12111826622
 72
     1
 10
3524.849991345742
 20
42490.12111826622
 11
3524.85915041521
 21
42490.1211062589
 72
     1
 10
3524.85915041521
 20
42490.1211062589
 11
3524.868309687835
 21
42490.12109424127
 72
     1
 10
3524.868309687835
 20
42490.12109424127
 11
3524.877469163494
 21
42490.12108221291
 72
     1
 10
3524.877469163494
 20
42490.12108221291
 11
3524.886628842068
 21
42490.12107017343
 72
     1
 10
3524.886628842068
 20
42490.12107017343
 11
3524.895788723434
 21
42490.12105812241
 72
     1
 10
3524.895788723434
 20
42490.12105812241
 11
3524.904948807471
 21
42490.12104605942
 72
     1
 10
3524.904948807471
 20
42490.12104605942
 11
3524.914109094057
 21
42490.12103398407
 72
     1
 10
3524.914109094057
 20
42490.12103398407
 11
3524.923269583073
 21
42490.12102189595
 72
     1
 10
3524.923269583073
 20
42490.12102189595
 11
3524.932430274396
 21
42490.12100979464
 72
     1
 10
3524.932430274396
 20
42490.12100979464
 11
3524.941591167905
 21
42490.12099767973
 72
     1
 10
3524.941591167905
 20
42490.12099767973
 11
3524.950752263479
 21
42490.12098555081
 72
     1
 10
3524.950752263479
 20
42490.12098555081
 11
3524.959913560998
 21
42490.12097340748
 72
     1
 10
3524.959913560998
 20
42490.12097340748
 11
3524.969075060339
 21
42490.12096124932
 72
     1
 10
3524.969075060339
 20
42490.12096124932
 11
3524.978236761381
 21
42490.12094907591
 72
     1
 10
3524.978236761381
 20
42490.12094907591
 11
3524.987398664003
 21
42490.12093688685
 72
     1
 10
3524.987398664003
 20
42490.12093688685
 11
3524.996560768084
 21
42490.12092468174
 72
     1
 10
3524.996560768084
 20
42490.12092468174
 11
3525.005723073503
 21
42490.12091246016
 72
     1
 10
3525.005723073503
 20
42490.12091246016
 11
3525.014885580139
 21
42490.12090022168
 72
     1
 10
3525.014885580139
 20
42490.12090022168
 11
3525.024048287869
 21
42490.12088796592
 72
     1
 10
3525.024048287869
 20
42490.12088796592
 11
3525.033211196573
 21
42490.12087569245
 72
     1
 10
3525.033211196573
 20
42490.12087569245
 11
3525.04237430613
 21
42490.12086340087
 72
     1
 10
3525.04237430613
 20
42490.12086340087
 11
3525.051537616418
 21
42490.12085109076
 72
     1
 10
3525.051537616418
 20
42490.12085109076
 11
3525.060701127317
 21
42490.12083876172
 72
     1
 10
3525.060701127317
 20
42490.12083876172
 11
3525.069864838705
 21
42490.12082641334
 72
     1
 10
3525.069864838705
 20
42490.12082641334
 11
3525.07902875046
 21
42490.12081404519
 72
     1
 10
3525.07902875046
 20
42490.12081404519
 11
3525.088192862462
 21
42490.12080165687
 72
     1
 10
3525.088192862462
 20
42490.12080165687
 11
3525.09735717459
 21
42490.12078924798
 72
     1
 10
3525.09735717459
 20
42490.12078924798
 11
3525.106521686721
 21
42490.1207768181
 72
     1
 10
3525.106521686721
 20
42490.1207768181
 11
3525.115686398736
 21
42490.12076436682
 72
     1
 10
3525.115686398736
 20
42490.12076436682
 11
3525.124851310511
 21
42490.12075189373
 72
     1
 10
3525.124851310511
 20
42490.12075189373
 11
3525.134016421927
 21
42490.12073939841
 72
     1
 10
3525.134016421927
 20
42490.12073939841
 11
3525.143181732863
 21
42490.12072688047
 72
     1
 10
3525.143181732863
 20
42490.12072688047
 11
3525.152347243196
 21
42490.12071433948
 72
     1
 10
3525.152347243196
 20
42490.12071433948
 11
3525.161512952806
 21
42490.12070177504
 72
     1
 10
3525.161512952806
 20
42490.12070177504
 11
3525.170678861571
 21
42490.12068918673
 72
     1
 10
3525.170678861571
 20
42490.12068918673
 11
3525.179844969372
 21
42490.12067657416
 72
     1
 10
3525.179844969372
 20
42490.12067657416
 11
3525.189011276084
 21
42490.1206639369
 72
     1
 10
3525.189011276084
 20
42490.1206639369
 11
3525.198177781589
 21
42490.12065127454
 72
     1
 10
3525.198177781589
 20
42490.12065127454
 11
3525.207344485764
 21
42490.12063858667
 72
     1
 10
3525.207344485764
 20
42490.12063858667
 11
3525.216511388488
 21
42490.12062587288
 72
     1
 10
3525.216511388488
 20
42490.12062587288
 11
3525.22567848964
 21
42490.12061313277
 72
     1
 10
3525.22567848964
 20
42490.12061313277
 11
3525.234845789099
 21
42490.12060036593
 72
     1
 10
3525.234845789099
 20
42490.12060036593
 11
3525.244013286743
 21
42490.12058757193
 72
     1
 10
3525.244013286743
 20
42490.12058757193
 11
3525.253180982453
 21
42490.12057475037
 72
     1
 10
3525.253180982453
 20
42490.12057475037
 11
3525.262348876105
 21
42490.12056190084
 72
     1
 10
3525.262348876105
 20
42490.12056190084
 11
3525.271516967579
 21
42490.12054902293
 72
     1
 10
3525.271516967579
 20
42490.12054902293
 11
3525.280685256754
 21
42490.12053611623
 72
     1
 10
3525.280685256754
 20
42490.12053611623
 11
3525.289853743508
 21
42490.12052318033
 72
     1
 10
3525.289853743508
 20
42490.12052318033
 11
3525.29902242772
 21
42490.1205102148
 72
     1
 10
3525.29902242772
 20
42490.1205102148
 11
3525.30819130927
 21
42490.12049721926
 72
     1
 10
3525.30819130927
 20
42490.12049721926
 11
3525.317360388035
 21
42490.12048419329
 72
     1
 10
3525.317360388035
 20
42490.12048419329
 11
3525.326529663895
 21
42490.12047113646
 72
     1
 10
3525.326529663895
 20
42490.12047113646
 11
3525.335699136727
 21
42490.12045804839
 72
     1
 10
3525.335699136727
 20
42490.12045804839
 11
3525.344868806412
 21
42490.12044492865
 72
     1
 10
3525.344868806412
 20
42490.12044492865
 11
3525.354038672828
 21
42490.12043177684
 72
     1
 10
3525.354038672828
 20
42490.12043177684
 11
3525.363208735853
 21
42490.12041859252
 72
     1
 10
3525.363208735853
 20
42490.12041859252
 11
3525.372378995366
 21
42490.12040537532
 72
     1
 10
3525.372378995366
 20
42490.12040537532
 11
3525.381549451247
 21
42490.12039212479
 72
     1
 10
3525.381549451247
 20
42490.12039212479
 11
3525.390720103374
 21
42490.12037884057
 72
     1
 10
3525.390720103374
 20
42490.12037884057
 11
3525.399890951624
 21
42490.1203655222
 72
     1
 10
3525.399890951624
 20
42490.1203655222
 11
3525.409061995878
 21
42490.1203521693
 72
     1
 10
3525.409061995878
 20
42490.1203521693
 11
3525.418233236015
 21
42490.12033878144
 72
     1
 10
3525.418233236015
 20
42490.12033878144
 11
3525.427404671912
 21
42490.12032535822
 72
     1
 10
3525.427404671912
 20
42490.12032535822
 11
3525.43657630345
 21
42490.12031189923
 72
     1
 10
3525.43657630345
 20
42490.12031189923
 11
3525.445748130505
 21
42490.12029840405
 72
     1
 10
3525.445748130505
 20
42490.12029840405
 11
3525.454920152959
 21
42490.12028487228
 72
     1
 10
3525.454920152959
 20
42490.12028487228
 11
3525.464092370687
 21
42490.12027130349
 72
     1
 10
3525.464092370687
 20
42490.12027130349
 11
3525.473264783572
 21
42490.1202576973
 72
     1
 10
3525.473264783572
 20
42490.1202576973
 11
3525.482437391489
 21
42490.12024405329
 72
     1
 10
3525.482437391489
 20
42490.12024405329
 11
3525.491610194318
 21
42490.12023037104
 72
     1
 10
3525.491610194318
 20
42490.12023037104
 11
3525.500783191939
 21
42490.12021665013
 72
     1
 10
3525.500783191939
 20
42490.12021665013
 11
3525.50995638423
 21
42490.12020289017
 72
     1
 10
3525.50995638423
 20
42490.12020289017
 11
3525.519129771068
 21
42490.12018909073
 72
     1
 10
3525.519129771068
 20
42490.12018909073
 11
3525.528303352335
 21
42490.12017525143
 72
     1
 10
3525.528303352335
 20
42490.12017525143
 11
3525.537477127907
 21
42490.12016137182
 72
     1
 10
3525.537477127907
 20
42490.12016137182
 11
3525.546651097665
 21
42490.12014745153
 72
     1
 10
3525.546651097665
 20
42490.12014745153
 11
3525.555825261486
 21
42490.12013349011
 72
     1
 10
3525.555825261486
 20
42490.12013349011
 11
3525.56499961925
 21
42490.12011948718
 72
     1
 10
3525.56499961925
 20
42490.12011948718
 11
3525.574174170834
 21
42490.1201054423
 72
     1
 10
3525.574174170834
 20
42490.1201054423
 11
3525.583348916119
 21
42490.12009135509
 72
     1
 10
3525.583348916119
 20
42490.12009135509
 11
3525.592523854982
 21
42490.12007722513
 72
     1
 10
3525.592523854982
 20
42490.12007722513
 11
3525.601698987304
 21
42490.12006305199
 72
     1
 10
3525.601698987304
 20
42490.12006305199
 11
3525.610874312961
 21
42490.12004883529
 72
     1
 10
3525.610874312961
 20
42490.12004883529
 11
3525.620049831833
 21
42490.12003457459
 72
     1
 10
3525.620049831833
 20
42490.12003457459
 11
3525.629225543799
 21
42490.1200202695
 72
     1
 10
3525.629225543799
 20
42490.1200202695
 11
3525.638401448738
 21
42490.1200059196
 72
     1
 10
3525.638401448738
 20
42490.1200059196
 11
3525.647577546528
 21
42490.11999152449
 72
     1
 10
3525.647577546528
 20
42490.11999152449
 11
3525.656753837048
 21
42490.11997708374
 72
     1
 10
3525.656753837048
 20
42490.11997708374
 11
3525.665930320177
 21
42490.11996259696
 72
     1
 10
3525.665930320177
 20
42490.11996259696
 11
3525.675106995794
 21
42490.11994806372
 72
     1
 10
3525.675106995794
 20
42490.11994806372
 11
3525.684283863777
 21
42490.11993348362
 72
     1
 10
3525.684283863777
 20
42490.11993348362
 11
3525.693460924006
 21
42490.11991885625
 72
     1
 10
3525.693460924006
 20
42490.11991885625
 11
3525.702638176357
 21
42490.11990418121
 72
     1
 10
3525.702638176357
 20
42490.11990418121
 11
3525.711815620712
 21
42490.11988945806
 72
     1
 10
3525.711815620712
 20
42490.11988945806
 11
3525.720993256949
 21
42490.11987468642
 72
     1
 10
3525.720993256949
 20
42490.11987468642
 11
3525.730171084946
 21
42490.11985986585
 72
     1
 10
3525.730171084946
 20
42490.11985986585
 11
3525.739349104581
 21
42490.11984499596
 72
     1
 10
3525.739349104581
 20
42490.11984499596
 11
3525.748527315734
 21
42490.11983007634
 72
     1
 10
3525.748527315734
 20
42490.11983007634
 11
3525.757705718284
 21
42490.11981510657
 72
     1
 10
3525.757705718284
 20
42490.11981510657
 11
3525.76688431211
 21
42490.11980008624
 72
     1
 10
3525.76688431211
 20
42490.11980008624
 11
3525.776063097089
 21
42490.11978501495
 72
     1
 10
3525.776063097089
 20
42490.11978501495
 11
3525.785242073101
 21
42490.11976989228
 72
     1
 10
3525.785242073101
 20
42490.11976989228
 11
3525.794421240025
 21
42490.11975471782
 72
     1
 10
3525.794421240025
 20
42490.11975471782
 11
3525.80360059774
 21
42490.11973949116
 72
     1
 10
3525.80360059774
 20
42490.11973949116
 11
3525.812780146123
 21
42490.11972421189
 72
     1
 10
3525.812780146123
 20
42490.11972421189
 11
3525.821959885055
 21
42490.1197088796
 72
     1
 10
3525.821959885055
 20
42490.1197088796
 11
3525.831139814413
 21
42490.11969349387
 72
     1
 10
3525.831139814413
 20
42490.11969349387
 11
3525.840319934076
 21
42490.11967805431
 72
     1
 10
3525.840319934076
 20
42490.11967805431
 11
3525.849500243924
 21
42490.1196625605
 72
     1
 10
3525.849500243924
 20
42490.1196625605
 11
3525.858680743834
 21
42490.11964701201
 72
     1
 10
3525.858680743834
 20
42490.11964701201
 11
3525.867861433687
 21
42490.11963140846
 72
     1
 10
3525.867861433687
 20
42490.11963140846
 11
3525.87704231336
 21
42490.11961574941
 72
     1
 10
3525.87704231336
 20
42490.11961574941
 11
3525.886223382732
 21
42490.11960003448
 72
     1
 10
3525.886223382732
 20
42490.11960003448
 11
3525.895404641682
 21
42490.11958426324
 72
     1
 10
3525.895404641682
 20
42490.11958426324
 11
3525.904586090089
 21
42490.11956843528
 72
     1
 10
3525.904586090089
 20
42490.11956843528
 11
3525.913767727832
 21
42490.1195525502
 72
     1
 10
3525.913767727832
 20
42490.1195525502
 11
3525.922949554789
 21
42490.11953660756
 72
     1
 10
3525.922949554789
 20
42490.11953660756
 11
3525.93213157084
 21
42490.11952060699
 72
     1
 10
3525.93213157084
 20
42490.11952060699
 11
3525.941313775862
 21
42490.11950454806
 72
     1
 10
3525.941313775862
 20
42490.11950454806
 11
3525.950496169734
 21
42490.11948843035
 72
     1
 10
3525.950496169734
 20
42490.11948843035
 11
3525.959678752336
 21
42490.11947225347
 72
     1
 10
3525.959678752336
 20
42490.11947225347
 11
3525.968861523547
 21
42490.11945601699
 72
     1
 10
3525.968861523547
 20
42490.11945601699
 11
3525.978044483244
 21
42490.11943972051
 72
     1
 10
3525.978044483244
 20
42490.11943972051
 11
3525.987227631308
 21
42490.11942336363
 72
     1
 10
3525.987227631308
 20
42490.11942336363
 11
3525.996410967615
 21
42490.1194069459
 72
     1
 10
3525.996410967615
 20
42490.1194069459
 11
3526.005594492045
 21
42490.11939046696
 72
     1
 10
3526.005594492045
 20
42490.11939046696
 11
3526.014778204479
 21
42490.11937392636
 72
     1
 10
3526.014778204479
 20
42490.11937392636
 11
3526.023962104792
 21
42490.11935732371
 72
     1
 10
3526.023962104792
 20
42490.11935732371
 11
3526.033146192866
 21
42490.1193406586
 72
     1
 10
3526.033146192866
 20
42490.1193406586
 11
3526.042330468577
 21
42490.1193239306
 72
     1
 10
3526.042330468577
 20
42490.1193239306
 11
3526.051514931805
 21
42490.11930713932
 72
     1
 10
3526.051514931805
 20
42490.11930713932
 11
3526.06069958243
 21
42490.11929028434
 72
     1
 10
3526.06069958243
 20
42490.11929028434
 11
3526.069884420329
 21
42490.11927336526
 72
     1
 10
3526.069884420329
 20
42490.11927336526
 11
3526.079069445382
 21
42490.11925638166
 72
     1
 10
3526.079069445382
 20
42490.11925638166
 11
3526.088254657466
 21
42490.11923933312
 72
     1
 10
3526.088254657466
 20
42490.11923933312
 11
3526.097440056462
 21
42490.11922221924
 72
     1
 10
3526.097440056462
 20
42490.11922221924
 11
3526.106625642248
 21
42490.11920503961
 72
     1
 10
3526.106625642248
 20
42490.11920503961
 11
3526.115811414701
 21
42490.11918779381
 72
     1
 10
3526.115811414701
 20
42490.11918779381
 11
3526.124997373702
 21
42490.11917048146
 72
     1
 10
3526.124997373702
 20
42490.11917048146
 11
3526.134183519129
 21
42490.11915310211
 72
     1
 10
3526.134183519129
 20
42490.11915310211
 11
3526.143369850861
 21
42490.11913565537
 72
     1
 10
3526.143369850861
 20
42490.11913565537
 11
3526.152556368777
 21
42490.11911814082
 72
     1
 10
3526.152556368777
 20
42490.11911814082
 11
3526.161743072754
 21
42490.11910055805
 72
     1
 10
3526.161743072754
 20
42490.11910055805
 11
3526.170929962673
 21
42490.11908290666
 72
     1
 10
3526.170929962673
 20
42490.11908290666
 11
3526.180117038412
 21
42490.11906518624
 72
     1
 10
3526.180117038412
 20
42490.11906518624
 11
3526.189304299849
 21
42490.11904739636
 72
     1
 10
3526.189304299849
 20
42490.11904739636
 11
3526.198491746863
 21
42490.11902953664
 72
     1
 10
3526.198491746863
 20
42490.11902953664
 11
3526.207679379334
 21
42490.11901160663
 72
     1
 10
3526.207679379334
 20
42490.11901160663
 11
3526.21686719714
 21
42490.11899360596
 72
     1
 10
3526.21686719714
 20
42490.11899360596
 11
3526.226055200159
 21
42490.11897553419
 72
     1
 10
3526.226055200159
 20
42490.11897553419
 11
3526.235243388271
 21
42490.11895739092
 72
     1
 10
3526.235243388271
 20
42490.11895739092
 11
3526.244431761354
 21
42490.11893917574
 72
     1
 10
3526.244431761354
 20
42490.11893917574
 11
3526.253620319287
 21
42490.11892088823
 72
     1
 10
3526.253620319287
 20
42490.11892088823
 11
3526.262809061948
 21
42490.11890252799
 72
     1
 10
3526.262809061948
 20
42490.11890252799
 11
3526.271997989218
 21
42490.11888409461
 72
     1
 10
3526.271997989218
 20
42490.11888409461
 11
3526.281187100972
 21
42490.11886558768
 72
     1
 10
3526.281187100972
 20
42490.11886558768
 11
3526.290376397093
 21
42490.11884700678
 72
     1
 10
3526.290376397093
 20
42490.11884700678
 11
3526.299565877458
 21
42490.11882835151
 72
     1
 10
3526.299565877458
 20
42490.11882835151
 11
3526.308755541945
 21
42490.11880962144
 72
     1
 10
3526.308755541945
 20
42490.11880962144
 11
3526.317945390433
 21
42490.11879081619
 72
     1
 10
3526.317945390433
 20
42490.11879081619
 11
3526.327135422801
 21
42490.11877193532
 72
     1
 10
3526.327135422801
 20
42490.11877193532
 11
3526.336325638928
 21
42490.11875297844
 72
     1
 10
3526.336325638928
 20
42490.11875297844
 11
3526.345516038694
 21
42490.11873394512
 72
     1
 10
3526.345516038694
 20
42490.11873394512
 11
3526.354706621975
 21
42490.11871483498
 72
     1
 10
3526.354706621975
 20
42490.11871483498
 11
3526.363897388651
 21
42490.11869564758
 72
     1
 10
3526.363897388651
 20
42490.11869564758
 11
3526.373088338601
 21
42490.11867638252
 72
     1
 10
3526.373088338601
 20
42490.11867638252
 11
3526.382279471704
 21
42490.11865703938
 72
     1
 10
3526.382279471704
 20
42490.11865703938
 11
3526.391470787839
 21
42490.11863761777
 72
     1
 10
3526.391470787839
 20
42490.11863761777
 11
3526.400662286884
 21
42490.11861811726
 72
     1
 10
3526.400662286884
 20
42490.11861811726
 11
3526.409853968718
 21
42490.11859853744
 72
     1
 10
3526.409853968718
 20
42490.11859853744
 11
3526.41904583322
 21
42490.11857887792
 72
     1
 10
3526.41904583322
 20
42490.11857887792
 11
3526.428237880268
 21
42490.11855913827
 72
     1
 10
3526.428237880268
 20
42490.11855913827
 11
3526.437430109741
 21
42490.11853931809
 72
     1
 10
3526.437430109741
 20
42490.11853931809
 11
3526.446622521519
 21
42490.11851941695
 72
     1
 10
3526.446622521519
 20
42490.11851941695
 11
3526.455815115479
 21
42490.11849943446
 72
     1
 10
3526.455815115479
 20
42490.11849943446
 11
3526.465007891502
 21
42490.1184793702
 72
     1
 10
3526.465007891502
 20
42490.1184793702
 11
3526.474200849464
 21
42490.11845922376
 72
     1
 10
3526.474200849464
 20
42490.11845922376
 11
3526.483393989245
 21
42490.11843899475
 72
     1
 10
3526.483393989245
 20
42490.11843899475
 11
3526.492587310726
 21
42490.11841868273
 72
     1
 10
3526.492587310726
 20
42490.11841868273
 11
3526.501780813781
 21
42490.11839828729
 72
     1
 10
3526.501780813781
 20
42490.11839828729
 11
3526.510974498293
 21
42490.11837780805
 72
     1
 10
3526.510974498293
 20
42490.11837780805
 11
3526.52016836414
 21
42490.11835724456
 72
     1
 10
3526.52016836414
 20
42490.11835724456
 11
3526.529362411198
 21
42490.11833659642
 72
     1
 10
3526.529362411198
 20
42490.11833659642
 11
3526.538556639349
 21
42490.11831586325
 72
     1
 10
3526.538556639349
 20
42490.11831586325
 11
3526.54775104847
 21
42490.1182950446
 72
     1
 10
3526.54775104847
 20
42490.1182950446
 11
3526.556945638441
 21
42490.11827414009
 72
     1
 10
3526.556945638441
 20
42490.11827414009
 11
3526.566140409139
 21
42490.11825314928
 72
     1
 10
3526.566140409139
 20
42490.11825314928
 11
3526.575335360444
 21
42490.11823207179
 72
     1
 10
3526.575335360444
 20
42490.11823207179
 11
3526.584530492236
 21
42490.11821090719
 72
     1
 10
3526.584530492236
 20
42490.11821090719
 11
3526.593725804391
 21
42490.11818965507
 72
     1
 10
3526.593725804391
 20
42490.11818965507
 11
3526.602921296789
 21
42490.11816831503
 72
     1
 10
3526.602921296789
 20
42490.11816831503
 11
3526.61211696931
 21
42490.11814688664
 72
     1
 10
3526.61211696931
 20
42490.11814688664
 11
3526.621312821831
 21
42490.1181253695
 72
     1
 10
3526.621312821831
 20
42490.1181253695
 11
3526.630508854231
 21
42490.11810376321
 72
     1
 10
3526.630508854231
 20
42490.11810376321
 11
3526.63970506639
 21
42490.11808206734
 72
     1
 10
3526.63970506639
 20
42490.11808206734
 11
3526.648901458185
 21
42490.11806028151
 72
     1
 10
3526.648901458185
 20
42490.11806028151
 11
3526.658098029497
 21
42490.11803840526
 72
     1
 10
3526.658098029497
 20
42490.11803840526
 11
3526.667294780203
 21
42490.11801643823
 72
     1
 10
3526.667294780203
 20
42490.11801643823
 11
3526.676491710182
 21
42490.11799437998
 72
     1
 10
3526.676491710182
 20
42490.11799437998
 11
3526.685688819313
 21
42490.11797223011
 72
     1
 10
3526.685688819313
 20
42490.11797223011
 11
3526.694886107474
 21
42490.1179499882
 72
     1
 10
3526.694886107474
 20
42490.1179499882
 11
3526.704083574547
 21
42490.11792765385
 72
     1
 10
3526.704083574547
 20
42490.11792765385
 11
3526.713281220406
 21
42490.11790522664
 72
     1
 10
3526.713281220406
 20
42490.11790522664
 11
3526.722479044934
 21
42490.11788270617
 72
     1
 10
3526.722479044934
 20
42490.11788270617
 11
3526.731677048007
 21
42490.11786009202
 72
     1
 10
3526.731677048007
 20
42490.11786009202
 11
3526.740875229504
 21
42490.11783738379
 72
     1
 10
3526.740875229504
 20
42490.11783738379
 11
3526.750073589305
 21
42490.11781458105
 72
     1
 10
3526.750073589305
 20
42490.11781458105
 11
3526.759272127288
 21
42490.1177916834
 72
     1
 10
3526.759272127288
 20
42490.1177916834
 11
3526.768470843332
 21
42490.11776869044
 72
     1
 10
3526.768470843332
 20
42490.11776869044
 11
3526.777669737316
 21
42490.11774560175
 72
     1
 10
3526.777669737316
 20
42490.11774560175
 11
3526.786868809118
 21
42490.11772241692
 72
     1
 10
3526.786868809118
 20
42490.11772241692
 11
3526.796068058617
 21
42490.11769913553
 72
     1
 10
3526.796068058617
 20
42490.11769913553
 11
3526.805267485693
 21
42490.11767575718
 72
     1
 10
3526.805267485693
 20
42490.11767575718
 11
3526.814467090222
 21
42490.11765228146
 72
     1
 10
3526.814467090222
 20
42490.11765228146
 11
3526.823666872087
 21
42490.11762870797
 72
     1
 10
3526.823666872087
 20
42490.11762870797
 11
3526.832866831355
 21
42490.11760503627
 72
     2
 10
3526.992284118704
 20
42492.62756337216
 40
2.515015848746483
 50
93.63419786810075
 51
179.8641242553039
 73
     0
 72
     1
 10
3524.47727534207
 20
42492.62159907019
 11
3494.477275342068
 21
42492.62159907019
 97
        0
 75
     0
 76
     1
 98
        2
 10
3523.369660065811
 20
42491.39826294682
 10
3521.349967996721
 20
42484.05746071695
450
        0
451
        0
460
0.0
461
0.0
452
        1
462
1.0
453
        2
463
0.0
 63
     5
421
      255
463
1.0
 63
     7
421
 16777215
470
LINEAR
1001
ACAD
1010
3479.477275342068
1020
42482.62159907018
1030
0.0
  0
ARC
  5
78A1
330
2
100
AcDbEntity
  8
Insulation
100
AcDbCircle
 10
3613.727275342021
 20
42595.20953391568
 30
0.0
 40
20.0
100
AcDbArc
 50
216.8698976457554
 51
143.1301023542445
  0
ARC
  5
78A2
330
2
100
AcDbEntity
  8
Insulation
100
AcDbCircle
 10
3578.727275342021
 20
42615.20953391568
 30
0.0
 40
20.0
100
AcDbArc
 50
36.86989764575544
 51
323.1301023542446
  0
LINE
  5
78A3
330
2
100
AcDbEntity
  8
Insulation
100
AcDbLine
 10
3597.727275342021
 20
42583.20953391567
 30
0.0
 11
3594.727275342022
 21
42587.20953391568
 31
0.0
  0
LINE
  5
78A4
330
2
100
AcDbEntity
  8
Insulation
100
AcDbLine
 10
3597.727275342021
 20
42607.20953391568
 30
0.0
 11
3594.727275342022
 21
42603.20953391568
 31
0.0
  0
ARC
  5
78A5
330
2
100
AcDbEntity
  8
Insulation
100
AcDbCircle
 10
3613.727275342021
 20
42635.20953391568
 30
0.0
 40
20.0
100
AcDbArc
 50
216.8698976462453
 51
143.1301023537547
  0
LINE
  5
78A6
330
2
100
AcDbEntity
  8
Insulation
100
AcDbLine
 10
3597.727275342021
 20
42647.20953391567
 30
0.0
 11
3594.727275342022
 21
42643.20953391568
 31
0.0
  0
LINE
  5
78A7
330
2
100
AcDbEntity
  8
Insulation
100
AcDbLine
 10
3597.727275342021
 20
42623.20953391568
 30
0.0
 11
3594.727275342022
 21
42627.20953391568
 31
0.0
  0
ARC
  5
78A8
330
2
100
AcDbEntity
  8
Insulation
100
AcDbCircle
 10
3578.727275342021
 20
42575.20953391567
 30
0.0
 40
20.0
100
AcDbArc
 50
36.86989764575544
 51
323.1301023542446
  0
ARC
  5
78A9
330
2
100
AcDbEntity
  8
Insulation
100
AcDbCircle
 10
3578.727275342021
 20
42655.20953391567
 30
0.0
 40
20.0
100
AcDbArc
 50
181.1805632456924
 51
323.1301023542446
  0
ARC
  5
78AA
330
2
100
AcDbEntity
  8
Insulation
100
AcDbCircle
 10
3613.727275342021
 20
42555.20953391568
 30
0.0
 40
20.0
100
AcDbArc
 50
216.8698976457554
 51
143.1301023542445
  0
LINE
  5
78AB
330
2
100
AcDbEntity
  8
Insulation
100
AcDbLine
 10
3597.727275342021
 20
42567.20953391567
 30
0.0
 11
3594.727275342022
 21
42563.20953391568
 31
0.0
  0
ARC
  5
78AC
330
2
100
AcDbEntity
  8
Insulation
100
AcDbCircle
 10
3578.727275342021
 20
42535.20953391568
 30
0.0
 40
20.0
100
AcDbArc
 50
36.86989764575544
 51
323.1301023542446
  0
ARC
  5
78AD
330
2
100
AcDbEntity
  8
Insulation
100
AcDbCircle
 10
3578.727275342021
 20
42495.20953391567
 30
0.0
 40
20.0
100
AcDbArc
 50
36.86989764575544
 51
208.2321037015721
  0
ARC
  5
78AE
330
2
100
AcDbEntity
  8
Insulation
100
AcDbCircle
 10
3578.727275342021
 20
42455.20953391568
 30
0.0
 40
20.0
100
AcDbArc
 50
36.86989764575544
 51
78.83738603065703
  0
ARC
  5
78AF
330
2
100
AcDbEntity
  8
Insulation
100
AcDbCircle
 10
3578.727275342021
 20
42415.20953391567
 30
0.0
 40
20.0
100
AcDbArc
 50
36.86989764575544
 51
297.9990138548322
  0
LINE
  5
78B6
330
2
100
AcDbEntity
  8
Insulation
100
AcDbLine
 10
3594.72727534204
 20
42547.20953391566
 30
0.0
 11
3597.727275342004
 21
42543.2095339157
 31
0.0
  0
ARC
  5
78B7
330
2
100
AcDbEntity
  8
Insulation
100
AcDbCircle
 10
3613.727275342021
 20
42475.20953391568
 30
0.0
 40
20.0
100
AcDbArc
 50
222.0170241599344
 51
143.1301023542448
  0
LINE
  5
78B8
330
2
100
AcDbEntity
  8
Insulation
100
AcDbLine
 10
3597.727275342021
 20
42463.20953391568
 30
0.0
 11
3594.727275342022
 21
42467.20953391568
 31
0.0
  0
LINE
  5
78B9
330
2
100
AcDbEntity
  8
Insulation
100
AcDbLine
 10
3597.727275342021
 20
42487.20953391567
 30
0.0
 11
3594.727275342022
 21
42483.20953391568
 31
0.0
  0
ARC
  5
78BA
330
2
100
AcDbEntity
  8
Insulation
100
AcDbCircle
 10
3613.727275342021
 20
42515.20953391568
 30
0.0
 40
20.0
100
AcDbArc
 50
216.8698976462455
 51
143.1301023537545
  0
LINE
  5
78BB
330
2
100
AcDbEntity
  8
Insulation
100
AcDbLine
 10
3597.727275342021
 20
42527.20953391568
 30
0.0
 11
3594.727275342022
 21
42523.20953391568
 31
0.0
  0
LINE
  5
78BC
330
2
100
AcDbEntity
  8
Insulation
100
AcDbLine
 10
3597.727275342021
 20
42503.20953391568
 30
0.0
 11
3594.727275342022
 21
42507.20953391568
 31
0.0
  0
ARC
  5
78BD
330
2
100
AcDbEntity
  8
Insulation
100
AcDbCircle
 10
3613.727275342021
 20
42435.20953391568
 30
0.0
 40
20.0
100
AcDbArc
 50
233.4330852597569
 51
122.3834235764812
  0
LINE
  5
78BE
330
2
100
AcDbEntity
  8
Insulation
100
AcDbLine
 10
3597.727275342021
 20
42447.20953391568
 30
0.0
 11
3594.727275342022
 21
42443.20953391568
 31
0.0
  0
LINE
  5
78BF
330
2
100
AcDbEntity
  8
Insulation
100
AcDbLine
 10
3594.72727534204
 20
42427.20953391565
 30
0.0
 11
3597.727275342004
 21
42423.2095339157
 31
0.0
  0
ARC
  5
78C0
330
2
100
AcDbEntity
  8
Insulation
100
AcDbCircle
 10
3578.727275342021
 20
42375.20953391568
 30
0.0
 40
20.0
100
AcDbArc
 50
36.8698976457552
 51
53.98686990046936
  0
ARC
  5
78C1
330
2
100
AcDbEntity
  8
Insulation
100
AcDbCircle
 10
3578.727275342021
 20
42335.20953391567
 30
0.0
 40
20.0
100
AcDbArc
 50
36.8698976457552
 51
86.21357484192374
  0
ARC
  5
78C2
330
2
100
AcDbEntity
  8
Insulation
100
AcDbCircle
 10
3613.727275342021
 20
42395.20953391568
 30
0.0
 40
20.0
100
AcDbArc
 50
216.8698976457551
 51
136.7914654810119
  0
LINE
  5
78C3
330
2
100
AcDbEntity
  8
Insulation
100
AcDbLine
 10
3597.727275342021
 20
42383.20953391568
 30
0.0
 11
3594.727275342022
 21
42387.20953391568
 31
0.0
  0
ARC
  5
78C5
330
2
100
AcDbEntity
  8
Insulation
100
AcDbCircle
 10
3613.727275342021
 20
42355.20953391568
 30
0.0
 40
20.0
100
AcDbArc
 50
216.8698976457551
 51
143.1301023542449
  0
LINE
  5
78C6
330
2
100
AcDbEntity
  8
Insulation
100
AcDbLine
 10
3597.727275342021
 20
42367.20953391568
 30
0.0
 11
3594.727275342022
 21
42363.20953391568
 31
0.0
  0
LINE
  5
78C7
330
2
100
AcDbEntity
  8
Insulation
100
AcDbLine
 10
3594.72727534204
 20
42347.20953391565
 30
0.0
 11
3597.727275342004
 21
42343.2095339157
 31
0.0
  0
ARC
  5
78C8
330
2
100
AcDbEntity
  8
Insulation
100
AcDbCircle
 10
3613.727275342021
 20
42315.20953391568
 30
0.0
 40
20.0
100
AcDbArc
 50
15.17747481872743
 51
143.1301023542449
  0
LINE
  5
78C9
330
2
100
AcDbEntity
  8
Insulation
100
AcDbLine
 10
3597.727275342021
 20
42327.20953391567
 30
0.0
 11
3594.727275342022
 21
42323.20953391567
 31
0.0
  0
ARC
  5
78CA
330
2
100
AcDbEntity
  8
Insulation
100
AcDbCircle
 10
3578.727275342021
 20
42335.20953391567
 30
0.0
 40
20.0
100
AcDbArc
 50
302.5680934066094
 51
323.1301023542448
  0
ARC
  5
78CB
330
2
100
AcDbEntity
  8
Insulation
100
AcDbCircle
 10
3578.727275342021
 20
42335.20953391567
 30
0.0
 40
20.0
100
AcDbArc
 50
100.7966883264027
 51
227.5774780070826
  0
ARC
  5
78CC
330
2
100
AcDbEntity
  8
Insulation
100
AcDbCircle
 10
3578.727275342021
 20
42375.20953391568
 30
0.0
 40
20.0
100
AcDbArc
 50
273.8158291061504
 51
323.1301023542448
  0
ARC
  5
78CD
330
2
100
AcDbEntity
  8
Insulation
100
AcDbCircle
 10
3578.727275342021
 20
42375.20953391568
 30
0.0
 40
20.0
100
AcDbArc
 50
68.35161370678661
 51
259.4313052596438
  0
ARC
  5
78CE
330
2
100
AcDbEntity
  8
Insulation
100
AcDbCircle
 10
3613.727275342021
 20
42435.20953391568
 30
0.0
 40
20.0
100
AcDbArc
 50
139.4233330987976
 51
143.1301023542448
  0
ARC
  5
78CF
330
2
100
AcDbEntity
  8
Insulation
100
AcDbCircle
 10
3578.727275342021
 20
42495.20953391567
 30
0.0
 40
20.0
100
AcDbArc
 50
278.1982984142119
 51
323.1301023542446
  0
ARC
  5
78D0
330
2
100
AcDbEntity
  8
Insulation
100
AcDbCircle
 10
3578.727275342021
 20
42455.20953391568
 30
0.0
 40
20.0
100
AcDbArc
 50
106.1879364804722
 51
323.1301023542446
  0
LINE
  5
7B07
330
2
100
AcDbEntity
  8
Electrics
100
AcDbLine
 10
3449.47727534207
 20
42536.62159907019
 30
0.0
 11
3494.477275342069
 21
42536.62159907019
 31
0.0
  0
LINE
  5
7B08
330
2
100
AcDbEntity
  8
Electrics
100
AcDbLine
 10
3449.477275342069
 20
42438.62159907019
 30
0.0
 11
3494.477275342068
 21
42438.62159907019
 31
0.0
  0
LINE
  5
7B0F
330
2
100
AcDbEntity
  8
Electrics
100
AcDbLine
 10
3449.47727534207
 20
42536.62159907019
 30
0.0
 11
3449.47727534207
 21
42533.62159907019
 31
0.0
  0
LINE
  5
7B10
330
2
100
AcDbEntity
  8
Electrics
100
AcDbLine
 10
3456.47727534207
 20
42526.62159907019
 30
0.0
 11
3492.477275342069
 21
42526.62159907019
 31
0.0
  0
LINE
  5
7B11
330
2
100
AcDbEntity
  8
Electrics
100
AcDbLine
 10
3456.477275342068
 20
42448.62159907019
 30
0.0
 11
3492.477275342068
 21
42448.62159907019
 31
0.0
  0
LINE
  5
7B12
330
2
100
AcDbEntity
  8
Electrics
100
AcDbLine
 10
3492.477275342068
 20
42448.62159907019
 30
0.0
 11
3492.477275342068
 21
42485.12159907019
 31
0.0
  0
LINE
  5
7B13
330
2
100
AcDbEntity
  8
Electrics
100
AcDbLine
 10
3492.477275342068
 20
42490.12159907018
 30
0.0
 11
3492.477275342069
 21
42526.62159907019
 31
0.0
  0
LINE
  5
7B14
330
2
100
AcDbEntity
  8
Supercrete
370
    50
100
AcDbLine
 10
3495.477275342068
 20
42437.62159907019
 30
0.0
 11
3495.477275342068
 21
42482.62159907018
 31
0.0
  0
LINE
  5
7B16
330
2
100
AcDbEntity
  8
Supercrete
370
    50
100
AcDbLine
 10
3495.477275342068
 20
42492.62159907019
 30
0.0
 11
3495.477275342069
 21
42537.62159907019
 31
0.0
  0
LINE
  5
7B17
330
2
100
AcDbEntity
  8
Electrics
100
AcDbLine
 10
3456.47727534207
 20
42533.62159907019
 30
0.0
 11
3456.47727534207
 21
42526.62159907019
 31
0.0
  0
LINE
  5
7B18
330
2
100
AcDbEntity
  8
Electrics
100
AcDbLine
 10
3449.47727534207
 20
42533.62159907019
 30
0.0
 11
3456.47727534207
 21
42533.62159907019
 31
0.0
  0
LINE
  5
7B19
330
2
100
AcDbEntity
  8
Electrics
100
AcDbLine
 10
3449.477275342069
 20
42441.62159907019
 30
0.0
 11
3456.477275342067
 21
42441.62159907019
 31
0.0
  0
LINE
  5
7B1A
330
2
100
AcDbEntity
  8
Electrics
100
AcDbLine
 10
3456.477275342067
 20
42441.62159907019
 30
0.0
 11
3456.477275342068
 21
42448.62159907019
 31
0.0
  0
LINE
  5
7B1B
330
2
100
AcDbEntity
  8
Electrics
100
AcDbLine
 10
3449.477275342069
 20
42438.62159907019
 30
0.0
 11
3449.477275342069
 21
42441.62159907019
 31
0.0
  0
LINE
  5
7B1C
330
2
100
AcDbEntity
  8
Electrics
100
AcDbLine
 10
3457.97727534207
 20
42533.62159907019
 30
0.0
 11
3457.97727534207
 21
42526.62159907019
 31
0.0
  0
LINE
  5
7B1E
330
2
100
AcDbEntity
  8
Electrics
100
AcDbLine
 10
3457.977275342068
 20
42441.62159907019
 30
0.0
 11
3457.977275342067
 21
42448.62159907019
 31
0.0
  0
LINE
  5
7B1F
330
2
100
AcDbEntity
  8
Electrics
100
AcDbLine
 10
3472.477275342069
 20
42441.62159907019
 30
0.0
 11
3472.47727534207
 21
42448.62159907019
 31
0.0
  0
LINE
  5
7B20
330
2
100
AcDbEntity
  8
Electrics
100
AcDbLine
 10
3472.47727534207
 20
42533.6215990702
 30
0.0
 11
3472.47727534207
 21
42526.62159907019
 31
0.0
  0
LINE
  5
7B21
330
2
100
AcDbEntity
  8
Electrics
100
AcDbLine
 10
3457.977275342069
 20
42533.62159907019
 30
0.0
 11
3472.47727534207
 21
42533.6215990702
 31
0.0
  0
LINE
  5
7B22
330
2
100
AcDbEntity
  8
Electrics
100
AcDbLine
 10
3457.977275342068
 20
42441.62159907019
 30
0.0
 11
3472.477275342069
 21
42441.62159907019
 31
0.0
  0
LINE
  5
7B24
330
2
100
AcDbEntity
  8
Lining
370
    50
100
AcDbLine
 10
3449.477275342069
 20
42437.62159907019
 30
0.0
 11
3449.477275342068
 21
42442.62159907019
 31
0.0
  0
LINE
  5
7B25
330
2
100
AcDbEntity
  8
Lining
370
    50
100
AcDbLine
 10
3449.477275342071
 20
42532.62159907019
 30
0.0
 11
3449.47727534207
 21
42537.62159907019
 31
0.0
  0
MTEXT
  5
7F36
330
2
100
AcDbEntity
  8
Text
100
AcDbMText
 10
3657.890399054567
 20
42585.31363206267
 30
0.0
 40
5.0
 41
67.01129395486578
 71
     1
 72
     5
  1
{\fSwis721 BT|b0|i1|c0|p34;Insulation as per system requirements\P\P\PPlasterboard as per system requirements\P\P\PFill penetration with appropriate Holdfast fire and acoustic rated sealant\P\P\P\PNeat cable penetration}
  7
1
 73
     1
 44
1.0
1001
ACAD
1000
ACAD_MTEXT_DEFINED_HEIGHT_BEGIN
1070
    46
1040
144.868514115235
1000
ACAD_MTEXT_DEFINED_HEIGHT_END
  0
LEADER
  5
7F3E
330
2
100
AcDbEntity
  8
Text
100
AcDbLeader
  3
STANDARD
 72
     1
 76
     4
 10
3594.435883297161
 20
42603.49564930347
 30
0.0
 10
3619.319539104959
 20
42588.77565336216
 30
0.0
 10
3647.25056518068
 20
42581.6738799758
 30
0.0
 10
3654.646631557677
 20
42581.94062423979
 30
0.0
1001
ACAD
1000
DSTYLE
1002
{
1070
    41
1040
6.0
1070
   147
1040
1.0
1070
    77
1070
     0
1002
}
  0
MTEXT
  5
7F3F
330
2
100
AcDbEntity
  8
Text
100
AcDbMText
 10
3361.420210424817
 20
42566.15977314834
 30
0.0
 40
5.0
 41
61.30284630799042
 71
     1
 72
     5
  1
{\fSwis721 BT|b0|i1|c0|p34;Concrete insert flush box}
  7
1
 73
     1
 44
1.0
1001
ACAD
1000
ACAD_MTEXT_DEFINED_HEIGHT_BEGIN
1070
    46
1040
4.164524859721041
1000
ACAD_MTEXT_DEFINED_HEIGHT_END
  0
LEADER
  5
7F40
330
2
100
AcDbEntity
  8
Text
100
AcDbLeader
  3
STANDARD
 72
     1
 76
     4
 10
3472.47727534207
 20
42533.6215990702
 30
0.0
 10
3451.207121654424
 20
42547.89137079698
 30
0.0
 10
3426.882995842034
 20
42561.53797094094
 30
0.0
 10
3414.777691451581
 20
42562.33437018315
 30
0.0
1001
ACAD
1000
DSTYLE
1002
{
1070
    41
1040
6.0
1070
    77
1070
     0
1002
}
  0
LEADER
  5
7F41
330
2
100
AcDbEntity
  8
Text
100
AcDbLeader
  3
STANDARD
 72
     1
 76
     4
 10
3639.197741381553
 20
42530.69472022102
 30
0.0
 10
3642.964321039532
 20
42545.19606430112
 30
0.0
 10
3647.25056518068
 20
42549.18837121081
 30
0.0
 10
3654.646631557677
 20
42549.45511547481
 30
0.0
1001
ACAD
1000
DSTYLE
1002
{
1070
    41
1040
6.0
1070
   341
1005
7845
1070
   147
1040
1.0
1070
    77
1070
     0
1002
}
  0
LEADER
  5
7F42
330
2
100
AcDbEntity
  8
Text
100
AcDbLeader
  3
STANDARD
 72
     1
 76
     4
 10
3525.903939027359
 20
42492.04224163666
 30
0.0
 10
3586.274967555458
 20
42506.66119664984
 30
0.0
 10
3647.25056518068
 20
42515.68768968703
 30
0.0
 10
3654.646631557677
 20
42515.95443395102
 30
0.0
1001
ACAD
1000
DSTYLE
1002
{
1070
    41
1040
6.0
1070
    77
1070
     0
1002
}
  0
LEADER
  5
7F43
330
2
100
AcDbEntity
  8
Text
100
AcDbLeader
  3
STANDARD
 72
     1
 76
     4
 10
3525.010804261786
 20
42483.42957732831
 30
0.0
 10
3572.206471122158
 20
42466.12349821822
 30
0.0
 10
3647.25056518068
 20
42457.31529021012
 30
0.0
 10
3654.646631557677
 20
42457.58203447411
 30
0.0
1001
ACAD
1000
DSTYLE
1002
{
1070
    41
1040
6.0
1070
    77
1070
     0
1002
}
  0
MTEXT
  5
7F44
330
2
100
AcDbEntity
  8
Text
100
AcDbMText
 10
3434.519008609522
 20
42499.93267358253
 30
0.0
 40
5.0
 41
23.67909011264783
 71
     1
 72
     5
  1
{\fSwis721 BT|b0|i1|c0|p34;Electric Switch }
  7
1
 73
     1
 44
1.0
 90
        3
 63
   256
 45
1.5
441
  7800806
1001
ACAD
1000
ACAD_MTEXT_DEFINED_HEIGHT_BEGIN
1070
    46
1040
14.17249504436358
1000
ACAD_MTEXT_DEFINED_HEIGHT_END
  0
MTEXT
  5
7F45
102
{ACAD_XDICTIONARY
360
7F46
102
}
330
2
100
AcDbEntity
  8
Text
100
AcDbMText
 10
3457.67481574316
 20
42393.02239023428
 30
0.0
 40
5.0
 41
61.67354143389229
 71
     1
 72
     5
  1
\pi1.3515;{\fSwis721 BT|b0|i1|c0|p34;75mm Supercrete\fSwis721 Blk BT|b0|i0|c0|p34;\U+2122\fSwis721 BT|b0|i1|c0|p34; \P\pi22.461;Panel}
  7
1
 73
     1
 44
1.0
 90
        3
 63
   256
 45
1.5
441
  7801401
1001
ACAD
1000
ACAD_MTEXT_DEFINED_HEIGHT_BEGIN
1070
    46
1040
14.95013171289406
1000
ACAD_MTEXT_DEFINED_HEIGHT_END
  0
TEXT
  5
7F55
330
2
100
AcDbEntity
  8
3
 62
     7
100
AcDbText
 10
1748.172745628958
 20
42308.18242360323
 30
0.0
 40
16.0
  1

 41
0.85
  7
ROMANS
100
AcDbText
  0
LINE
  5
7F56
330
2
100
AcDbEntity
  8
Title block
100
AcDbLine
 10
3348.253860505788
 20
42258.27518513446
 30
0.0
 11
3348.253860505788
 21
42191.66840294562
 31
0.0
  0
LINE
  5
7F57
330
2
100
AcDbEntity
  8
Title block
100
AcDbLine
 10
3348.253860505788
 20
42191.66840294562
 30
0.0
 11
3728.253860505789
 21
42191.66840294562
 31
0.0
  0
LINE
  5
7F58
330
2
100
AcDbEntity
  8
Title block
100
AcDbLine
 10
3728.253860505789
 20
42191.66840294562
 30
0.0
 11
3728.253860505789
 21
42258.27518513446
 31
0.0
  0
LINE
  5
7F5A
330
2
100
AcDbEntity
  8
Title block
100
AcDbLine
 10
3465.686932459002
 20
42230.36660310643
 30
0.0
 11
3728.611017742696
 21
42230.36660310643
 31
0.0
  0
LINE
  5
7F5B
330
2
100
AcDbEntity
  8
Title block
100
AcDbLine
 10
3465.686932459002
 20
42212.29692392734
 30
0.0
 11
3728.611017742696
 21
42212.29692392734
 31
0.0
  0
TEXT
  5
7F5C
330
2
100
AcDbEntity
  8
0
100
AcDbText
 10
3474.394128456204
 20
42219.12100029778
 30
0.0
 40
5.0
  1
Date:   March 2016
  7
Title block
100
AcDbText
  0
TEXT
  5
7F5D
330
2
100
AcDbEntity
  8
0
100
AcDbText
 10
3637.822222333145
 20
42219.2426674372
 30
0.0
 40
5.0
  1
Detail No.
  7
Title block
100
AcDbText
  0
TEXT
  5
7F5E
330
2
100
AcDbEntity
  8
0
100
AcDbText
 10
3474.046842641727
 20
42249.36271025355
 30
0.0
 40
5.0
  1
Title:
  7
Title block
100
AcDbText
  0
LWPOLYLINE
  5
7F5F
330
2
100
AcDbEntity
  8
Title block
100
AcDbPolyline
 90
        2
 70
     0
 43
0.0
 10
3348.253860505788
 20
42258.27518513446
 10
3728.253860505789
 20
42258.27518513446
  0
MTEXT
  5
7F60
330
2
100
AcDbEntity
  8
Title block
100
AcDbMText
 10
3468.260625067627
 20
42208.15798703404
 30
0.0
 40
5.0
 41
259.6916423192433
 71
     1
 72
     1
  1
This drawing is to be read in conjunction with all the current, relevant Supercrete \PTechnical Literature, Project Specific Design Documentation and Specifications
  7
Title block
 73
     1
 44
1.0
  0
LWPOLYLINE
  5
7F61
330
2
100
AcDbEntity
  8
Title block
100
AcDbPolyline
 90
        2
 70
     0
 43
0.0
 10
3548.466538125464
 20
42230.36660310643
 10
3548.466538125464
 20
42212.29692392734
  0
LWPOLYLINE
  5
7F62
330
2
100
AcDbEntity
  8
Title block
100
AcDbPolyline
 90
        2
 70
     0
 43
0.0
 10
3634.540854465219
 20
42230.36660310643
 10
3634.540854465219
 20
42212.29692392734
  0
TEXT
  5
7F63
330
2
100
AcDbEntity
  8
0
100
AcDbText
 10
3557.173734122667
 20
42219.12100029778
 30
0.0
 40
5.0
  1
Scale:
  7
Title block
100
AcDbText
  0
LINE
  5
7F69
330
2
100
AcDbEntity
  8
Title block
100
AcDbLine
 10
3465.363540772455
 20
42258.29361894562
 30
0.0
 11
3465.363540772455
 21
42191.68683675678
 31
0.0
  0
IMAGE
  5
7F6A
330
2
100
AcDbEntity
  8
Title block
 92
      140
310
8C00000001000000840000000600000005000000371401FA8128AA405C057D73FC9EE4400000000000000000371401FA8128AA401B0E51CE48A2E4400000000000000000EA200422BA12AB401B0E51CE48A2E4400000000000000000EA200422BA12AB405C057D73FC9EE4400000000000000000371401FA8128AA405C057D
310
73FC9EE4400000000000000000
100
AcDbRasterImage
 90
        0
 10
3348.253860505788
 20
42231.88909770057
 30
0.0
 11
0.085669115045111
 21
0.0
 31
0.0
 12
0.0
 22
0.085669115045111
 32
0.0
 13
1367.0
 23
308.0
340
7F14
 70
     7
280
     0
281
    50
282
    50
283
     0
360
7F6B
 71
     1
 91
        2
 14
-0.5
 24
-0.5
 14
1366.5
 24
307.5
  0
MTEXT
  5
7F74
330
2
100
AcDbEntity
  8
Text
100
AcDbMText
 10
3683.964617330949
 20
42225.61927643798
 30
0.0
 40
8.0
 41
60.79558027632083
 71
     1
 72
     5
  1
10.7.2
  7
2
 73
     1
 44
1.0
1001
ACAD
1000
ACAD_MTEXT_COLUMN_INFO_BEGIN
1070
    75
1070
     2
1070
    79
1070
     0
1070
    76
1070
     1
1070
    78
1070
     0
1070
    48
1040
60.79558027632083
1070
    49
1040
25.0
1070
    50
1070
     1
1040
0.0
1000
ACAD_MTEXT_COLUMN_INFO_END
  0
MTEXT
  5
7F75
102
{ACAD_XDICTIONARY
360
7FE9
102
}
330
2
100
AcDbEntity
  8
Text
100
AcDbMText
 10
3485.9084446288
 20
42256.38039950116
 30
0.0
 40
8.0
 41
240.3080385790454
 71
     1
 72
     5
  1
\pi51.09;A.W.S. - Type 2, 3 & 4 Walls \P\pi0;Powerswitch Installation into Supercrete{\H1.0833x;\U+2122} Panel
  7
2
 73
     1
 44
1.0
1001
ACAD
1000
ACAD_MTEXT_COLUMN_INFO_BEGIN
1070
    75
1070
     2
1070
    79
1070
     0
1070
    76
1070
     1
1070
    78
1070
     0
1070
    48
1040
240.3080385790454
1070
    49
1040
25.0
1070
    50
1070
     1
1040
0.0
1000
ACAD_MTEXT_COLUMN_INFO_END
  0
VIEWPORT
  5
5F
330
5E
100
AcDbEntity
 67
     1
  8
0
100
AcDbViewport
 10
87.70812920605621
 20
546.6625540199975
 30
0.0
 40
449.2527573529804
 41
299.3737365081025
 68
     1
 69
     1
 12
87.70812920605621
 22
546.6625540199975
 13
0.0
 23
0.0
 14
1.0
 24
1.0
 15
1900.0
 25
1900.0
 16
0.0
 26
0.0
 36
1.0
 17
0.0
 27
0.0
 37
0.0
 42
50.0
 43
0.0
 44
0.0
 45
299.3737365081025
 50
0.0
 51
0.0
 72
 20000
 90
    32768
  1

281
     0
 71
     1
 74
     0
110
0.0
120
0.0
130
0.0
111
1.0
121
0.0
131
0.0
112
0.0
122
1.0
132
0.0
 79
     0
146
0.0
170
     0
  0
VIEWPORT
  5
24CE
330
5E
100
AcDbEntity
 67
     1
  8
DEFPOINTS
100
AcDbViewport
 10
85.12402972027985
 20
564.2299794262141
 30
0.0
 40
185.4685356085497
 41
194.706799563156
 68
     2
 69
     2
 12
-19649.32335665677
 22
8432.950881680822
 13
0.0
 23
0.0
 14
1.0
 24
1.0
 15
1900.0
 25
1900.0
 16
0.0
 26
0.0
 36
1.0
 17
23187.54216236222
 27
34067.94128341666
 37
1200.0
 42
50.0
 43
0.0
 44
0.0
 45
389.4135991263122
 50
0.0
 51
0.0
 72
 20000
 90
    32768
  1

281
     0
 71
     1
 74
     0
110
0.0
120
0.0
130
0.0
111
1.0
121
0.0
131
0.0
112
0.0
122
1.0
132
0.0
 79
     0
146
0.0
170
     0
  0
MTEXT
  5
35D5
330
5E
100
AcDbEntity
 67
     1
  8
Text
100
AcDbMText
 10
144.9598263948412
 20
606.4407129088079
 30
0.0
 40
2.5
 41
33.50564697743289
 71
     1
 72
     5
  1
{\fSwis721 BT|b0|i1|c0|p34;Insulation as per system requirements\P\P\PPlasterboard as per system requirements\P\P\PFill penetration with appropriate Holdfast fire and acoustic rated sealant\P\P\P\PNeat cable penetration}
  7
1
 73
     1
 44
1.0
1001
ACAD
1000
ACAD_MTEXT_DEFINED_HEIGHT_BEGIN
1070
    46
1040
72.43425705761751
1000
ACAD_MTEXT_DEFINED_HEIGHT_END
  0
MTEXT
  5
35D8
330
5E
100
AcDbEntity
 67
     1
  8
Text
100
AcDbMText
 10
124.4697838543941
 20
577.3815488127322
 30
0.0
 40
2.5
 41
0.0
 71
     4
 72
     1
  1
\A1;
  7
1
 73
     1
 44
1.0
  0
MTEXT
  5
35DC
330
5E
100
AcDbEntity
 67
     1
  8
Text
100
AcDbMText
 10
28.66093880495896
 20
505.2299671689436
 30
0.0
 40
2.5
 41
0.0
 71
     6
 72
     1
  1
\A1;
  7
1
 73
     1
 44
1.0
  0
INSERT
  5
3700
330
5E
100
AcDbEntity
 67
     1
  8
Border
100
AcDbBlockReference
 66
     1
  2
A4 Title Block
 10
43.53579732269099
 20
430.8170083995416
 30
0.0
  0
ATTRIB
  5
3701
330
3700
100
AcDbEntity
 67
     1
  8
Title block
100
AcDbText
 10
53.28811093555498
 20
433.0639786107673
 30
0.0
 40
4.0
  1
A.W.S. - Power Switch Installation into Supercrete™ 
100
AcDbAttribute
  2
TITLE
 70
     0
1001
AcDbAttr
1070
     0
1070
     1
  0
ATTRIB
  5
3702
330
3700
100
AcDbEntity
 67
     1
  8
Title block
100
AcDbText
 10
55.94803834741743
 20
419.0611446360145
 30
0.0
 40
2.5
  1
December 2013
100
AcDbAttribute
  2
DATE
 70
     0
1001
AcDbAttr
1070
     0
1070
     1
  0
ATTRIB
  5
3703
330
3700
100
AcDbEntity
 67
     1
  8
Title block
100
AcDbText
 10
106.7720943241988
 20
418.8825748530454
 30
0.0
 40
2.5
  1
1:2
100
AcDbAttribute
  2
SCALE
 70
     0
1001
AcDbAttr
1070
     0
1070
     1
  0
ATTRIB
  5
3704
330
3700
100
AcDbEntity
 67
     1
  8
Title block
100
AcDbText
 10
153.3962215067236
 20
418.6662812426519
 30
0.0
 40
3.5
  1
10.7.2
100
AcDbAttribute
  2
DRGNO
 70
     0
1001
AcDbAttr
1070
     0
1070
     1
  0
ATTRIB
  5
3705
330
3700
100
AcDbEntity
 67
     1
  8
Title block
100
AcDbText
 10
74.9915488942562
 20
427.147359104233
 30
0.0
 40
4.0
  1
Panel for Type 2, 3 & 4 Walls
100
AcDbAttribute
  2
TITLE2
 70
     0
1001
AcDbAttr
1070
     0
1070
     1
  0
SEQEND
  5
3706
330
3700
100
AcDbEntity
 67
     1
  8
Border
  0
LEADER
  5
4DDD
330
5E
100
AcDbEntity
 67
     1
  8
Text
100
AcDbLeader
  3
STANDARD
 72
     1
 76
     4
 10
113.2325685161381
 20
615.5317215292098
 30
0.0
 10
125.6743964200375
 20
608.1717235585547
 30
0.0
 10
139.6399094578976
 20
604.6208368653731
 30
0.0
 10
143.3379426463957
 20
604.7542089973676
 30
0.0
1001
ACAD
1000
DSTYLE
1002
{
1070
   147
1040
1.0
1070
    77
1070
     0
1002
}
  0
MTEXT
  5
730F
330
5E
100
AcDbEntity
 67
     1
  8
Text
100
AcDbMText
 10
-3.275267920033684
 20
596.8637834516418
 30
0.0
 40
2.5
 41
30.65142315399521
 71
     1
 72
     5
  1
{\fSwis721 BT|b0|i1|c0|p34;Concrete insert flush box}
  7
1
 73
     1
 44
1.0
1001
ACAD
1000
ACAD_MTEXT_DEFINED_HEIGHT_BEGIN
1070
    46
1040
2.08226242986052
1000
ACAD_MTEXT_DEFINED_HEIGHT_END
  0
LEADER
  5
7310
330
5E
100
AcDbEntity
 67
     1
  8
Text
100
AcDbLeader
  3
STANDARD
 72
     1
 76
     4
 10
52.25326453859247
 20
580.5946964125715
 30
0.0
 10
41.6181876947694
 20
587.729582275969
 30
0.0
 10
29.45612478857447
 20
594.5528823479462
 30
0.0
 10
23.40347259334817
 20
594.9510819690508
 30
0.0
1001
ACAD
1000
DSTYLE
1002
{
1070
   147
1040
1.0
1070
    77
1070
     0
1002
}
  0
LEADER
  5
77FE
330
5E
100
AcDbEntity
 67
     1
  8
Text
100
AcDbLeader
  3
STANDARD
 72
     1
 76
     4
 10
135.6134975583336
 20
579.1312569879856
 30
0.0
 10
137.4967873873236
 20
586.3819290280369
 30
0.0
 10
139.6399094578976
 20
588.3780824828838
 30
0.0
 10
143.3379426463957
 20
588.5114546148783
 30
0.0
1001
ACAD
1000
DSTYLE
1002
{
1070
   341
1005
7845
1070
   147
1040
1.0
1070
    77
1070
     0
1002
}
  0
LEADER
  5
77FF
330
5E
100
AcDbEntity
 67
     1
  8
Text
100
AcDbLeader
  3
STANDARD
 72
     1
 76
     4
 10
78.96659638123719
 20
559.8050176958042
 30
0.0
 10
109.1521106452865
 20
567.1144952023958
 30
0.0
 10
139.6399094578976
 20
571.6277417209928
 30
0.0
 10
143.3379426463957
 20
571.7611138529873
 30
0.0
1001
ACAD
1000
DSTYLE
1002
{
1070
   147
1040
1.0
1070
    77
1070
     0
1002
}
  0
LEADER
  5
7800
330
5E
100
AcDbEntity
 67
     1
  8
Text
100
AcDbLeader
  3
STANDARD
 72
     1
 76
     4
 10
78.5200289984507
 20
555.4986855416323
 30
0.0
 10
102.1178624286362
 20
546.8456459865869
 30
0.0
 10
139.6399094578976
 20
542.4415419825341
 30
0.0
 10
143.3379426463957
 20
542.5749141145286
 30
0.0
1001
ACAD
1000
DSTYLE
1002
{
1070
   147
1040
1.0
1070
    77
1070
     0
1002
}
  0
MTEXT
  5
7844
330
5E
100
AcDbEntity
 67
     1
  8
Text
100
AcDbMText
 10
33.27413117231856
 20
563.7502336687398
 30
0.0
 40
2.5
 41
11.83954505632391
 71
     1
 72
     5
  1
{\fSwis721 BT|b0|i1|c0|p34;Electric Switch }
  7
1
 73
     1
 44
1.0
 90
        3
 63
   256
 45
1.5
441
  7800806
1001
ACAD
1000
ACAD_MTEXT_DEFINED_HEIGHT_BEGIN
1070
    46
1040
7.086247522181793
1000
ACAD_MTEXT_DEFINED_HEIGHT_END
  0
MTEXT
  5
7B55
102
{ACAD_XDICTIONARY
360
7CC3
102
}
330
5E
100
AcDbEntity
 67
     1
  8
Text
100
AcDbMText
 10
45.56710866116827
 20
510.295091994616
 30
0.0
 40
2.5
 41
30.83677071694615
 71
     1
 72
     5
  1
\pi0.54058;{\fSwis721 BT|b0|i1|c0|p34;75mm Supercrete\fSwis721 Blk BT|b0|i0|c0|p34;\U+2122\fSwis721 BT|b0|i1|c0|p34; \P\pi11.096;Panel}
  7
1
 73
     1
 44
1.0
 90
        3
 63
   256
 45
1.5
441
  7801401
1001
ACAD
1000
ACAD_MTEXT_DEFINED_HEIGHT_BEGIN
1070
    46
1040
7.475065856447031
1000
ACAD_MTEXT_DEFINED_HEIGHT_END
  0
ENDSEC
  0
SECTION
  2
OBJECTS
  0
DICTIONARY
  5
562
330
0
100
AcDbDictionary
281
     1
  3
ACAD_2007HEADERVARS_RT
350
7FEC
  3
ACAD_CIP_PREVIOUS_PRODUCT_INFO
350
7C3E
  3
ACAD_COLOR
350
2F60
  3
ACAD_DETAILVIEWSTYLE
350
7C31
  3
ACAD_GROUP
350
560
  3
ACAD_IMAGE_DICT
350
3025
  3
ACAD_IMAGE_VARS
350
302E
  3
ACAD_LAYOUT
350
58C
  3
ACAD_MATERIAL
350
2F36
  3
ACAD_MLEADERSTYLE
350
2F85
  3
ACAD_MLINESTYLE
350
561
  3
ACAD_PLOTSETTINGS
350
58D
  3
ACAD_PLOTSTYLENAME
350
58A
  3
ACAD_SCALELIST
350
2F63
  3
ACAD_SECTIONVIEWSTYLE
350
7C2E
  3
ACAD_TABLESTYLE
350
2F61
  3
ACAD_VISUALSTYLE
350
2F4F
  3
AcadDim
350
35D6
  3
ACDB_RECOMPOSE_DATA
350
7FEB
  3
AcDbVariableDictionary
350
599
  3
AcDsDecomposeData
350
7FF4
  3
AEC_PROPERTY_SET_DEFS
350
36FF
  3
ASE_INDEX_DICTIONARY
350
596
  0
DICTIONARY
  5
2FC5
330
55B
100
AcDbDictionary
280
     1
281
     1
  0
DICTIONARY
  5
2C65
330
553
100
AcDbDictionary
280
     1
281
     1
  3
ACAD_LAYERFILTERS
360
2C66
  3
ACAD_LAYERSTATES
360
2FE7
  0
DICTIONARY
  5
2F90
330
24
100
AcDbDictionary
280
     1
281
     1
  3
ADSK_XREC_LAYER_RECONCILED
360
2F91
  0
DICTIONARY
  5
2FF7
330
2FF6
100
AcDbDictionary
280
     1
281
     1
  0
DICTIONARY
  5
2FF9
330
2FF8
100
AcDbDictionary
280
     1
281
     1
  0
DICTIONARY
  5
37C1
330
37C0
100
AcDbDictionary
280
     1
281
     1
  0
DICTIONARY
  5
7EF7
330
7EF6
100
AcDbDictionary
280
     1
281
     1
  0
DICTIONARY
  5
30CC
330
2
100
AcDbDictionary
280
     1
281
     1
  3
ACAD_SORTENTS
360
30CD
  0
DICTIONARY
  5
3021
330
300A
100
AcDbDictionary
280
     1
281
     1
  3
ACAD_SORTENTS
360
7F13
  0
IMAGEDEF_REACTOR
  5
7F12
330
7F11
100
AcDbRasterImageDefReactor
 90
        2
330
7F11
  0
DICTIONARY
  5
7F46
330
7F45
100
AcDbDictionary
280
     1
281
     1
  3
ACAD_MTEXT_2008_RT
360
8031
  0
IMAGEDEF_REACTOR
  5
7F6B
330
7F6A
100
AcDbRasterImageDefReactor
 90
        2
330
7F6A
  0
DICTIONARY
  5
7FE9
330
7F75
100
AcDbDictionary
280
     1
281
     1
  3
ACAD_MTEXT_2008_RT
360
8032
  0
DICTIONARY
  5
7CC3
330
7B55
100
AcDbDictionary
280
     1
281
     1
  3
ACAD_MTEXT_2008_RT
360
801B
  0
DICTIONARY
  5
7FEC
102
{ACAD_REACTORS
330
562
102
}
330
562
100
AcDbDictionary
281
     1
  3
DIMFXL
350
7FED
  3
DIMJOGANG
350
7FEE
  0
XRECORD
  5
7C3E
102
{ACAD_REACTORS
330
562
102
}
330
562
100
AcDbXrecord
280
     1
300
ACD
300
2013
300
ACD_F_S
  0
DICTIONARY
  5
2F60
102
{ACAD_REACTORS
330
562
102
}
330
562
100
AcDbDictionary
281
     1
  0
DICTIONARY
  5
7C31
102
{ACAD_REACTORS
330
562
102
}
330
562
100
AcDbDictionary
281
     1
  3
Imperial24
350
7C32
  0
DICTIONARY
  5
560
102
{ACAD_REACTORS
330
562
102
}
330
562
100
AcDbDictionary
281
     1
  0
DICTIONARY
  5
3025
102
{ACAD_REACTORS
330
562
102
}
330
562
100
AcDbDictionary
281
     1
  3
Supercrete Hi Res
350
7F14
  0
RASTERVARIABLES
  5
302E
102
{ACAD_REACTORS
330
562
102
}
330
562
100
AcDbRasterVariables
 90
        0
 70
     1
 71
     1
 72
     0
  0
DICTIONARY
  5
58C
102
{ACAD_REACTORS
330
562
102
}
330
562
100
AcDbDictionary
281
     1
  3
12.7.2
350
58F
  3
Model
350
58E
  0
DICTIONARY
  5
2F36
102
{ACAD_REACTORS
330
562
102
}
330
562
100
AcDbDictionary
281
     1
  3
ByBlock
350
2F3F
  3
ByLayer
350
2F37
  3
Global
350
2F47
  0
DICTIONARY
  5
2F85
102
{ACAD_REACTORS
330
562
102
}
330
562
100
AcDbDictionary
281
     1
  3
Standard
350
2F86
  0
DICTIONARY
  5
561
102
{ACAD_REACTORS
330
562
102
}
330
562
100
AcDbDictionary
281
     1
  3
STANDARD
350
563
  0
DICTIONARY
  5
58D
102
{ACAD_REACTORS
330
562
102
}
330
562
100
AcDbDictionary
281
     1
  3
A3_PDF
350
4F7C
  0
ACDBDICTIONARYWDFLT
  5
58A
102
{ACAD_REACTORS
330
562
102
}
330
562
100
AcDbDictionary
281
     1
  3
Normal
350
58B
100
AcDbDictionaryWithDefault
340
58B
  0
DICTIONARY
  5
2F63
102
{ACAD_REACTORS
330
562
102
}
330
562
100
AcDbDictionary
281
     1
  3
A0
350
2F64
  3
A1
350
2F65
  3
A2
350
2F66
  3
A3
350
2F67
  3
A4
350
2F68
  3
A5
350
2F69
  3
A6
350
2F6A
  3
A7
350
2F6B
  3
A8
350
2F6C
  3
A9
350
2F6D
  3
B0
350
2F6E
  3
B1
350
2F6F
  3
B2
350
2F70
  3
B3
350
2F71
  3
B4
350
2F72
  3
B5
350
2F73
  3
B6
350
2F74
  3
B7
350
2F75
  3
B8
350
2F76
  3
B9
350
2F77
  3
C0
350
2F78
  3
C1
350
2F79
  3
C2
350
2F7A
  3
C3
350
2F7B
  3
C4
350
2F7C
  3
C5
350
2F7D
  3
C6
350
2F7E
  3
C7
350
2F7F
  3
C8
350
2F80
  3
C9
350
2F81
  3
D0
350
2F82
  3
D1
350
2F83
  3
D2
350
2F84
  0
DICTIONARY
  5
7C2E
102
{ACAD_REACTORS
330
562
102
}
330
562
100
AcDbDictionary
281
     1
  3
Imperial24
350
7C30
  0
DICTIONARY
  5
2F61
102
{ACAD_REACTORS
330
562
102
}
330
562
100
AcDbDictionary
281
     1
  3
Standard
350
2F62
  0
DICTIONARY
  5
2F4F
102
{ACAD_REACTORS
330
562
102
}
330
562
100
AcDbDictionary
281
     1
  3
2dWireframe
350
2F55
  3
3D Hidden
350
2F57
  3
3dWireframe
350
2F56
  3
Basic
350
2F54
  3
Brighten
350
2F5B
  3
ColorChange
350
2F5F
  3
Conceptual
350
2F58
  3
Dim
350
2F5A
  3
EdgeColorOff
350
7C2D
  3
Facepattern
350
2F5E
  3
Flat
350
2F50
  3
FlatWithEdges
350
2F51
  3
Gouraud
350
2F52
  3
GouraudWithEdges
350
2F53
  3
Hidden
350
7C25
  3
JitterOff
350
7C2B
  3
Linepattern
350
2F5D
  3
OverhangOff
350
7C2C
  3
Realistic
350
2F59
  3
Shaded
350
7C2A
  3
Shaded with edges
350
7C29
  3
Shades of Gray
350
7C26
  3
Sketchy
350
7C27
  3
Thicken
350
2F5C
  3
Wireframe
350
7C24
  3
X-Ray
350
7C28
  0
XRECORD
  5
35D6
102
{ACAD_REACTORS
330
562
102
}
330
562
100
AcDbXrecord
280
     1
 90
   990106
  3

 60
     0
 61
     0
 62
     2
 63
     2
 64
     0
 65
     1
 66
     0
 67
     4
 68
     1
 69
     0
 70
     0
 71
     0
 72
     0
 40
0.0
170
     1
340
35DC
  0
XRECORD
  5
7FEB
102
{ACAD_REACTORS
330
562
102
}
330
562
100
AcDbXrecord
280
     1
 90
        1
330
2F62
330
7F45
330
7F74
330
7F75
  0
DICTIONARY
  5
599
102
{ACAD_REACTORS
330
562
102
}
330
562
100
AcDbDictionary
281
     1
  3
CANNOSCALE
350
2FD3
  3
CMLEADERSTYLE
350
2FD2
  3
CTABLESTYLE
350
2FD1
  3
CVIEWDETAILSTYLE
350
7D0F
  3
CVIEWSECTIONSTYLE
350
7D10
  3
DIMASSOC
350
59A
  0
DICTIONARY
  5
7FF4
102
{ACAD_REACTORS
330
562
102
}
330
562
100
AcDbDictionary
281
     1
  3
AcDsRecords
350
7FF6
  3
AcDsSchemas
350
7FF5
1001
ACAD
1070
     2
  0
DICTIONARY
  5
36FF
102
{ACAD_REACTORS
330
562
102
}
330
562
100
AcDbDictionary
281
     1
  0
DICTIONARY
  5
596
102
{ACAD_REACTORS
330
562
102
}
330
562
100
AcDbDictionary
281
     1
  3
ASEBlockHierarchyIndexRecord
350
598
1001
DCO15
1040
1440471924.124
  0
DICTIONARY
  5
2C66
102
{ACAD_REACTORS
330
2C65
102
}
330
2C65
100
AcDbDictionary
280
     1
281
     1
  3
DIMENSION
360
2C67
  3
HB_X
360
2C68
  0
DICTIONARY
  5
2FE7
102
{ACAD_REACTORS
330
2C65
102
}
330
2C65
100
AcDbDictionary
281
     1
  3
ACET-LAYISO
350
35F7
  0
XRECORD
  5
2F91
102
{ACAD_REACTORS
330
2F90
102
}
330
2F90
100
AcDbXrecord
280
     1
290
     1
  0
SORTENTSTABLE
  5
30CD
102
{ACAD_REACTORS
330
30CC
102
}
330
30CC
100
AcDbSortentsTable
330
2
331
7F6A
  5
7F62
331
7F62
  5
7F5A
331
73C3
  5
7712
331
6016
  5
728D
331
743E
  5
7439
331
7281
  5
741C
331
6012
  5
7264
331
743A
  5
743A
331
78CF
  5
78C4
331
78CB
  5
7B14
331
7F5E
  5
7F56
331
7F5A
  5
7F43
331
7F56
  5
7F3F
331
7B24
  5
7B24
331
7B20
  5
7B1E
331
7B1C
  5
7B20
331
600E
  5
7260
331
7B18
  5
7452
331
741A
  5
7719
331
7416
  5
7632
331
78C7
  5
7B1A
331
78C3
  5
7B17
331
78BF
  5
7B0F
331
78BB
  5
78CE
331
7F42
  5
7F67
331
6161
  5
7417
331
615D
  5
73F6
331
73F6
  5
7635
331
6159
  5
73DC
331
78B7
  5
78C9
331
7B16
  5
6190
331
78AF
  5
78C7
331
7B12
  5
613A
331
78AB
  5
78C1
331
7F3E
  5
7F63
331
7F36
  5
7F36
331
6155
  5
73C9
331
73DE
  5
6113
331
7459
  5
771F
331
73DA
  5
7716
331
7451
  5
6144
331
73CA
  5
7714
331
78A7
  5
78BD
331
78A3
  5
78B9
331
7F69
  5
7F61
331
7F61
  5
7F59
331
6019
  5
7290
331
72B8
  5
4EBF
331
7441
  5
7436
331
6015
  5
7267
331
7280
  5
741A
331
6011
  5
7263
331
7439
  5
743B
331
7843
  5
6111
331
78CE
  5
7B07
331
78CA
  5
7B15
331
7F5D
  5
7F55
331
7F55
  5
7F3E
331
7B1F
  5
7B22
331
7B1B
  5
7B21
331
600D
  5
61DD
331
741D
  5
771C
331
6009
  5
6019
331
7419
  5
7718
331
7415
  5
7634
331
6190
  5
6192
331
78C6
  5
7B19
331
78C2
  5
7B16
331
78BE
  5
7B08
331
78BA
  5
78CD
331
7F45
  5
7F6A
331
7F41
  5
7F66
331
6160
  5
7415
331
615C
  5
73F5
331
6158
  5
73DA
331
78B6
  5
78C8
331
78AE
  5
78C5
331
7B11
  5
7440
331
78AA
  5
78C0
331
770B
  5
610C
331
6154
  5
73C0
331
73DD
  5
743C
331
73D9
  5
7715
331
6108
  5
73BE
331
7450
  5
6013
331
73C9
  5
7713
331
78A6
  5
78BC
331
78A2
  5
78B8
331
7F60
  5
7F58
331
6018
  5
728F
331
7440
  5
7437
331
6014
  5
7266
331
743C
  5
771D
331
6010
  5
7262
331
78CD
  5
7B11
331
782E
  5
78B6
331
78C9
  5
7B1C
331
7F5C
  5
7F45
331
7F58
  5
7F41
331
7B22
  5
743F
331
7B1E
  5
6108
331
727F
  5
7419
331
7B1A
  5
6106
331
600C
  5
61AC
331
741C
  5
771B
331
7418
  5
7717
331
7414
  5
7631
331
78C5
  5
7B18
331
78C1
  5
7B13
331
78BD
  5
78D0
331
78B9
  5
78CC
331
7F44
  5
7F69
331
7F40
  5
7F65
331
615F
  5
7413
331
73F8
  5
61AB
331
615B
  5
73F4
331
72FA
  5
7291
331
7B14
  5
6115
331
78AD
  5
78C3
331
7B10
  5
745B
331
78A9
  5
78BF
331
6157
  5
73D9
331
745B
  5
741B
331
73DC
  5
7441
331
78A5
  5
78BB
331
7B08
  5
743D
331
78A1
  5
78B7
331
7F63
  5
7F5B
331
6017
  5
728E
331
73C0
  5
7636
331
743F
  5
7438
331
6013
  5
7265
331
78D0
  5
78C6
331
78CC
  5
7B12
331
782D
  5
78AF
331
78C8
  5
7B1B
331
7F5F
  5
7F57
331
7F5B
  5
7F44
331
7F57
  5
7F40
331
7B25
  5
7B25
331
7B21
  5
745A
331
727E
  5
7418
331
600F
  5
7261
331
7B19
  5
743E
331
741B
  5
771A
331
5E3F
  5
4EC2
331
7413
  5
7633
331
78C0
  5
7B10
331
78BC
  5
78CF
331
78B8
  5
78CA
331
7F43
  5
7F68
331
615E
  5
73F7
331
73F7
  5
7630
331
615A
  5
73F3
331
7B17
  5
7B1F
331
78AC
  5
78C2
331
7B13
  5
6191
331
78A8
  5
78BE
331
7F3F
  5
7F64
331
6156
  5
73D8
331
72DD
  5
6014
331
745A
  5
741D
331
72C1
  5
4EC1
331
7B0F
  5
7B1D
331
7452
  5
771E
331
78A4
  5
78BA
331
7B07
  5
7450
  0
SORTENTSTABLE
  5
7F13
102
{ACAD_REACTORS
330
3021
102
}
330
3021
100
AcDbSortentsTable
330
300A
  0
XRECORD
  5
8031
102
{ACAD_REACTORS
330
7F46
102
}
330
7F46
100
AcDbXrecord
280
     1
 40
733815.0
  1
\pi1.3515;{\fSwis721 BT|b0|i1|c0|p34;75mm Supercrete\fSwis721 Blk BT|b0|i0|c0|p34;™\fSwis721 BT|b0|i1|c0|p34; \P\pi22.461;Panel}
  0
XRECORD
  5
8032
102
{ACAD_REACTORS
330
7FE9
102
}
330
7FE9
100
AcDbXrecord
280
     1
 40
518436.0
  1
\pi51.09;A.W.S. - Type 2, 3 & 4 Walls \P\pi0;Powerswitch Installation into Supercrete{\H1.0833x;™} Panel
  0
XRECORD
  5
801B
102
{ACAD_REACTORS
330
7CC3
102
}
330
7CC3
100
AcDbXrecord
280
     1
 40
744968.0
  1
\pi0.54058;{\fSwis721 BT|b0|i1|c0|p34;75mm Supercrete\fSwis721 Blk BT|b0|i0|c0|p34;™\fSwis721 BT|b0|i1|c0|p34; \P\pi11.096;Panel}
  0
XRECORD
  5
7FED
102
{ACAD_REACTORS
330
7FEC
102
}
330
7FEC
100
AcDbXrecord
280
     1
 40
1.25
  0
XRECORD
  5
7FEE
102
{ACAD_REACTORS
330
7FEC
102
}
330
7FEC
100
AcDbXrecord
280
     1
 40
1.570796326794896
  0
ACDBDETAILVIEWSTYLE
  5
7C32
102
{ACAD_REACTORS
330
7C31
102
}
330
7C31
100
AcDbModelDocViewStyle
 70
     0
  3
Imperial24
290
     0
100
AcDbDetailViewStyle
 70
     0
 71
     0
 90
        3
 71
     1
340
555
 62
   256
 40
0.24
340
0
 62
   256
 40
0.24
300

 40
0.36
280
     3
 71
     2
340
5
 90
       25
 62
   256
 71
     3
340
555
 62
   256
 40
0.24
 90
        1
 40
0.75
 90
        1
300
%<\AcVar ViewType \f "%tc1">% %<\AcVar ViewDetailId>%\PSCALE %<\AcVar ViewScale \f "%sn">%
 71
     4
340
5
 90
       25
 62
   256
340
5
 90
       25
 62
   256
280
     0
  0
IMAGEDEF
  5
7F14
102
{ACAD_REACTORS
330
7F12
330
3025
330
7F6B
102
}
330
3025
100
AcDbRasterImageDef
 90
        0
  1
Supercrete Hi Res.jpg
 10
1367.0
 20
308.0
 11
0.0846666666666667
 21
0.0846666666666667
280
     1
281
     5
  0
LAYOUT
  5
58F
102
{ACAD_XDICTIONARY
360
2FEB
102
}
102
{ACAD_REACTORS
330
58C
102
}
330
58C
100
AcDbPlotSettings
  1

  2
Adobe PDF.pc3
  4
A4
  6

 40
3.174999952316284
 41
3.174999952316284
 42
3.175003051757812
 43
3.17498779296875
 44
209.9733276367187
 45
297.0318298339844
 46
0.0
 47
0.0
 48
-18.13873906734903
 49
401.3216390553216
140
171.861260932651
141
684.3216390553216
142
1.0
143
1.0
 70
   672
 72
     1
 73
     0
 74
     5
  7
Hebel monochrome.ctb
 75
    16
147
0.9999999999999998
 76
     0
 77
     2
 78
   300
148
18.13873906734903
149
-401.3216390553216
100
AcDbLayout
  1
12.7.2
 70
     0
 71
     1
 10
-21.31373901966532
 20
398.1466391030053
 11
188.6595886170535
 21
695.1784689369897
 12
0.0
 22
0.0
 32
0.0
 14
-9.858442879548192
 24
409.6180983502865
 34
0.0
 15
181.4438427307965
 25
686.221153824377
 35
0.0
146
0.0
 13
0.0
 23
0.0
 33
0.0
 16
1.0
 26
0.0
 36
0.0
 17
0.0
 27
1.0
 37
0.0
 76
     0
330
5E
331
5F
1001
ACAD_PSEXT
1000
Adobe PDF.pc3
1000
Adobe PDF Converter
1000
Documents\*.pdf
1000

1070
     0
  0
LAYOUT
  5
58E
102
{ACAD_REACTORS
330
58C
102
}
330
58C
100
AcDbPlotSettings
  1

  2
Adobe PDF.pc3
  4
A4
  6

 40
3.174999952316284
 41
3.174999952316284
 42
3.175003051757812
 43
3.17498779296875
 44
209.9733276367187
 45
297.0318298339844
 46
-107.3966587700561
 47
2.170128170865382
 48
0.0
 49
0.0
140
0.0
141
0.0
142
1.0
143
2.0
 70
 11940
 72
     1
 73
     0
 74
     0
  7
Hebel monochrome.ctb
 75
     0
147
0.2433260345182114
 76
     0
 77
     2
 78
   300
148
20067.5459596347
149
-8114.057247963794
100
AcDbLayout
  1
Model
 70
     1
 71
     0
 10
0.0
 20
0.0
 11
12.0
 21
9.0
 12
0.0
 22
0.0
 32
0.0
 14
0.0
 24
0.0
 34
0.0
 15
0.0
 25
0.0
 35
0.0
146
0.0
 13
0.0
 23
0.0
 33
0.0
 16
1.0
 26
0.0
 36
0.0
 17
0.0
 27
1.0
 37
0.0
 76
     0
330
2
331
2F34
1001
ACAD_PSEXT
1000
Adobe PDF.pc3
1000
Adobe PDF Converter
1000
Documents\*.pdf
1000

1070
     0
  0
MATERIAL
  5
2F3F
102
{ACAD_XDICTIONARY
360
2F40
102
}
102
{ACAD_REACTORS
330
2F36
102
}
330
2F36
100
AcDbMaterial
  1
ByBlock
 72
     0
 43
0.0208333333333333
 43
0.0
 43
0.0
 43
0.0
 43
0.0
 43
0.0208333333333333
 43
0.0
 43
0.0
 43
0.0
 43
0.0
 43
1.0
 43
0.0
 43
0.0
 43
0.0
 43
0.0
 43
1.0
 77
     0
 47
0.0208333333333333
 47
0.0
 47
0.0
 47
0.0
 47
0.0
 47
0.0208333333333333
 47
0.0
 47
0.0
 47
0.0
 47
0.0
 47
1.0
 47
0.0
 47
0.0
 47
0.0
 47
0.0
 47
1.0
171
     0
 49
0.0208333333333333
 49
0.0
 49
0.0
 49
0.0
 49
0.0
 49
0.0208333333333333
 49
0.0
 49
0.0
 49
0.0
 49
0.0
 49
1.0
 49
0.0
 49
0.0
 49
0.0
 49
0.0
 49
1.0
175
     0
142
0.0208333333333333
142
0.0
142
0.0
142
0.0
142
0.0
142
0.0208333333333333
142
0.0
142
0.0
142
0.0
142
0.0
142
1.0
142
0.0
142
0.0
142
0.0
142
0.0
142
1.0
179
     0
144
0.0208333333333333
144
0.0
144
0.0
144
0.0
144
0.0
144
0.0208333333333333
144
0.0
144
0.0
144
0.0
144
0.0
144
1.0
144
0.0
144
0.0
144
0.0
144
0.0
144
1.0
147
0.0208333333333333
147
0.0
147
0.0
147
0.0
147
0.0
147
0.0208333333333333
147
0.0
147
0.0
147
0.0
147
0.0
147
1.0
147
0.0
147
0.0
147
0.0
147
0.0
147
1.0
  0
MATERIAL
  5
2F37
102
{ACAD_XDICTIONARY
360
2F38
102
}
102
{ACAD_REACTORS
330
2F36
102
}
330
2F36
100
AcDbMaterial
  1
ByLayer
 72
     0
 43
0.0208333333333333
 43
0.0
 43
0.0
 43
0.0
 43
0.0
 43
0.0208333333333333
 43
0.0
 43
0.0
 43
0.0
 43
0.0
 43
1.0
 43
0.0
 43
0.0
 43
0.0
 43
0.0
 43
1.0
 77
     0
 47
0.0208333333333333
 47
0.0
 47
0.0
 47
0.0
 47
0.0
 47
0.0208333333333333
 47
0.0
 47
0.0
 47
0.0
 47
0.0
 47
1.0
 47
0.0
 47
0.0
 47
0.0
 47
0.0
 47
1.0
171
     0
 49
0.0208333333333333
 49
0.0
 49
0.0
 49
0.0
 49
0.0
 49
0.0208333333333333
 49
0.0
 49
0.0
 49
0.0
 49
0.0
 49
1.0
 49
0.0
 49
0.0
 49
0.0
 49
0.0
 49
1.0
175
     0
142
0.0208333333333333
142
0.0
142
0.0
142
0.0
142
0.0
142
0.0208333333333333
142
0.0
142
0.0
142
0.0
142
0.0
142
1.0
142
0.0
142
0.0
142
0.0
142
0.0
142
1.0
179
     0
144
0.0208333333333333
144
0.0
144
0.0
144
0.0
144
0.0
144
0.0208333333333333
144
0.0
144
0.0
144
0.0
144
0.0
144
1.0
144
0.0
144
0.0
144
0.0
144
0.0
144
1.0
147
0.0208333333333333
147
0.0
147
0.0
147
0.0
147
0.0
147
0.0208333333333333
147
0.0
147
0.0
147
0.0
147
0.0
147
1.0
147
0.0
147
0.0
147
0.0
147
0.0
147
1.0
  0
MATERIAL
  5
2F47
102
{ACAD_XDICTIONARY
360
2F48
102
}
102
{ACAD_REACTORS
330
2F36
102
}
330
2F36
100
AcDbMaterial
  1
Global
 72
     0
 43
0.0208333333333333
 43
0.0
 43
0.0
 43
0.0
 43
0.0
 43
0.0208333333333333
 43
0.0
 43
0.0
 43
0.0
 43
0.0
 43
1.0
 43
0.0
 43
0.0
 43
0.0
 43
0.0
 43
1.0
 77
     0
 47
0.0208333333333333
 47
0.0
 47
0.0
 47
0.0
 47
0.0
 47
0.0208333333333333
 47
0.0
 47
0.0
 47
0.0
 47
0.0
 47
1.0
 47
0.0
 47
0.0
 47
0.0
 47
0.0
 47
1.0
171
     0
 49
0.0208333333333333
 49
0.0
 49
0.0
 49
0.0
 49
0.0
 49
0.0208333333333333
 49
0.0
 49
0.0
 49
0.0
 49
0.0
 49
1.0
 49
0.0
 49
0.0
 49
0.0
 49
0.0
 49
1.0
175
     0
142
0.0208333333333333
142
0.0
142
0.0
142
0.0
142
0.0
142
0.0208333333333333
142
0.0
142
0.0
142
0.0
142
0.0
142
1.0
142
0.0
142
0.0
142
0.0
142
0.0
142
1.0
179
     0
144
0.0208333333333333
144
0.0
144
0.0
144
0.0
144
0.0
144
0.0208333333333333
144
0.0
144
0.0
144
0.0
144
0.0
144
1.0
144
0.0
144
0.0
144
0.0
144
0.0
144
1.0
147
0.0208333333333333
147
0.0
147
0.0
147
0.0
147
0.0
147
0.0208333333333333
147
0.0
147
0.0
147
0.0
147
0.0
147
1.0
147
0.0
147
0.0
147
0.0
147
0.0
147
1.0
  0
MLEADERSTYLE
  5
2F86
102
{ACAD_REACTORS
330
2F85
102
}
330
2F85
100
AcDbMLeaderStyle
170
     2
171
     1
172
     0
 90
        2
 40
0.0
 41
0.0
173
     1
 91
-1056964608
340
557
 92
       -2
290
     1
 42
0.09
291
     1
 43
0.36
  3
Standard
 44
0.18
300

342
555
174
     1
178
     6
175
     1
176
     0
 93
-1056964608
 45
0.18
292
     0
297
     0
 46
0.18
 94
-1056964608
 47
1.0
 49
1.0
140
1.0
293
     1
141
0.0
294
     1
177
     0
142
1.0
295
     0
296
     0
143
0.125
1001
ACAD_MLEADERVER
1070
     2
  0
MLINESTYLE
  5
563
102
{ACAD_REACTORS
330
561
102
}
330
561
100
AcDbMlineStyle
  2
STANDARD
 70
     0
  3

 62
   256
 51
90.0
 52
90.0
 71
     2
 49
0.5
 62
   256
  6
BYLAYER
 49
-0.5
 62
   256
  6
BYLAYER
  0
PLOTSETTINGS
  5
4F7C
102
{ACAD_REACTORS
330
58D
102
}
330
58D
100
AcDbPlotSettings
  1
A3_PDF
  2
Adobe PDF
  4
A4
  6

 40
3.174999952316284
 41
3.174999952316284
 42
3.175003051757812
 43
3.17498779296875
 44
209.9733276367187
 45
297.0318298339844
 46
0.0
 47
2.419603640926112
 48
132495.994355
 49
-42479.296146
140
140025.935292
141
-39421.803838
142
1.0
143
3.646511884082726
 70
  3764
 72
     1
 73
     0
 74
     1
  7
MyBW.ctb
 75
     0
147
0.2742346746119403
 76
     1
 77
     2
 78
   300
148
0.0453119052781403
149
60.0636080096233
1001
ACAD_PSEXT
1000
Adobe PDF
1000
Adobe PDF Converter
1000
Documents\*.pdf
1000

1070
     0
  0
ACDBPLACEHOLDER
  5
58B
102
{ACAD_REACTORS
330
58A
102
}
330
58A
  0
SCALE
  5
2F64
102
{ACAD_REACTORS
330
2F63
102
}
330
2F63
100
AcDbScale
 70
     0
300
1:1
140
1.0
141
1.0
290
     1
  0
SCALE
  5
2F65
102
{ACAD_REACTORS
330
2F63
102
}
330
2F63
100
AcDbScale
 70
     0
300
1:2
140
1.0
141
2.0
290
     0
  0
SCALE
  5
2F66
102
{ACAD_REACTORS
330
2F63
102
}
330
2F63
100
AcDbScale
 70
     0
300
1:4
140
1.0
141
4.0
290
     0
  0
SCALE
  5
2F67
102
{ACAD_REACTORS
330
2F63
102
}
330
2F63
100
AcDbScale
 70
     0
300
1:5
140
1.0
141
5.0
290
     0
  0
SCALE
  5
2F68
102
{ACAD_REACTORS
330
2F63
102
}
330
2F63
100
AcDbScale
 70
     0
300
1:8
140
1.0
141
8.0
290
     0
  0
SCALE
  5
2F69
102
{ACAD_REACTORS
330
2F63
102
}
330
2F63
100
AcDbScale
 70
     0
300
1:10
140
1.0
141
10.0
290
     0
  0
SCALE
  5
2F6A
102
{ACAD_REACTORS
330
2F63
102
}
330
2F63
100
AcDbScale
 70
     0
300
1:16
140
1.0
141
16.0
290
     0
  0
SCALE
  5
2F6B
102
{ACAD_REACTORS
330
2F63
102
}
330
2F63
100
AcDbScale
 70
     0
300
1:20
140
1.0
141
20.0
290
     0
  0
SCALE
  5
2F6C
102
{ACAD_REACTORS
330
2F63
102
}
330
2F63
100
AcDbScale
 70
     0
300
1:30
140
1.0
141
30.0
290
     0
  0
SCALE
  5
2F6D
102
{ACAD_REACTORS
330
2F63
102
}
330
2F63
100
AcDbScale
 70
     0
300
1:40
140
1.0
141
40.0
290
     0
  0
SCALE
  5
2F6E
102
{ACAD_REACTORS
330
2F63
102
}
330
2F63
100
AcDbScale
 70
     0
300
1:50
140
1.0
141
50.0
290
     0
  0
SCALE
  5
2F6F
102
{ACAD_REACTORS
330
2F63
102
}
330
2F63
100
AcDbScale
 70
     0
300
1:100
140
1.0
141
100.0
290
     0
  0
SCALE
  5
2F70
102
{ACAD_REACTORS
330
2F63
102
}
330
2F63
100
AcDbScale
 70
     0
300
2:1
140
2.0
141
1.0
290
     0
  0
SCALE
  5
2F71
102
{ACAD_REACTORS
330
2F63
102
}
330
2F63
100
AcDbScale
 70
     0
300
4:1
140
4.0
141
1.0
290
     0
  0
SCALE
  5
2F72
102
{ACAD_REACTORS
330
2F63
102
}
330
2F63
100
AcDbScale
 70
     0
300
8:1
140
8.0
141
1.0
290
     0
  0
SCALE
  5
2F73
102
{ACAD_REACTORS
330
2F63
102
}
330
2F63
100
AcDbScale
 70
     0
300
10:1
140
10.0
141
1.0
290
     0
  0
SCALE
  5
2F74
102
{ACAD_REACTORS
330
2F63
102
}
330
2F63
100
AcDbScale
 70
     0
300
100:1
140
100.0
141
1.0
290
     0
  0
SCALE
  5
2F75
102
{ACAD_REACTORS
330
2F63
102
}
330
2F63
100
AcDbScale
 70
     0
300
1/128" = 1'-0"
140
0.0078125
141
12.0
290
     0
  0
SCALE
  5
2F76
102
{ACAD_REACTORS
330
2F63
102
}
330
2F63
100
AcDbScale
 70
     0
300
1/64" = 1'-0"
140
0.015625
141
12.0
290
     0
  0
SCALE
  5
2F77
102
{ACAD_REACTORS
330
2F63
102
}
330
2F63
100
AcDbScale
 70
     0
300
1/32" = 1'-0"
140
0.03125
141
12.0
290
     0
  0
SCALE
  5
2F78
102
{ACAD_REACTORS
330
2F63
102
}
330
2F63
100
AcDbScale
 70
     0
300
1/16" = 1'-0"
140
0.0625
141
12.0
290
     0
  0
SCALE
  5
2F79
102
{ACAD_REACTORS
330
2F63
102
}
330
2F63
100
AcDbScale
 70
     0
300
3/32" = 1'-0"
140
0.09375
141
12.0
290
     0
  0
SCALE
  5
2F7A
102
{ACAD_REACTORS
330
2F63
102
}
330
2F63
100
AcDbScale
 70
     0
300
1/8" = 1'-0"
140
0.125
141
12.0
290
     0
  0
SCALE
  5
2F7B
102
{ACAD_REACTORS
330
2F63
102
}
330
2F63
100
AcDbScale
 70
     0
300
3/16" = 1'-0"
140
0.1875
141
12.0
290
     0
  0
SCALE
  5
2F7C
102
{ACAD_REACTORS
330
2F63
102
}
330
2F63
100
AcDbScale
 70
     0
300
1/4" = 1'-0"
140
0.25
141
12.0
290
     0
  0
SCALE
  5
2F7D
102
{ACAD_REACTORS
330
2F63
102
}
330
2F63
100
AcDbScale
 70
     0
300
3/8" = 1'-0"
140
0.375
141
12.0
290
     0
  0
SCALE
  5
2F7E
102
{ACAD_REACTORS
330
2F63
102
}
330
2F63
100
AcDbScale
 70
     0
300
1/2" = 1'-0"
140
0.5
141
12.0
290
     0
  0
SCALE
  5
2F7F
102
{ACAD_REACTORS
330
2F63
102
}
330
2F63
100
AcDbScale
 70
     0
300
3/4" = 1'-0"
140
0.75
141
12.0
290
     0
  0
SCALE
  5
2F80
102
{ACAD_REACTORS
330
2F63
102
}
330
2F63
100
AcDbScale
 70
     0
300
1" = 1'-0"
140
1.0
141
12.0
290
     0
  0
SCALE
  5
2F81
102
{ACAD_REACTORS
330
2F63
102
}
330
2F63
100
AcDbScale
 70
     0
300
1-1/2" = 1'-0"
140
1.5
141
12.0
290
     0
  0
SCALE
  5
2F82
102
{ACAD_REACTORS
330
2F63
102
}
330
2F63
100
AcDbScale
 70
     0
300
3" = 1'-0"
140
3.0
141
12.0
290
     0
  0
SCALE
  5
2F83
102
{ACAD_REACTORS
330
2F63
102
}
330
2F63
100
AcDbScale
 70
     0
300
6" = 1'-0"
140
6.0
141
12.0
290
     0
  0
SCALE
  5
2F84
102
{ACAD_REACTORS
330
2F63
102
}
330
2F63
100
AcDbScale
 70
     0
300
1'-0" = 1'-0"
140
12.0
141
12.0
290
     0
  0
ACDBSECTIONVIEWSTYLE
  5
7C30
102
{ACAD_REACTORS
330
7C2E
102
}
330
7C2E
100
AcDbModelDocViewStyle
 70
     0
  3
Imperial24
290
     0
100
AcDbSectionViewStyle
 70
     0
 71
     0
 90
       78
 71
     1
340
555
 62
   256
 40
0.24
340
0
340
0
 62
   256
 40
0.24
300
I, O, Q, S, X, Z
 40
0.48
 90
        3
 40
0.18
 90
        1
 71
     2
340
7C2F
 90
       25
 62
   256
340
5
 90
       50
 62
   256
 40
0.24
 40
0.0
 40
0.24
 71
     3
340
555
 62
   256
 40
0.24
 90
        1
 40
0.75
 90
        1
300
%<\AcVar ViewType \f "%tc1">% %<\AcVar ViewSectionStartId>%-%<\AcVar ViewSectionEndId>%\PSCALE %<\AcVar ViewScale \f "%sn">%
 71
     4
 62
   256
 62
   257
300
ANSI31
 40
1.0
 90
        0
290
     0
290
     0
 90
        6
 40
0.0
 40
1.570796326794896
 40
0.2617993877991494
 40
1.308996938995747
 40
-0.2617993877991494
 40
1.832595714594046
  0
TABLESTYLE
  5
2F62
102
{ACAD_XDICTIONARY
360
2FC0
102
}
102
{ACAD_REACTORS
330
2F61
102
}
330
2F61
100
AcDbTableStyle
  3
Standard
 70
     0
 71
     0
 40
0.06
 41
0.06
280
     0
281
     0
  7
STANDARD
140
0.18
170
     2
 62
     0
 63
     7
283
     0
274
    -2
284
     1
 64
     0
275
    -2
285
     1
 65
     0
276
    -2
286
     1
 66
     0
277
    -2
287
     1
 67
     0
278
    -2
288
     1
 68
     0
279
    -2
289
     1
 69
     0
  7
STANDARD
140
0.25
170
     5
 62
     0
 63
     7
283
     0
274
    -2
284
     1
 64
     0
275
    -2
285
     1
 65
     0
276
    -2
286
     1
 66
     0
277
    -2
287
     1
 67
     0
278
    -2
288
     1
 68
     0
279
    -2
289
     1
 69
     0
  7
STANDARD
140
0.18
170
     5
 62
     0
 63
     7
283
     0
274
    -2
284
     1
 64
     0
275
    -2
285
     1
 65
     0
276
    -2
286
     1
 66
     0
277
    -2
287
     1
 67
     0
278
    -2
288
     1
 68
     0
279
    -2
289
     1
 69
     0
  0
VISUALSTYLE
  5
2F55
102
{ACAD_XDICTIONARY
360
8004
102
}
102
{ACAD_REACTORS
330
2F4F
102
}
330
2F4F
100
AcDbVisualStyle
  2
2dWireframe
 70
     4
 71
     0
 72
     2
 73
     0
 90
        0
 40
-0.6
 41
-30.0
 62
     5
 63
     7
421
 16777215
 74
     1
 91
        4
 64
     7
 65
   257
 75
     1
175
     1
 42
1.0
 92
        0
 66
   257
 43
1.0
 76
     1
 77
     6
 78
     2
 67
     7
 79
     5
170
     0
171
     0
290
     0
174
     0
 93
        1
 44
0.0
173
     0
291
     0
 45
0.0
1001
ACAD
1000
AcDbSavedByObjectVersion
1070
     0
  0
VISUALSTYLE
  5
2F57
102
{ACAD_XDICTIONARY
360
8008
102
}
102
{ACAD_REACTORS
330
2F4F
102
}
330
2F4F
100
AcDbVisualStyle
  2
3D Hidden
 70
     6
 71
     1
 72
     2
 73
     2
 90
        0
 40
-0.6
 41
-30.0
 62
     5
 63
     7
421
 16777215
 74
     2
 91
        2
 64
     7
 65
   257
 75
     2
175
     1
 42
40.0
 92
        0
 66
   257
 43
1.0
 76
     1
 77
     6
 78
     2
 67
     7
 79
     3
170
     0
171
     0
290
     0
174
     0
 93
        1
 44
0.0
173
     0
291
     0
 45
0.0
1001
ACAD
1000
AcDbSavedByObjectVersion
1070
     0
  0
VISUALSTYLE
  5
2F56
102
{ACAD_XDICTIONARY
360
8006
102
}
102
{ACAD_REACTORS
330
2F4F
102
}
330
2F4F
100
AcDbVisualStyle
  2
3dWireframe
 70
     5
 71
     0
 72
     2
 73
     0
 90
        0
 40
-0.6
 41
-30.0
 62
     5
 63
     7
421
 16777215
 74
     1
 91
        4
 64
     7
 65
   257
 75
     1
175
     1
 42
1.0
 92
        0
 66
   257
 43
1.0
 76
     1
 77
     6
 78
     2
 67
     7
 79
     5
170
     0
171
     0
290
     0
174
     0
 93
        1
 44
0.0
173
     0
291
     0
 45
0.0
1001
ACAD
1000
AcDbSavedByObjectVersion
1070
     0
  0
VISUALSTYLE
  5
2F54
102
{ACAD_XDICTIONARY
360
8002
102
}
102
{ACAD_REACTORS
330
2F4F
102
}
330
2F4F
100
AcDbVisualStyle
  2
Basic
 70
     7
 71
     1
 72
     0
 73
     1
 90
        0
 40
-0.6
 41
-30.0
 62
     5
 63
     7
421
 16777215
 74
     0
 91
        4
 64
     7
 65
   257
 75
     1
175
     1
 42
1.0
 92
        8
 66
     7
 43
1.0
 76
     1
 77
     6
 78
     2
 67
     7
 79
     5
170
     0
171
     0
290
     0
174
     0
 93
        1
 44
0.0
173
     0
291
     1
 45
0.0
1001
ACAD
1000
AcDbSavedByObjectVersion
1070
     0
  0
VISUALSTYLE
  5
2F5B
102
{ACAD_XDICTIONARY
360
8010
102
}
102
{ACAD_REACTORS
330
2F4F
102
}
330
2F4F
100
AcDbVisualStyle
  2
Brighten
 70
    12
 71
     2
 72
     2
 73
     0
 90
        0
 40
-0.6
 41
-30.0
 62
     5
 63
     7
421
 16777215
 74
     1
 91
        4
 64
     7
 65
   257
 75
     1
175
     1
 42
1.0
 92
        8
 66
     7
 43
1.0
 76
     1
 77
     6
 78
     2
 67
     7
 79
     5
170
     0
171
     0
290
     0
174
     0
 93
        1
 44
50.0
173
     0
291
     1
 45
0.0
1001
ACAD
1000
AcDbSavedByObjectVersion
1070
     0
  0
VISUALSTYLE
  5
2F5F
102
{ACAD_XDICTIONARY
360
8018
102
}
102
{ACAD_REACTORS
330
2F4F
102
}
330
2F4F
100
AcDbVisualStyle
  2
ColorChange
 70
    16
 71
     2
 72
     2
 73
     3
 90
        0
 40
-0.6
 41
-30.0
 62
     5
 63
     8
421
  8421504
 74
     1
 91
        4
 64
     7
 65
   257
 75
     1
175
     1
 42
1.0
 92
        8
 66
     8
424
  8421504
 43
1.0
 76
     1
 77
     6
 78
     2
 67
     7
 79
     5
170
     0
171
     0
290
     0
174
     0
 93
        1
 44
0.0
173
     0
291
     1
 45
0.0
1001
ACAD
1000
AcDbSavedByObjectVersion
1070
     0
  0
VISUALSTYLE
  5
2F58
102
{ACAD_XDICTIONARY
360
800A
102
}
102
{ACAD_REACTORS
330
2F4F
102
}
330
2F4F
100
AcDbVisualStyle
  2
Conceptual
 70
     9
 71
     3
 72
     2
 73
     0
 90
        0
 40
-0.6
 41
-30.0
 62
     5
 63
     7
421
 16777215
 74
     2
 91
        2
 64
     7
 65
   257
 75
     1
175
     1
 42
40.0
 92
        8
 66
     7
 43
1.0
 76
     1
 77
     6
 78
     2
 67
     7
 79
     3
170
     0
171
     0
290
     0
174
     0
 93
        1
 44
0.0
173
     0
291
     0
 45
0.0
1001
ACAD
1000
AcDbSavedByObjectVersion
1070
     0
  0
VISUALSTYLE
  5
2F5A
102
{ACAD_XDICTIONARY
360
800E
102
}
102
{ACAD_REACTORS
330
2F4F
102
}
330
2F4F
100
AcDbVisualStyle
  2
Dim
 70
    11
 71
     2
 72
     2
 73
     0
 90
        0
 40
-0.6
 41
-30.0
 62
     5
 63
     7
421
 16777215
 74
     1
 91
        4
 64
     7
 65
   257
 75
     1
175
     1
 42
1.0
 92
        8
 66
     7
 43
1.0
 76
     1
 77
     6
 78
     2
 67
     7
 79
     5
170
     0
171
     0
290
     0
174
     0
 93
        1
 44
-50.0
173
     0
291
     1
 45
0.0
1001
ACAD
1000
AcDbSavedByObjectVersion
1070
     0
  0
VISUALSTYLE
  5
7C2D
102
{ACAD_XDICTIONARY
360
802E
102
}
102
{ACAD_REACTORS
330
2F4F
102
}
330
2F4F
100
AcDbVisualStyle
  2
EdgeColorOff
 70
    22
 71
     2
 72
     2
 73
     0
 90
        0
 40
-0.6
 41
-30.0
 62
     5
 63
     7
421
 16777215
 74
     1
 91
        4
 64
     7
 65
   257
 75
     1
175
     1
 42
1.0
 92
        8
 66
     7
 43
1.0
 76
     1
 77
     6
 78
     2
 67
     7
 79
     5
170
     0
171
     0
290
     0
174
     0
 93
        1
 44
0.0
173
     0
291
     1
 45
0.0
1001
ACAD
1000
AcDbSavedByObjectVersion
1070
     0
  0
VISUALSTYLE
  5
2F5E
102
{ACAD_XDICTIONARY
360
8016
102
}
102
{ACAD_REACTORS
330
2F4F
102
}
330
2F4F
100
AcDbVisualStyle
  2
Facepattern
 70
    15
 71
     2
 72
     2
 73
     0
 90
        0
 40
-0.6
 41
-30.0
 62
     5
 63
     7
421
 16777215
 74
     1
 91
        4
 64
     7
 65
   257
 75
     1
175
     1
 42
1.0
 92
        8
 66
     7
 43
1.0
 76
     1
 77
     6
 78
     2
 67
     7
 79
     5
170
     0
171
     0
290
     0
174
     0
 93
        1
 44
0.0
173
     0
291
     1
 45
0.0
1001
ACAD
1000
AcDbSavedByObjectVersion
1070
     0
  0
VISUALSTYLE
  5
2F50
102
{ACAD_XDICTIONARY
360
7FFA
102
}
102
{ACAD_REACTORS
330
2F4F
102
}
330
2F4F
100
AcDbVisualStyle
  2
Flat
 70
     0
 71
     2
 72
     1
 73
     1
 90
        2
 40
-0.6
 41
30.0
 62
     5
 63
     7
421
 16777215
 74
     0
 91
        4
 64
     7
 65
   257
 75
     1
175
     1
 42
1.0
 92
        8
 66
     7
 43
1.0
 76
     1
 77
     6
 78
     2
 67
     7
 79
     5
170
     0
171
     0
290
     0
174
     0
 93
       13
 44
0.0
173
     0
291
     1
 45
0.0
1001
ACAD
1000
AcDbSavedByObjectVersion
1070
     0
  0
VISUALSTYLE
  5
2F51
102
{ACAD_XDICTIONARY
360
7FFC
102
}
102
{ACAD_REACTORS
330
2F4F
102
}
330
2F4F
100
AcDbVisualStyle
  2
FlatWithEdges
 70
     1
 71
     2
 72
     1
 73
     1
 90
        2
 40
-0.6
 41
30.0
 62
     5
 63
     7
421
 16777215
 74
     1
 91
        4
 64
     7
 65
   257
 75
     1
175
     1
 42
1.0
 92
        0
 66
   257
 43
1.0
 76
     1
 77
     6
 78
     2
 67
     7
 79
     5
170
     0
171
     0
290
     0
174
     0
 93
       13
 44
0.0
173
     0
291
     1
 45
0.0
1001
ACAD
1000
AcDbSavedByObjectVersion
1070
     0
  0
VISUALSTYLE
  5
2F52
102
{ACAD_XDICTIONARY
360
7FFE
102
}
102
{ACAD_REACTORS
330
2F4F
102
}
330
2F4F
100
AcDbVisualStyle
  2
Gouraud
 70
     2
 71
     2
 72
     2
 73
     1
 90
        2
 40
-0.6
 41
30.0
 62
     5
 63
     7
421
 16777215
 74
     0
 91
        4
 64
     7
 65
   257
 75
     1
175
     1
 42
1.0
 92
        0
 66
     7
 43
1.0
 76
     1
 77
     6
 78
     2
 67
     7
 79
     5
170
     0
171
     0
290
     0
174
     0
 93
       13
 44
0.0
173
     0
291
     1
 45
0.0
1001
ACAD
1000
AcDbSavedByObjectVersion
1070
     0
  0
VISUALSTYLE
  5
2F53
102
{ACAD_XDICTIONARY
360
8000
102
}
102
{ACAD_REACTORS
330
2F4F
102
}
330
2F4F
100
AcDbVisualStyle
  2
GouraudWithEdges
 70
     3
 71
     2
 72
     2
 73
     1
 90
        2
 40
-0.6
 41
30.0
 62
     5
 63
     7
421
 16777215
 74
     1
 91
        4
 64
     7
 65
   257
 75
     1
175
     1
 42
1.0
 92
        0
 66
   257
 43
1.0
 76
     1
 77
     6
 78
     2
 67
     7
 79
     5
170
     0
171
     0
290
     0
174
     0
 93
       13
 44
0.0
173
     0
291
     1
 45
0.0
1001
ACAD
1000
AcDbSavedByObjectVersion
1070
     0
  0
VISUALSTYLE
  5
7C25
102
{ACAD_XDICTIONARY
360
801E
102
}
102
{ACAD_REACTORS
330
2F4F
102
}
330
2F4F
100
AcDbVisualStyle
  2
Hidden
 70
     6
 71
     1
 72
     2
 73
     2
 90
        0
 40
-0.6
 41
-30.0
 62
     5
 63
     7
421
 16777215
 74
     2
 91
        2
 64
     7
 65
   257
 75
     2
175
     1
 42
40.0
 92
        0
 66
   257
 43
1.0
 76
     1
 77
     6
 78
     2
 67
     7
 79
     3
170
     0
171
     0
290
     0
174
     0
 93
        1
 44
0.0
173
     0
291
     0
 45
0.0
1001
ACAD
1000
AcDbSavedByObjectVersion
1070
     0
  0
VISUALSTYLE
  5
7C2B
102
{ACAD_XDICTIONARY
360
802A
102
}
102
{ACAD_REACTORS
330
2F4F
102
}
330
2F4F
100
AcDbVisualStyle
  2
JitterOff
 70
    20
 71
     2
 72
     2
 73
     0
 90
        0
 40
-0.6
 41
-30.0
 62
     5
 63
     7
421
 16777215
 74
     1
 91
        4
 64
     7
 65
   257
 75
     1
175
     1
 42
1.0
 92
       10
 66
     7
 43
1.0
 76
     1
 77
     6
 78
     2
 67
     7
 79
     5
170
     0
171
     0
290
     0
174
     0
 93
        1
 44
0.0
173
     0
291
     1
 45
0.0
1001
ACAD
1000
AcDbSavedByObjectVersion
1070
     0
  0
VISUALSTYLE
  5
2F5D
102
{ACAD_XDICTIONARY
360
8014
102
}
102
{ACAD_REACTORS
330
2F4F
102
}
330
2F4F
100
AcDbVisualStyle
  2
Linepattern
 70
    14
 71
     2
 72
     2
 73
     0
 90
        0
 40
-0.6
 41
-30.0
 62
     5
 63
     7
421
 16777215
 74
     1
 91
        4
 64
     7
 65
   257
 75
     7
175
     7
 42
1.0
 92
        8
 66
     7
 43
1.0
 76
     1
 77
     6
 78
     2
 67
     7
 79
     5
170
     0
171
     0
290
     0
174
     0
 93
        1
 44
0.0
173
     0
291
     1
 45
0.0
1001
ACAD
1000
AcDbSavedByObjectVersion
1070
     0
  0
VISUALSTYLE
  5
7C2C
102
{ACAD_XDICTIONARY
360
802C
102
}
102
{ACAD_REACTORS
330
2F4F
102
}
330
2F4F
100
AcDbVisualStyle
  2
OverhangOff
 70
    21
 71
     2
 72
     2
 73
     0
 90
        0
 40
-0.6
 41
-30.0
 62
     5
 63
     7
421
 16777215
 74
     1
 91
        4
 64
     7
 65
   257
 75
     1
175
     1
 42
1.0
 92
        9
 66
     7
 43
1.0
 76
     1
 77
     6
 78
     2
 67
     7
 79
     5
170
     0
171
     0
290
     0
174
     0
 93
        1
 44
0.0
173
     0
291
     1
 45
0.0
1001
ACAD
1000
AcDbSavedByObjectVersion
1070
     0
  0
VISUALSTYLE
  5
2F59
102
{ACAD_XDICTIONARY
360
800C
102
}
102
{ACAD_REACTORS
330
2F4F
102
}
330
2F4F
100
AcDbVisualStyle
  2
Realistic
 70
     8
 71
     2
 72
     2
 73
     0
 90
        0
 40
-0.6
 41
-30.0
 62
     5
 63
     7
421
 16777215
 74
     1
 91
        0
 64
     7
 65
   257
 75
     1
175
     1
 42
1.0
 92
        8
 66
     8
424
  7895160
 43
1.0
 76
     1
 77
     6
 78
     2
 67
     7
 79
     5
170
     0
171
     0
290
     0
174
     0
 93
       13
 44
0.0
173
     0
291
     0
 45
0.0
1001
ACAD
1000
AcDbSavedByObjectVersion
1070
     0
  0
VISUALSTYLE
  5
7C2A
102
{ACAD_XDICTIONARY
360
8028
102
}
102
{ACAD_REACTORS
330
2F4F
102
}
330
2F4F
100
AcDbVisualStyle
  2
Shaded
 70
    27
 71
     2
 72
     2
 73
     1
 90
        2
 40
-0.6
 41
30.0
 62
     5
 63
     7
421
 16777215
 74
     0
 91
        4
 64
     7
 65
   257
 75
     1
175
     1
 42
1.0
 92
        8
 66
   257
 43
1.0
 76
     1
 77
     6
 78
     2
 67
     8
425
  7895160
 79
     3
170
     0
171
     0
290
     0
174
     0
 93
        5
 44
0.0
173
     0
291
     0
 45
0.0
1001
ACAD
1000
AcDbSavedByObjectVersion
1070
     0
  0
VISUALSTYLE
  5
7C29
102
{ACAD_XDICTIONARY
360
8026
102
}
102
{ACAD_REACTORS
330
2F4F
102
}
330
2F4F
100
AcDbVisualStyle
  2
Shaded with edges
 70
    26
 71
     2
 72
     2
 73
     1
 90
        2
 40
-0.6
 41
30.0
 62
     5
 63
     7
421
 16777215
 74
     1
 91
       10
 64
     7
 65
   257
 75
     2
175
     1
 42
1.0
 92
        8
 66
   257
 43
1.0
 76
     1
 77
     6
 78
     2
 67
     7
 79
     3
170
     0
171
     0
290
     0
174
     0
 93
        5
 44
0.0
173
     0
291
     0
 45
0.0
1001
ACAD
1000
AcDbSavedByObjectVersion
1070
     0
  0
VISUALSTYLE
  5
7C26
102
{ACAD_XDICTIONARY
360
8020
102
}
102
{ACAD_REACTORS
330
2F4F
102
}
330
2F4F
100
AcDbVisualStyle
  2
Shades of Gray
 70
    23
 71
     2
 72
     2
 73
     3
 90
        0
 40
-0.6
 41
-30.0
 62
     5
 63
     7
421
 16777215
 74
     2
 91
        2
 64
     7
 65
     7
 75
     1
175
     1
 42
40.0
 92
        8
 66
     7
 43
1.0
 76
     1
 77
     6
 78
     2
 67
     7
 79
     3
170
     0
171
     0
290
     0
174
     0
 93
        1
 44
0.0
173
     0
291
     0
 45
0.0
1001
ACAD
1000
AcDbSavedByObjectVersion
1070
     0
  0
VISUALSTYLE
  5
7C27
102
{ACAD_XDICTIONARY
360
8022
102
}
102
{ACAD_REACTORS
330
2F4F
102
}
330
2F4F
100
AcDbVisualStyle
  2
Sketchy
 70
    24
 71
     1
 72
     2
 73
     2
 90
        0
 40
-0.6
 41
-30.0
 62
     5
 63
     7
421
 16777215
 74
     2
 91
        2
 64
     7
 65
     7
 75
     1
175
     1
 42
40.0
 92
       11
 66
     7
 43
1.0
 76
     1
 77
     6
 78
     2
 67
     7
 79
     6
170
     0
171
     0
290
     0
174
     0
 93
        1
 44
0.0
173
     0
291
     0
 45
0.0
1001
ACAD
1000
AcDbSavedByObjectVersion
1070
     0
  0
VISUALSTYLE
  5
2F5C
102
{ACAD_XDICTIONARY
360
8012
102
}
102
{ACAD_REACTORS
330
2F4F
102
}
330
2F4F
100
AcDbVisualStyle
  2
Thicken
 70
    13
 71
     2
 72
     2
 73
     0
 90
        0
 40
-0.6
 41
-30.0
 62
     5
 63
     7
421
 16777215
 74
     1
 91
        4
 64
     7
 65
   257
 75
     1
175
     1
 42
1.0
 92
       12
 66
     7
 43
1.0
 76
     1
 77
     6
 78
     2
 67
     7
 79
     5
170
     0
171
     0
290
     0
174
     0
 93
        1
 44
0.0
173
     0
291
     1
 45
0.0
1001
ACAD
1000
AcDbSavedByObjectVersion
1070
     0
  0
VISUALSTYLE
  5
7C24
102
{ACAD_XDICTIONARY
360
801C
102
}
102
{ACAD_REACTORS
330
2F4F
102
}
330
2F4F
100
AcDbVisualStyle
  2
Wireframe
 70
     5
 71
     0
 72
     2
 73
     0
 90
        0
 40
-0.6
 41
-30.0
 62
     5
 63
     7
421
 16777215
 74
     1
 91
        4
 64
     7
 65
   257
 75
     1
175
     1
 42
1.0
 92
        0
 66
   257
 43
1.0
 76
     1
 77
     6
 78
     2
 67
     7
 79
     3
170
     0
171
     0
290
     0
174
     0
 93
        1
 44
0.0
173
     0
291
     0
 45
0.0
1001
ACAD
1000
AcDbSavedByObjectVersion
1070
     0
  0
VISUALSTYLE
  5
7C28
102
{ACAD_XDICTIONARY
360
8024
102
}
102
{ACAD_REACTORS
330
2F4F
102
}
330
2F4F
100
AcDbVisualStyle
  2
X-Ray
 70
    25
 71
     2
 72
     2
 73
     1
 90
        1
 40
0.5
 41
-30.0
 62
     5
 63
     7
421
 16777215
 74
     1
 91
        0
 64
     7
 65
   257
 75
     1
175
     1
 42
1.0
 92
        8
 66
     7
 43
1.0
 76
     1
 77
     6
 78
     2
 67
     7
 79
     3
170
     0
171
     0
290
     0
174
     0
 93
       13
 44
0.0
173
     0
291
     0
 45
0.0
1001
ACAD
1000
AcDbSavedByObjectVersion
1070
     0
  0
DICTIONARYVAR
  5
2FD3
102
{ACAD_REACTORS
330
599
102
}
330
599
100
DictionaryVariables
280
     0
  1
1:1
  0
DICTIONARYVAR
  5
2FD2
102
{ACAD_REACTORS
330
599
102
}
330
599
100
DictionaryVariables
280
     0
  1
STANDARD
  0
DICTIONARYVAR
  5
2FD1
102
{ACAD_REACTORS
330
599
102
}
330
599
100
DictionaryVariables
280
     0
  1
STANDARD
  0
DICTIONARYVAR
  5
7D0F
102
{ACAD_REACTORS
330
599
102
}
330
599
100
DictionaryVariables
280
     0
  1
Imperial24
  0
DICTIONARYVAR
  5
7D10
102
{ACAD_REACTORS
330
599
102
}
330
599
100
DictionaryVariables
280
     0
  1
Imperial24
  0
DICTIONARYVAR
  5
59A
102
{ACAD_REACTORS
330
599
102
}
330
599
100
DictionaryVariables
280
     0
  1
2
  0
DICTIONARY
  5
7FF6
102
{ACAD_REACTORS
330
7FF4
102
}
330
7FF4
100
AcDbDictionary
281
     1
  0
DICTIONARY
  5
7FF5
102
{ACAD_REACTORS
330
7FF4
102
}
330
7FF4
100
AcDbDictionary
281
     1
  3
140702622371440
350
7FEF
  3
140702622371456
350
7FF0
  3
140702622371472
350
7FF1
  3
140702622371488
350
7FF2
  3
140702622371504
350
7FF3
  0
XRECORD
  5
598
102
{ACAD_REACTORS
330
596
102
}
330
596
100
AcDbXrecord
280
     1
330
0
330
0
330
0
  0
XRECORD
  5
2C67
102
{ACAD_REACTORS
330
2C66
102
}
330
2C66
100
AcDbXrecord
280
     1
  1
DIMENSION
  1
*DIM*
  1
*
  1
*
 70
     0
  1
*
  1
*
  0
XRECORD
  5
2C68
102
{ACAD_REACTORS
330
2C66
102
}
330
2C66
100
AcDbXrecord
280
     1
  1
HB_X
  1
HB_X*
  1
*
  1
*
 70
     0
  1
*
  1
*
  0
XRECORD
  5
35F7
102
{ACAD_XDICTIONARY
360
35F8
102
}
102
{ACAD_REACTORS
330
2FE7
102
}
330
2FE7
100
AcDbXrecord
280
     1
 91
     1023
301

290
     0
302
3
330
0
 90
        8
 62
     2
370
    -3
331
5
  1
Color_2
330
30A7
 90
        8
 62
     7
370
    -3
331
5
  1
Color_7
330
2FF8
 90
        8
 62
     7
370
    80
331
5
  1
Color_7
330
2FF6
 90
        8
 62
     2
370
    -3
331
5
  1
Color_2
330
2FEE
 90
        8
 62
     7
370
    -3
331
5
  1
Color_7
330
0
 90
        8
 62
     3
370
    -3
331
5
  1
Color_3
330
0
 90
        8
 62
     8
370
    -3
331
5
  1
Color_8
330
0
 90
        8
 62
     7
370
    -3
331
5
  1
Color_7
330
4
 90
        8
 62
     7
370
    -3
331
5
  1
Color_7
330
12
 90
        8
 62
     1
370
    -3
331
5
  1
Color_1
330
2F
 90
        0
 62
   210
370
    -3
331
5
  1
Color_210
330
24
 90
        8
 62
     7
370
    -3
331
5
  1
Color_7
  0
DICTIONARY
  5
2FEB
330
58F
100
AcDbDictionary
280
     1
281
     1
  3
ADSK_XREC_LAYOUTTHUMBNAIL
360
2FEC
  0
DICTIONARY
  5
2F40
330
2F3F
100
AcDbDictionary
280
     1
281
     1
  3
ACAD_XREC_ROUNDTRIP
360
7FF8
  3
BUMPTILE
360
2F42
  3
DIFFUSETILE
360
2F41
  3
OPACITYTILE
360
2F45
  3
REFLECTIONTILE
360
2F44
  3
REFRACTIONTILE
360
2F46
  3
SPECULARTILE
360
2F43
  0
DICTIONARY
  5
2F38
330
2F37
100
AcDbDictionary
280
     1
281
     1
  3
ACAD_XREC_ROUNDTRIP
360
7FF7
  3
BUMPTILE
360
2F3A
  3
DIFFUSETILE
360
2F39
  3
OPACITYTILE
360
2F3D
  3
REFLECTIONTILE
360
2F3C
  3
REFRACTIONTILE
360
2F3E
  3
SPECULARTILE
360
2F3B
  0
DICTIONARY
  5
2F48
330
2F47
100
AcDbDictionary
280
     1
281
     1
  3
ACAD_XREC_ROUNDTRIP
360
7FF9
  3
BUMPTILE
360
2F4A
  3
DIFFUSETILE
360
2F49
  3
OPACITYTILE
360
2F4D
  3
REFLECTIONTILE
360
2F4C
  3
REFRACTIONTILE
360
2F4E
  3
SPECULARTILE
360
2F4B
  0
DICTIONARY
  5
2FC0
330
2F62
100
AcDbDictionary
280
     1
281
     1
  3
ACAD_ROUNDTRIP_2008_TABLESTYLE_CELLSTYLEMAP
360
7FE7
  3
ACAD_XREC_ROUNDTRIP
360
801A
  0
DICTIONARY
  5
8004
330
2F55
100
AcDbDictionary
280
     1
281
     1
  3
ACAD_XREC_ROUNDTRIP
360
8005
  0
DICTIONARY
  5
8008
330
2F57
100
AcDbDictionary
280
     1
281
     1
  3
ACAD_XREC_ROUNDTRIP
360
8009
  0
DICTIONARY
  5
8006
330
2F56
100
AcDbDictionary
280
     1
281
     1
  3
ACAD_XREC_ROUNDTRIP
360
8007
  0
DICTIONARY
  5
8002
330
2F54
100
AcDbDictionary
280
     1
281
     1
  3
ACAD_XREC_ROUNDTRIP
360
8003
  0
DICTIONARY
  5
8010
330
2F5B
100
AcDbDictionary
280
     1
281
     1
  3
ACAD_XREC_ROUNDTRIP
360
8011
  0
DICTIONARY
  5
8018
330
2F5F
100
AcDbDictionary
280
     1
281
     1
  3
ACAD_XREC_ROUNDTRIP
360
8019
  0
DICTIONARY
  5
800A
330
2F58
100
AcDbDictionary
280
     1
281
     1
  3
ACAD_XREC_ROUNDTRIP
360
800B
  0
DICTIONARY
  5
800E
330
2F5A
100
AcDbDictionary
280
     1
281
     1
  3
ACAD_XREC_ROUNDTRIP
360
800F
  0
DICTIONARY
  5
802E
330
7C2D
100
AcDbDictionary
280
     1
281
     1
  3
ACAD_XREC_ROUNDTRIP
360
802F
  0
DICTIONARY
  5
8016
330
2F5E
100
AcDbDictionary
280
     1
281
     1
  3
ACAD_XREC_ROUNDTRIP
360
8017
  0
DICTIONARY
  5
7FFA
330
2F50
100
AcDbDictionary
280
     1
281
     1
  3
ACAD_XREC_ROUNDTRIP
360
7FFB
  0
DICTIONARY
  5
7FFC
330
2F51
100
AcDbDictionary
280
     1
281
     1
  3
ACAD_XREC_ROUNDTRIP
360
7FFD
  0
DICTIONARY
  5
7FFE
330
2F52
100
AcDbDictionary
280
     1
281
     1
  3
ACAD_XREC_ROUNDTRIP
360
7FFF
  0
DICTIONARY
  5
8000
330
2F53
100
AcDbDictionary
280
     1
281
     1
  3
ACAD_XREC_ROUNDTRIP
360
8001
  0
DICTIONARY
  5
801E
330
7C25
100
AcDbDictionary
280
     1
281
     1
  3
ACAD_XREC_ROUNDTRIP
360
801F
  0
DICTIONARY
  5
802A
330
7C2B
100
AcDbDictionary
280
     1
281
     1
  3
ACAD_XREC_ROUNDTRIP
360
802B
  0
DICTIONARY
  5
8014
330
2F5D
100
AcDbDictionary
280
     1
281
     1
  3
ACAD_XREC_ROUNDTRIP
360
8015
  0
DICTIONARY
  5
802C
330
7C2C
100
AcDbDictionary
280
     1
281
     1
  3
ACAD_XREC_ROUNDTRIP
360
802D
  0
DICTIONARY
  5
800C
330
2F59
100
AcDbDictionary
280
     1
281
     1
  3
ACAD_XREC_ROUNDTRIP
360
800D
  0
DICTIONARY
  5
8028
330
7C2A
100
AcDbDictionary
280
     1
281
     1
  3
ACAD_XREC_ROUNDTRIP
360
8029
  0
DICTIONARY
  5
8026
330
7C29
100
AcDbDictionary
280
     1
281
     1
  3
ACAD_XREC_ROUNDTRIP
360
8027
  0
DICTIONARY
  5
8020
330
7C26
100
AcDbDictionary
280
     1
281
     1
  3
ACAD_XREC_ROUNDTRIP
360
8021
  0
DICTIONARY
  5
8022
330
7C27
100
AcDbDictionary
280
     1
281
     1
  3
ACAD_XREC_ROUNDTRIP
360
8023
  0
DICTIONARY
  5
8012
330
2F5C
100
AcDbDictionary
280
     1
281
     1
  3
ACAD_XREC_ROUNDTRIP
360
8013
  0
DICTIONARY
  5
801C
330
7C24
100
AcDbDictionary
280
     1
281
     1
  3
ACAD_XREC_ROUNDTRIP
360
801D
  0
DICTIONARY
  5
8024
330
7C28
100
AcDbDictionary
280
     1
281
     1
  3
ACAD_XREC_ROUNDTRIP
360
8025
  0
XRECORD
  5
7FEF
102
{ACAD_REACTORS
330
7FF5
102
}
330
7FF5
100
AcDbXrecord
280
     1
  1
AcDb_Thumbnail_Schema
102
{ATTRRECORD
341
7FF0
  2
AcDbDs::TreatedAsObjectData
280
     1
291
     1
102
ATTRRECORD}
102
{ATTRRECORD
341
7FF1
  2
AcDbDs::Legacy
280
     1
291
     1
102
ATTRRECORD}
  2
AcDbDs::ID
280
    10
 91
        8
102
{ATTRRECORD
341
7FF2
  2
AcDs:Indexable
280
     1
291
     1
102
ATTRRECORD}
102
{ATTRRECORD
341
7FF3
  2
AcDbDs::HandleAttribute
280
     7
282
     1
102
ATTRRECORD}
  2
Thumbnail_Data
280
    15
 91
        0
  0
XRECORD
  5
7FF0
102
{ACAD_REACTORS
330
7FF5
102
}
330
7FF5
100
AcDbXrecord
280
     1
  1
AcDbDs::TreatedAsObjectDataSchema
  2
AcDbDs::TreatedAsObjectData
280
     1
 91
        0
  0
XRECORD
  5
7FF1
102
{ACAD_REACTORS
330
7FF5
102
}
330
7FF5
100
AcDbXrecord
280
     1
  1
AcDbDs::LegacySchema
  2
AcDbDs::Legacy
280
     1
 91
        0
  0
XRECORD
  5
7FF2
102
{ACAD_REACTORS
330
7FF5
102
}
330
7FF5
100
AcDbXrecord
280
     1
  1
AcDbDs::IndexedPropertySchema
  2
AcDs:Indexable
280
     1
 91
        0
  0
XRECORD
  5
7FF3
102
{ACAD_REACTORS
330
7FF5
102
}
330
7FF5
100
AcDbXrecord
280
     1
  1
AcDbDs::HandleAttributeSchema
  2
AcDbDs::HandleAttribute
280
     7
 91
        1
284
     1
  0
DICTIONARY
  5
35F8
330
35F7
100
AcDbDictionary
280
     1
281
     1
  3
AcadLayerStateAnnoScale
360
35F9
  0
XRECORD
  5
2FEC
102
{ACAD_REACTORS
330
2FEB
102
}
330
2FEB
100
AcDbXrecord
280
     1
310
28000000680000008C0000000100080000000000E0380000010000000100000000010000000000004C00390000000000C8C8C8FF000000FF000000FF000000FF000000FF000000FF000000FF000000FF000000FF330000FF660000FF990000FFCC0000FFFF0000FF003300FF333300FF663300FF993300FFCC3300FFFF3300
310
FF006600FF336600FF666600FF996600FFCC6600FFFF6600FF009900FF339900FF669900FF999900FFCC9900FFFF9900FF00CC00FF33CC00FF66CC00FF99CC00FFCCCC00FFFFCC00FF00FF00FF33FF00FF66FF00FF99FF00FFCCFF00FFFFFF00FF000033FF330033FF660033FF990033FFCC0033FFFF0033FF003333FF3333
310
33FF663333FF993333FFCC3333FFFF3333FF006633FF336633FF666633FF996633FFCC6633FFFF6633FF009933FF339933FF669933FF999933FFCC9933FFFF9933FF00CC33FF33CC33FF66CC33FF99CC33FFCCCC33FFFFCC33FF00FF33FF33FF33FF66FF33FF99FF33FFCCFF33FFFFFF33FF000066FF330066FF660066FF99
310
0066FFCC0066FFFF0066FF003366FF333366FF663366FF993366FFCC3366FFFF3366FF006666FF336666FF666666FF996666FFCC6666FFFF6666FF009966FF339966FF669966FF999966FFCC9966FFFF9966FF00CC66FF33CC66FF66CC66FF99CC66FFCCCC66FFFFCC66FF00FF66FF33FF66FF66FF66FF99FF66FFCCFF66FF
310
FFFF66FF000099FF330099FF660099FF990099FFCC0099FFFF0099FF003399FF333399FF663399FF993399FFCC3399FFFF3399FF006699FF336699FF666699FF996699FFCC6699FFFF6699FF009999FF339999FF669999FF999999FFCC9999FFFF9999FF00CC99FF33CC99FF66CC99FF99CC99FFCCCC99FFFFCC99FF00FF99
310
FF33FF99FF66FF99FF99FF99FFCCFF99FFFFFF99FF0000CCFF3300CCFF6600CCFF9900CCFFCC00CCFFFF00CCFF0033CCFF3333CCFF6633CCFF9933CCFFCC33CCFFFF33CCFF0066CCFF3366CCFF6666CCFF9966CCFFCC66CCFFFF66CCFF0099CCFF3399CCFF6699CCFF9999CCFFCC99CCFFFF99CCFF00CCCCFF33CCCCFF66CC
310
CCFF99CCCCFFCCCCCCFFFFCCCCFF00FFCCFF33FFCCFF66FFCCFF99FFCCFFCCFFCCFFFFFFCCFF0000FFFF3300FFFF6600FFFF9900FFFFCC00FFFFFF00FFFF0033FFFF3333FFFF6633FFFF9933FFFFCC33FFFFFF33FFFF0066FFFF3366FFFF6666FFFF9966FFFFCC66FFFFFF66FFFF0099FFFF3399FFFF6699FFFF9999FFFFCC
310
99FFFFFF99FFFF00CCFFFF33CCFFFF66CCFFFF99CCFFFFCCCCFFFFFFCCFFFF00FFFFFF33FFFFFF66FFFFFF99FFFFFFCCFFFFFFFFFFFFFF000000FF0D0D0DFF1A1A1AFF282828FF353535FF434343FF505050FF5D5D5DFF6B6B6BFF787878FF868686FF939393FFA1A1A1FFAEAEAEFFBBBBBBFFC9C9C9FFD6D6D6FFE4E4E4FF
310
F1F1F1FFFFFFFFFF000000FF000000FF000000FF000000FF000000FF000000FF000000FF000000FF000000FF000000FF00000000000000000000000000000000000000000000000000000000000000000000000000000000000000000000000000000000000000000000000000000000000000000000000000000000000000
310
00000000000000000000000000000000000000000000000000000000000000000000000000000000000000000000000000000000000000000000000000000000000000000000000000000000000000000000000000000000000000000000000000000000000000000000000000000000000000000000000000000000000000
310
00000000000000000000000000000000000000000000000000000000000000000000000000000000000000000000000000000000000000000000000000000000000000000000000000000000000000000000000000000000000000000000000000000000000000000000000000000000000000000000000000000000000000
310
00000000000000000000000000000000000000000000000000000000000000000000000000000000000000000000000000000000000000000000000000000000000000000000000000000000000000000000000000000000000000000000000000000000000000000000000000000000000000000000000000000000000000
310
00000000000000000000000000000000000000000000000000000000000000000000000000000000000000000000000000000000000000000000000000000000000000000000000000000000000000000000000000000000000000000000000000000000000000000000000000000000000000000000000000000000000000
310
000000000000000000000000000000000000000000000000000000000000000000000000000000000000F5F5F5F5F5F5F5F5F5F5F5F5F5F5F5F5F5F5F5F5F5F5F5F5F5F5F5F5F5F5F5F5F5F5F5F5F5F5F5F5F5F5F5F5F5F5F5F5F5F5F5F5F5F5F5F5F5F5F5F5F5F5F5F5F5F5F5F5F5F5F5F5F5F5F5F5F5F5F5F5F5F5F5F5F5
310
F5F5F5F5F5F500000000000000000000000000F5F5F5F5F5F5F5F5F5F5F5F5F5F5F5F5F5F5F5F5F5F5F5F5F5F5F5F5F5F5F5F5F5F5F5F5F5F5F5F5F5F5F5F5F5F5F5F5F5F5F5F5F5F5F5F5F5F5F5F5F5F5F5F5F5F5F5F5F5F5F5F5F5F5F5F5F5F5F5F5F5F5F5F5F5F5F5F5F5F5F500000000000000000000000000F5F50000
310
0000000000000000000000000000000000000000F5F5000000000000000000000000000000000000000000000000000000000000000000000000000000000000000000000000000000000000000000000000000000F5F500000000000000000000000000F5F500000000000000000000000000000000000000000000F5F5F5
310
F5F5F5F5F5F5F5F5F5F5F5F5F5F5F5F5F5F5F5F5F5F5F5F5F5F5F5F5F5F5F5F5F5F5F5F5F5F5F5F5F5F5F5F5F5F5F5F5F5F5F5F5F5F5F5F5F5F5F5F5F5F5F5F500000000000000000000000000F5F500000000000000000000000000000000000000000000F5F5F5F5F5F5F5F5F5F5F5F5F5F5F5F5F5F5F5F5F5F5F5F5F5F5
310
F5F5F5F5F5F5F5F5F5F5F5F5F5F5F5F5F5F5F5F5F5F5F5F5F5F5F5F5F5F5F5F5F5F5F5F5F5F5F5F5F500000000000000000000000000F5F500000000000000000000000000000000000000000000F5F5F5F5F50000F5F5F5F5F5F5F5F5F5F5F50000000000F5F5F5F5F5F50000F5F500000000000000000000F5F5F5F5F5F5
310
F5F500F5F5F5F5F5F500000000000000F5F500000000000000000000000000F5F500000000000000000000000000000000000000000000F5F5000000000000000000000000000000000000000000F5F5000000000000000000000000000000000000F5F50000000000000000000000000000000000000000F5F50000000000
310
0000000000000000F5F500000000000000000000000000000000000000000000F5F5F5F5F5F5F5F5F5F5F5F5F5F5F5F5F5F5F5F5F5F5F5F5F5F5F5F5F5F5F5F5F5F5F5F5F5F5F5F5F5F5F5F5F5F5F5F5F5F5F5F5F5F5F5F5F5F5F5F5F5F5F5F5F5F5F500000000000000000000000000F5F5F5F5F5F5F5F5F5F5F5F5F5F5F5
310
F5F5F5F5F5F5F5F5F5F5F5F5F5F5F5F5F5F5F5F5F5F5F5F5F5F5F5F5F5F5F5F5F5F5F5F5F5F5F5F5F5F5F5F5F5F5F5F5F5F5F5F5F5F5F5F5F5F5F5F5F5F5F5F5F5F5F5F5F5F5F5F5F5F5F5F500000000000000000000000000F5F5F5F5F5F5F5F5F5F5F5F5F5F5F5F5F5F5F5F5F5F5F5F5F5F5000000000000000000000000
310
0000F5F5F5F5F5F5F5F5F5F5F5F5F5F5F5F5F5F5F5F5F5F5F5F5F5F5F5F5F5F5F5F5F500000000000000000000000000000000F5F500000000000000000000000000F5F5BFE1F4C5E1E19BE1E1F4C5E1E19BC5F4A1E1E1F4C5E1F5F5F5F5F500F5F5F5F5F5F5F5F5F5F5F5F5F5F5F5F5F5F5F5F5F5F5F5F5F5F5F5F5F5F5F5
310
F5F5F5F5F5F5F5F5F5F5F5F5F5F5F5F5F5F5F5F5F5F5F5F5F5F5F5F5F5F500000000000000000000000000F5F5F4C4F4BFF4E1E1E1F4E1E1F49AE1E1E1E1E1E1E1F4E1F5F5F5F5F500F5F5F5F5F5F5F5F5F5F5F5F5F5F5F5F5F5F5F5F5F5F5F5F5F5F5F5F5F5F5F5F5F5F5F5F5F5F5F5F5F5F5F5F5F5F5F5F5F5F5F5F5F5F5
310
F5F5F5F5F5F5F500000000000000000000000000F5F5E1E1A0C5BFA0C5BEC59BC4C5BFA0C5BEC59BC4E1C59AF5F500000000F5F5F5F5F5F5F5F5F5F5F5F5F5F5F5F5F5F5F5F5F5F5F5F5F5F5F5F5F5F5F5F5F5F5F5F5F5F5F5F5F5F5F5F5F5F5F5F5F5F5F5F5F5F5F5F5F5F5F5F5F500000000000000000000000000F5F5F5
310
F5F5F5F5F5F5F5F5F5F5F5F5F5F5F5F5F5F5F5F5F5F5F5F5F5F5F5F5F5F5F5F5F5F5F5F5F5F5F5F5F5F5F5F5F5F5F5F5F5F5F5F5F5F5F5F5F5F5F5F5F5F5F5F5F5F5F5F5F5F5F5F5F5F5F5F5F5F5F5F5F5F5F5F5F5F5F5F500000000000000000000000000F5F5F5F5F5F5F5F5F5F5F5F5F5F5F5F5F5F5F5F5F5F5F5F5F5F5
310
F5F5F5F5F5F5F5F5F5F5F5F5F5F5F5F5F5F5F5F5F5F5F5F5F5F5F5F5F5F5F5F5F5F5F5F5F5F5F5F5F5F5F5F5F5F5F5F5F5F5F5F5F5F5F5F5F5F5F5F5F5F5F5F5F500000000000000000000000000F5F50000000000000000000000000000000000000000000000000000000000000000000000000000000000000000000000
310
00000000000000000000000000000000000000000000000000000000000000000000000000000000F5F500000000000000000000000000F5F500000000000000000000000000000000000000000000000000000000000000000000000000000000000000000000000000000000000000000000000000000000000000000000
310
0000000000000000000000000000000000F5F500000000000000000000000000F5F5000000000000000000000000000000000000000000000000000000000000000000000000000000000000000000000000000000000000000000000000000000000000000000000000000000000000000000000000000000F5F500000000
310
000000000000000000F5F5000000000000000000000000000000000000000000000000000000000000000000000000000000000000000000000000000000000000000000000000000000000000000000000000000000000000000000000000000000F5F500000000000000000000000000F5F5000000000000000000000000
310
000000000000000000000000000000000000000000000000000000000000000000000000000000000000000000000000000000000000000000000000000000000000000000000000000000F5F500000000000000000000000000F5F50000000000000000000000000000000000000000000000000000000000000000000000
310
00000000000000000000000000000000000000000000000000000000000000000000000000000000000000000000000000000000F5F500000000000000000000000000F5F500000000000000000000000000000000000000000000000000000000000000000000000000000000000000000000000000000000000000000000
310
0000000000000000000000000000000000000000000000000000000000F5F500000000000000000000000000F5F5000000000000000000000000000000000000000000000000000000000000000000000000000000000000000000000000000000000000000000000000000000000000000000000000000000000000000000
310
000000000000F5F500000000000000000000000000F5F5000000000000000000000000000000000000000000000000000000000000000000000000000000000000000000000000000000000000000000000000000000000000000000000000000000000000000000000000000000F5F500000000000000000000000000F5F5
310
000000000000000000000000000000000000000000000000000000000000000000000000000000000000000000000000000000000000000000000000000000000000000000000000000000000000000000000000000000F5F500000000000000000000000000F5F50000000000000000000000000000000000000000000000
310
00000000000000000000000000000000000000000000000000000000000000000000000000000000000000000000000000000000000000000000000000000000F5F500000000000000000000000000F5F5C3C3C3C3C3C3C3C3C3C3C3C3C3C3C3C3C3C3C3C3C3C3C3C3C3C3C3C3C3C3C3C3C3C3C3C3C3C3C3C3C3C3C3C3C3C3
310
C3C3C3C3C3C3C3C3C3C3C3C3C3C3C3C3C3C3C3C3C3C3C3C3C3C3C3C3C3C3C3C3C3C3C3C3C3C3C3C3C3F5F500000000000000000000000000F5F5000000000000000000000000000000000000000000000000000000000000000000000000000000000000000000000000000000000000000000000000000000000000000000
310
0000000000000000000000000000000000C3F5F500000000000000000000000000F5F50000000000000000000000000000000000000000000000000000000000000000000000000000000000000000000000000000000000000000000000000000000000000000000000000000000000000000000000000000C3F5F5000000
310
00000000000000000000F5F50000000000000000000000000000000000000000000000000000000000F500000000000000000000000000F5000000000000000000000000F50000000000000000000000000000000000000000000000000000000000C3F5F500000000000000000000000000F5F50000000000000000000000
310
00000000000000F5F5F5F5F5F5F5F5F5F5F500F500F5F5F5F5F5F5F5F5F5F5F5F5BFBFF5F5F5C3F50F0FF5F5C3C3F5F5F5F5F5F5F5F5C3F5F5F5F5F5000000000000000000000000000000C3F5F500000000000000000000000000F5F5000000000000000000000000000000000000000066DCBE00000000DCDCDCF5F500DC
310
00DCDC0000DCBE0000F5BFBF0000C3C3000F0F000000C3F500000000000000C3DCDC660000000000000000000000000000000000C3F5F500000000000000000000000000F5F500000000000000000000000000000000000000006600BE00000000DC000000000000000000DC0000BE000000BFBF0000C300000F0F00000000
310
C3C30000000000C3BFDCDC660000000000000000000000000000000000C3F5F500000000000000000000000000F5F500000000000000000000000000000000000000006600BE00DC0000000000DC0000000000DC000000BE000000BFBF0000C300000F0F0000000000C3C3C3C3C3C300BF00DC660000000000000000000000
310
000000000000C3F5F500000000000000000000000000F5F5000000000000000000000000000000000000000066DCBE000000DC000000DC000000DCDC000000DCBE000000BFBF0000C300000F0F0000000000C3C3C3C3C3C300BFDCDC660000000000000000000000000000000000C3F5F500000000000000000000000000F5
310
F5000000000000000000000000000000000000000066DCBE000000DCDCDCDC0000DCDC0000000000DCBE000000BFBF0000C300000F0F0F000000C3C300000000C3C3BFDCDC660000000000000000000000000000000000C3F5F500000000000000000000000000F5F5000000000000000000000000000000000000000066DC
310
BEDC000000000000DC00DC00000000DC0000BE000000BFBF0000C3C3000F000F0000C300000000000000C3C3DCDC660000000000000000000000000000000000C3F5F500000000000000000000000000F5F5000000000000000000000000000000000000000066DCBE00DC000000000000DC000000000000DC00BE000000BF
310
BF000000C3C30F000F00C3C30000000000000000C3DCDC660000000000000000000000000000000000C3F5F500000000000000000000000000F5F5000000000000000000000000000000000000000066DCBE00DCDC00000000DC000000DC00DC000000BE000000BFBF00000000C3C3C3C3C3C3000000000000000000C300DC
310
660000000000000000000000000000000000C3F5F500000000000000000000000000F5F500000000000000000000000000000000000000006600BE000000000000000000000000DC00000000BE000000BFBF000000C3C3C30F0FC3C3C30000000000000000C3DC00660000000000000000000000000000000000C3F5F50000
310
0000000000000000000000F5F5000000000000000000000000000000000000000066DCBE00000000DCDC00000000DCDCDCDC00DCDCBE000000BFBF0000C3C300000F0F0000C30000000000000000C3DCDC660000000000000000000000000000000000C3F5F500000000000000000000000000F5F500000000000000000000
310
0000000000000000000066DCBE0000000000DC00DCDC0000000000DC0000BE000000BFBF0000C30000000F0F000000C3000000000000C3C300DC660000000000000000000000000000000000C3F5F500000000000000000000000000F5F5000000000000000000000000000000000000000066DCBE00DCDC00000000DC00DC
310
000000DC0000DCBE000000BFBF0000C30000000F0F0F0000C3C3C30000C3C3C3BFDCDC660000000000000000000000000000000000C3F5F500000000000000000000000000F5F500000000000000000000000000000000000000006600BE000000000000F5F5F5F500000000000000BE000000BFBF0000C30000000F0F0F00
310
0000C3C3C3C3C3C300BFDCDC660000000000000000000000000000000000C3F5F500000000000000000000000000F5F5000000000000000000000000000000000000000066DCBE000000000000F5F5F5F500000000F5F5F5BE000000BFBF0000C3000000000F0F0000C3C300000000C3C3BFDCDC6600000000000000000000
310
00000000000000C3F5F500000000000000000000000000F5F5000000000000000000000000000000000000000066DCBEDC00F5F5F5F5F5F5F5F5F5F5F5F5F5F5F5BE000000BFBF0000C3C30000000F0F0F00C3000000000000C3C3DCDC660000000000000000000000000000000000C3F5F500000000000000000000000000
310
F5F5000000000000000000000000000000000000000066DCBEDC00F5F5F5F5F5F5F5F5F5F5F5F5F5F5F5BE000000BFBF000000C3C300000F0FC3C30000000000000000C3DCDC660000000000000000000000000000000000C3F5F500000000000000000000000000F5F5000000000000000000000000000000000000000066
310
DCBE0000000000000000000000000000000000BE000000BFBF00000000C3C3C3C3C3C30F0000000000000000C300DC660000000000000000000000000000000000C3F5F500000000000000000000000000F5F5000000000000000000000000000000000000000066DCBE00DC00DC00000000000000DC0000000000BE000000
310
BFBF00000000C3C3C3C3C3C30F0000000000000000C3DC00660000000000000000000000000000000000C3F5F500000000000000000000000000F5F500000000000000000000000000000000000000006600BE00000000DCDC00000000DC00DC00DC0000BE000000BFBF000000C300000000000F0F0F00000000000000C3DC
310
DC660000000000000000000000000000000000C3F5F500000000000000000000000000F5F5000000000000000000000000000000000000000066DCBE0000000000000000000000000000000000BE000000BFBF0000C3C300000000000F0F0F000000000000C3C300DC660000000000000000000000000000000000C3F5F500
310
000000000000000000000000F5F5000000000000000000000000000000000000000066DCBE00DC0000000000DCDC0000000000DC0000BE000000BFBF0000C3000000000000000FC3C300000000C3C3BFDCDC660000000000000000000000000000000000C3F5F500000000000000000000000000F5F5000000000000000000
310
000000000000000000000066DC0F0000DC000000000000DC00DC00DC0000DCBE000000BFBF0000C3000000000000000F0FC3C3C3C3C3C300BFDCDC660000000000000000000000000000000000C3F5F500000000000000000000000000F5F5000000000000000000000000000000000000000066DCBEDC0000DC00DCDC0000
310
00DCDC0000000000BE000000BFBF0000C300000000000000000FC3C3000000C3C3BFDCDC660000000000000000000000000000000000C3F5F500000000000000000000000000F5F5000000000000000000000000000000000000000066DCBEDC00000000DC00000000000000DC000000BE000000BFBF0000C3000000000000
310
0000C30F0000000000C3C3DCDC660000000000000000000000000000000000C3F5F500000000000000000000000000F5F5000000000000000000000000000000000000000066DCBE000000DC0000DC00DC000000DCDCDC0000BE000000BFBF0000C3C3000000000000C30F0F000000000000C3DCDC66000000000000000000
310
0000000000000000C3F5F500000000000000000000000000F5F500000000000000000000000000000000000F0F0F0F00BE0000DC000000000000000000DC00000000BE000000BFBF000000C3C3C30000C3C3C30F0F000000000000C30000660000000000000000000000000000000000C3F5F5000000000000000000000000
310
00F5F500000000000000000000000000000000000F00000FDC66BEBEBEBEBEBEBEBEBEBEBEDC0000000000BE000000BFBF00000000C3C3C3C3C3C3000F0F000000000000C3DCDC660000000000000000000000000000000000C3F5F500000000000000000000000000F5F500000000000000000000000000000000000F0000
310
0F66660F0F0F0F0F0F0F0F0F0F0FDCDC00DCDC00BE000000BFBF000000C3C300000000C3C30F0F000000000000C3DCDC660000000000000000000000000000000000C3F5F500000000000000000000000000F5F500000000000000000000000000000000000F00000F0F0F0F0F0F0F0F0F00000000BE000000000000BE0000
310
00BFBF0000C3C3000000000000C30F0F0000000000C3C3DCDC6600F5F5F5F5F5F5F5F5F500000000000000C3F5F500000000000000000000000000F5F500000000000000000000000000000000000F00000F0F0F0F0F0F0F0F0F0F0F0F0FBE000000DCDCDCBE000000BFBF0000C30000000000000000C30F00000000C3C3BF
310
DCDC6600F5F5F5F5F5F5F5F5F500000000000000C3F5F500000000000000000000000000F5F500000000000000000000000000000000000F00000F0F0F0F0F0F0F00000000000FBE000000000000BE000000BFBF0000C300000000000000000FC3C3C3C3C3C300BFDCDC660000F5F5F5F5F5F5F50000000000000000C3F5F5
310
00000000000000000000000000F5F500000000000000000000000000000000000F00000F00000000000F00000000000FBEDC0000000000BE000000BFBF0000C3000000000000F5F5F5F5F5F5F5F5F5F5F5F5F5F5F5F5F5F5F5F5F5F5F50000000000000000C3F5F500000000000000000000000000F5F50000000000000000
310
0000000000000000000F00000F00000000000F00000000000FBE0000DC000000BE000000BFBF0000C30000F5F5F5F5F50FC3000000000000C3BFDCDC660000000000000000000000000000000000C3F5F500000000000000000000000000F5F500000000000000000000000000000000000F00000F00000000000F00000000
310
000FBEDCDC00DC00DCBE000000BFBF0000F5F5F5F500000F0FC30F00000000000000C3DC00660000000000000000000000000000000000C3F5F500000000000000000000000000F5F500000000000000000000000000000000000F00000F00000000000F00000000000FBE000000000000BE000000BFF5F5F500C3C3000F0F
310
0FC3C30000000000000000C30000660000000000000000000000000000000000C3F5F500000000000000000000000000F5F500000000000000000000000000000000000F00000F00000000000F00000000000FBE000000DCDCDCBE0000F5F5BF00000000C3C30FC3C3C3000000000000000000C3DCDC660000000000000000
310
000000000000000000C3F5F500000000000000000000000000F5F500000000000000000000000000000000000F00000F00000000000F00000000000FBEDC0000000000BEF5F500BFBF00000F0F0F0F0F00C3C3C30000000000000000C3DC00660000000000000000000000000000000000C3F5F50000000000000000000000
310
0000F5F500000000000000000000000000000000000F00F5F5F5F50000000F0F0F0F0F0F0F0F0F0F0F0F0F0FF50F0F0F0F0F0F0FC30F0F0000000000C30000000000000000C3DCDC660000F5F5F5F5F5F5F5F5F5000000000000C3F5F500000000000000000000000000F5F500000000000000000000000000000000000F00
310
F5F5F5F50000000F000000000000000000000000000F0F0F0F0F0F0F0FC30000000000000000C3000000000000C3C3DCDC660000F5F5F5F5F5F5F5F5F5000000000000C3F5F500000000000000000000000000F5F500000000000000000000000000000000000F00F5F5F5F5F500000F0F0F0F0F0F0F0F0F0F0F0F0F0FF5F5
310
F5F5BFBF0000C3000000000000000000C3C30000C3C3C3BFDCDC660000F5F5F5F5F5F5F5F5F5F5F500000000C3F5F500000000000000000000000000F5F5000000000000000000000000000000000F0F00F5F5F5F5F500000F00000000000FBEDCDC0000DC00BE000000F5F5F5F5C3000000000000000000C3C3C3C3C3C300
310
BFDCDC660000F5F5F5F5F5F5F5F5F5F5F500000000C3F5F500000000000000000000000000F5F5000000000000000000000000000000000F0F00000000000000000F00000000000FBEDCDC00000000BE000000BFBF0000F5F5F5F50000000000C3C300000000C3C3BFDC00660000F5F5F5F5F5F5F5F5F5F5F5F5F5F500C3F5
310
F500000000000000000000000000F5F500000000000000000000000000000000000F00000F00000000000F00000000000FBE00DCDCDC0000BE000000BFBF0000C3C30000F5F5F5F5F5C3000000000000C3C3DCDC660000F5F5F5F5F5F5F5F5F5F5F5F5F5F500C3F5F500000000000000000000000000F5F500000000000000
310
000000000000000000000F00000F00000000000F00000000000FBE000000000000BE000000BFBF000000C3C300000000C3F5F5F5F5F5F5F50000C3DC00660000F5F5F5F5F5F5F5F5F5F5F5F5F50000C3F5F500000000000000000000000000F5F500000000000000000000000000000000000F00000F00000000000F000000
310
00000FBE00000000DC00BE000000BFBF00000000C3C3C3C3C3C3000000000000F5F5F5F5F5F5F5F5F5F5F5F5F5F5F5F5F5F5F5F5F5F50000C3F5F500000000000000000000000000F5F500000000000000000000000000000000000F00000F0F0F0F0F0F0F00000000000FBEDC00DC000000BE000000BFBF000000C3C3C300
310
00C3C3000000000000000000C3DCDC660000000000000000000000000000000000C3F5F500000000000000000000000000F5F500000000000000000000000000000000000F00000F00000000000000000000000FBE000000DC0000BE000000BFBF0000C3C3000000000000C30000000000000000C3DC006600000000000000
310
00000000000000000000C3F5F500000000000000000000000000F5F500000000000000000000000000000000000F00000F0F0F0F0F0F0F0F0F0F0F0F0FBEDC00DCDC0000BE000000BFBF0000C30000000000000000C3000000000000C3F5F5F5660000000000000000000000000000000000C3F5F500000000000000000000
310
000000F5F500000000000000000000000000000000000F00000F66660F0F0F0FF50F00000000BE000000000000BE000000BFBF0000C30000000000000000C3C300000000C3C3F5F5F5660000000000000000000000000000000000C3F5F500000000000000000000000000F5F500000000000000000000000000000000000F
310
00000FDC660F0F0FF50F0F0F0F0F0F0FDCDC00000000BE000000BFBF0000C3000000000000000000C3C3C3C3C3C300BFDCF5660000F5F5F5F5F5F5F5F5F5F5F5F5F5F500C3F5F500000000000000000000000000F5F500000000000000000000000000000000000F00000FDC66BEF5F5BEBEBEBEBEBEBEBE000000000000BE
310
000000BFBF0000C30000000000000000C3C300000000C3C3BFDCF5660000F5F5F5F5F5F5F5F5F5F5F5F5F5F500C3F5F500000000000000000000000000F5F500000000000000000000000000000000000F0F0F0FDCBEF5F500DC00000000DC00000000DCDCDC00BE000000BFBF0000C30000000000000000C3000000000000
310
C3C300F5660000F5F5F5F5F5F5F5F5F5F5F5F5F5F500C3F5F500000000000000000000000000F5F50000F5F5F5F5F5F500000000000000000000000066DCF50000DC000000000000DC0000000000DCDCBE000000BFBF000000C3000000000000C30000000000000000C3DCF5F5F5F5F5F5F5F5F5F5F5F5F5F5F5F5F5F500C3
310
F5F500000000000000000000000000F5F50000F5F5F5F5F5F5000000000000000000000000F5F5BE000000000000DCDC00DCDC0000DC00DC00BE000000BFBF000000C3C3C300C3C3C3000000000000000000C3DCDC660000000000000000000000000000000000C3F5F500000000000000000000000000F5F500F5F5F5F5F5
310
F5F5F5F5F5F5000000000000F5F5F5DCBEDC00DC00DCDC0000000000DC0000000000BE000000BFBF00000000C3C3C3C3C3C3000000000000000000C3DCDC660000000000000000000000000000000000C3F5F500000000000000000000000000F5F500F5F5F5F5F5F5F5F5F5F5F50000F5F5F5F5F50066000F000000000000
310
DC00DC0000000000DC0000BE000000BFBF000000C3C300000000C3C30000000000000000C3DCDC660000000000000000000000000000000000C3F5F500000000000000000000000000F5F5000000000000000000000000000000000000000066DCBE0000DC0000000000DC0000000000DC0000BE000000BFBF0000C3C30000
310
0000000000C3000000000000C3C3DCDC660000000000000000000000000000000000C3F5F500000000000000000000000000F5F500000000000000000000000000000000000000006600BE00DC00DC000000000000DCDC0000000000BE000000BFBF0000C30000000000000000C3C300000000C3C3BFDCDC660000F5F5F5F5
310
F5F5F5F5F5F5F5F5F5F500C3F5F500000000000000000000000000F5F5000000000000000000000000000000000000000066DCBE00000000DCDC0000000000DC000000DC00BE000000BFBF0000C3000000000000000000C3C3C3C3C3C300BFDCDC660000F5F5F5F5F5F5F5F5F5F5F5F5F5F500C3F5F5000000000000000000
310
00000000F5F5000000000000000000000000000000000000000066DCBE00000000DC00000000DC00DCDCDC000000BE000000BFBF0000C30000000000000000C3C3C30000C3C3C3BFDCF5F5F5F5F5F5F5F5F5F5F5F5F5F5F500000000C3F5F500000000000000000000000000F5F50000000000000000000000000000000000
310
0000006600BE0000DCDCDC00DC00DC000000000000DC00BE000000BFBF0000C30000000000000000C30000000000F5F5F5F5F56600F5F5F5F5F5F5F5F5F5F5F5F500000000C3F5F500000000000000000000000000F5F500000000000000000000000000000000000000006600BE00DC00000000DC00DC000000000000DC00
310
BE000000BFBF0000C3C3000000000000C300000000F5F5F500C3DC00660000000000000000000000000000000000C3F5F500000000000000000000000000F5F5000000000000000000000000000000000000000066DCBE0000000000000000000000000000000000BE000000BFBF000000C3C3C30000C3C3C30000F5F5F500
310
0000C3DCDC660000000000000000000000000000000000C3F5F500000000000000000000000000F5F500000000000000000000000000000000000000006600BE00000000DCDC0000DC0000DCDCDC000000BE000000BFBF00000000C3C3C3C3C3C30000F5F50000000000C30000660000000000000000000000000000000000
310
C3F5F500000000000000000000000000F5F5000000000000000000000000000000000000000066DCBE0000000000000000000000000000000000BE000000BFBF000000C3C300000000C3C3F500000000000000C3DCDC660000000000000000000000000000000000C3F5F500000000000000000000000000F5F50000000000
310
00000000000000000000000000000066DCBE0000DC0000000000DC00DCDC00DCDCDC00BE000000BFBF0000C3C3000000000000F500000000000000C3C300DC660000000000000000000000000000000000C3F5F500000000000000000000000000F5F5000000000000000000000000000000000000000066DCBEDCDCDCDC00
310
DC00DC0000DCDC0000000000BE000000BFBF0000C30000000000000000C3C30000000000C3BFDCDC660000000000000000000000000000000000C3F5F500000000000000000000000000F5F5000000000000000000000000000000000000000066DCBE000000DC0000DC0000000000DC00000000BE000000BFBF0000C30000
310
00000000000000C3C3C3C3C3C300BFDCDC660000000000000000000000000000000000C3F5F500000000000000000000000000F5F5000000000000000000000000000000000000000066DCBE00000000DC0000000000000000DC000000BE000000BFBF0000C3000000000000000000C3C3C3C3C3C300BFDC00660000000000
310
000000000000000000000000C3F5F500000000000000000000000000F5F5000000000000000000000000000000000000000066DCBEDC00DC000000DCDC00DC00000000DCDC00BE000000BFBF0000C30000000000000000C3C300000000C3C3BFDCDC660000000000000000000000000000000000C3F5F50000000000000000
310
0000000000F5F5000000000000000000000000000000000000000066DCBE000000000000DC0000000000000000DCDCBE000000BFBF0000C3C3000000000000C300000000000000C3C3DCDC660000000000000000000000000000000000C3F5F500000000000000000000000000F5F500000000000000000000000000000000
310
0000000066DCBE000000000000DCDC00DCDC0000DC000000BE000000BFBF000000C3C300000000C3C30000000000000000C3DCDC660000000000000000000000000000000000C3F5F500000000000000000000000000F5F500000000000000000000000000000000000000006600BE00DCDC00DCDC0000DCDC0000DC000000
310
00BE000000BFBF00000000C3C3C3C3C3C3000000000000000000C3DCDC660000000000000000000000000000000000C3F5F500000000000000000000000000F5F5000000000000000000000000000000000000000066DCBE0000000000000000000000000000000000BE000000BFBF000000C3C3C30000C3C3C30000000000
310
000000C3DCDC660000000000000000000000000000000000C3F5F500000000000000000000000000F5F500000000000000000000000000000000000000006600BE00DCDCDC00000000DCDC00DC000000DC00BE000000BFBF0000C3C3000000000000C30000000000000000C300DC6600000000000000000000000000000000
310
00C3F5F500000000000000000000000000F5F500000000000000000000000000000000000000006600BE0000DC00000000F500DC000000000000DCBE0000F5BFBF0000C30000000000000000C3000000000000C3C300DC660000000000000000000000000000000000C3F5F500000000000000000000000000F5F500000000
310
0000000000000000000000000000000066DCBEDC000000DC00DCF5F5000000DCDC00DC00BE0000F5BFBF0000C30000000000000000C3C3C30000C3C3C3BFDCDC660000000000000000000000000000000000C3F5F500000000000000000000000000F5F5000000000000000000000000000000000000F5F5F5F5F5F5F5F5F5
310
F5F5F50000F5F5F5F5F5F5F5F5F5F500F500F5F5F5C3F5F5F5F5F5F500F500F5C3C3C3C3F5F5BFDCF566F5F5000000000000000000000000000000C3F5F500000000000000000000000000F5F50000000000000000000000000000000000000000000000000000000000F5000000000000000000000000F5F5000000000000
310
0000000000F5F50000000000000000000000000000000000000000000000000000000000C3F5F500000000000000000000000000F5F500000000000000000000000000000000000000000000000000000000000000000000000000000000000000000000000000000000000000000000000000000000000000000000000000
310
00000000000000000000000000C3F5F500000000000000000000000000F5F50000000000000000000000000000000000000000000000000000000000000000000000000000000000000000000000000000000000000000000000000000000000000000000000000000000000000000000000000000C3F5F500000000000000
310
000000000000F5F50000000000000000000000000000000000000000000000000000000000000000000000000000000000000000000000000000000000000000000000000000000000000000000000000000000000000000000000000000C3F5F500000000000000000000000000F5F5000000000000000000000000000000
310
0000000000000000000000000000000000000000000000000000000000000000000000000000000000000000000000000000000000000000000000000000000000000000000000C3F5F500000000000000000000000000F5F50000000000000000000000000000000000000000000000000000000000000000000000000000
310
000000000000000000000000000000000000000000000000000000000000000000000000000000000000000000000000C3F5F500000000000000000000000000F5F500000000000000000000000000000000000000000000000000000000000000000000000000000000000000000000000000000000000000000000000000
310
00000000000000000000000000000000000000000000000000C3F5F500000000000000000000000000F5F5000000000000000000000000000000000000000000000000000000000000000000000000000000000000000000000000000000000000000000000000000000000000000000000000000000000000000000000000
310
0000C3F5F500000000000000000000000000F5F5C3C3C3C3C3C3C3C3C3C3C3C3C3C3C3C3C3C3C3C3C3C3C3C3C3C3C3C3C3C3C3C3C3C3C3C3C3C3C3C3C3C3C3C3C3C3C3C3C3C3C3C3C3C3C3C3C3C3C3C3C3C3C3C3C3C3C3C3C3C3C3C3C3C3C3C3C3C3C3C3C3C3C3C3C3C3C3F5F500000000000000000000000000F5F5000000
310
000000000000000000000000000000000000000000000000000000000000000000000000000000000000000000000000000000000000000000000000000000000000000000000000000000000000000000000000F5F500000000000000000000000000F5F50000000000000000000000000000000000000000000000000000
310
00000000000000000000000000000000000000000000000000000000000000000000000000000000000000000000000000000000000000000000000000F5F500000000000000000000000000F5F500000000000000000000000000000000000000000000000000000000000000000000000000000000000000000000000000
310
0000000000000000000000000000000000000000000000000000000000000000000000000000F5F500000000000000000000000000F5F5000000000000000000000000000000000000000000000000000000000000000000000000000000000000000000000000000000000000000000000000000000000000000000000000
310
000000000000000000000000000000F5F500000000000000000000000000F5F5000000000000000000000000000000000000000000000000000000000000000000000000000000000000000000000000000000000000000000000000000000000000000000000000000000000000000000000000000000F5F5000000000000
310
00000000000000F5F5000000000000000000000000000000000000000000000000000000000000000000000000000000000000000000000000000000000000000000000000000000000000000000000000000000000000000000000000000000F5F500000000000000000000000000F5F50000000000000000000000000000
310
00000000000000000000000000000000000000000000000000000000000000000000000000000000000000000000000000000000000000000000000000000000000000000000000000F5F500000000000000000000000000F5F500000000000000000000000000000000000000000000000000000000000000000000000000
310
0000000000000000000000000000000000000000000000000000000000000000000000000000000000000000000000000000F5F500000000000000000000000000F5F5000000000000000000000000000000000000000000000000000000000000000000000000000000000000000000000000000000000000000000000000
310
000000000000000000000000000000000000000000000000000000F5F500000000000000000000000000F5F50000000000000000000000000000000000000000000000000000000000000000000000000000000000000000000000000000000000000000000000000000000000000000000000000000000000000000000000
310
00000000F5F500000000000000000000000000F5F5F5F5F5F5F5F5F5F5F5F5F5F5F5F5F5F5F5F5F5F5F5F5F5F5F5F5F5F5F5F5F5F5F5F5F5F5F5F5F5F5F5F5F5F5F5F5F5F5F5F5F5F5F5F5F5F5F5F5F5F5F5F5F5F5F5F5F5F5F5F5F5F5F5F5F5F5F5F5F5F5F5F5F5F5F5F5F5F5F500000000000000000000000000F5F5F5F5
310
F5F5F5F5F5F5F5F5F5F5F5F5F5F5F5F5F5F5F5F5F5F5F5F5F5F5F5F5F5F5F5F5F5F5F5F5F5F5F5F5F5F5F5F5F5F5F5F5F5F5F5F5F5F5F5F5F5F5F5F5F5F5F5F5F5F5F5F5F5F5F5F5F5F5F5F5F5F5F5F5F5F5F5F5F5F50000000000000000000000000000000000000000000000000000000000000000000000000000000000
310
00000000000000000000000000000000000000000000000000000000000000000000000000000000000000000000000000000000000000000000000000000000000000000000000000000000000000000000000000000000000000000000000000000000000000000000000000000000000000000000000000000000000000
310
00000000000000000000000000000000000000000000000000000000000000000000000000000000000000000000000000000000000000000000000000000000000000000000000000000000000000000000000000000000000000000000000000000000000000000000000000000000000000000000000000000000000000
310
00000000000000000000000000000000000000000000000000000000000000000000000000000000000000000000000000000000000000000000000000000000000000000000000000000000000000000000000000000000000000000000000000000000000000000000000000000000000000000000000000000000000000
310
000000
  0
XRECORD
  5
7FF8
102
{ACAD_REACTORS
330
2F40
102
}
330
2F40
100
AcDbXrecord
280
     1
102
MATERIAL
148
0.0
149
0.0
149
0.0
 93
        0
 94
      127
282
     0
 72
     0
 77
     0
171
     0
175
     0
179
     0
273
     0
  0
XRECORD
  5
2F42
102
{ACAD_REACTORS
330
2F40
102
}
330
2F40
100
AcDbXrecord
280
     1
270
     1
271
     1
  0
XRECORD
  5
2F41
102
{ACAD_REACTORS
330
2F40
102
}
330
2F40
100
AcDbXrecord
280
     1
270
     1
271
     1
  0
XRECORD
  5
2F45
102
{ACAD_REACTORS
330
2F40
102
}
330
2F40
100
AcDbXrecord
280
     1
270
     1
271
     1
  0
XRECORD
  5
2F44
102
{ACAD_REACTORS
330
2F40
102
}
330
2F40
100
AcDbXrecord
280
     1
270
     1
271
     1
  0
XRECORD
  5
2F46
102
{ACAD_REACTORS
330
2F40
102
}
330
2F40
100
AcDbXrecord
280
     1
270
     1
271
     1
  0
XRECORD
  5
2F43
102
{ACAD_REACTORS
330
2F40
102
}
330
2F40
100
AcDbXrecord
280
     1
270
     1
271
     1
  0
XRECORD
  5
7FF7
102
{ACAD_REACTORS
330
2F38
102
}
330
2F38
100
AcDbXrecord
280
     1
102
MATERIAL
148
0.0
149
0.0
149
0.0
 93
        0
 94
      127
282
     0
 72
     0
 77
     0
171
     0
175
     0
179
     0
273
     0
  0
XRECORD
  5
2F3A
102
{ACAD_REACTORS
330
2F38
102
}
330
2F38
100
AcDbXrecord
280
     1
270
     1
271
     1
  0
XRECORD
  5
2F39
102
{ACAD_REACTORS
330
2F38
102
}
330
2F38
100
AcDbXrecord
280
     1
270
     1
271
     1
  0
XRECORD
  5
2F3D
102
{ACAD_REACTORS
330
2F38
102
}
330
2F38
100
AcDbXrecord
280
     1
270
     1
271
     1
  0
XRECORD
  5
2F3C
102
{ACAD_REACTORS
330
2F38
102
}
330
2F38
100
AcDbXrecord
280
     1
270
     1
271
     1
  0
XRECORD
  5
2F3E
102
{ACAD_REACTORS
330
2F38
102
}
330
2F38
100
AcDbXrecord
280
     1
270
     1
271
     1
  0
XRECORD
  5
2F3B
102
{ACAD_REACTORS
330
2F38
102
}
330
2F38
100
AcDbXrecord
280
     1
270
     1
271
     1
  0
XRECORD
  5
7FF9
102
{ACAD_REACTORS
330
2F48
102
}
330
2F48
100
AcDbXrecord
280
     1
102
MATERIAL
148
0.0
149
0.0
149
0.0
 93
        0
 94
      127
282
     0
 72
     0
 77
     0
171
     0
175
     0
179
     0
273
     0
  0
XRECORD
  5
2F4A
102
{ACAD_REACTORS
330
2F48
102
}
330
2F48
100
AcDbXrecord
280
     1
270
     1
271
     1
  0
XRECORD
  5
2F49
102
{ACAD_REACTORS
330
2F48
102
}
330
2F48
100
AcDbXrecord
280
     1
270
     1
271
     1
  0
XRECORD
  5
2F4D
102
{ACAD_REACTORS
330
2F48
102
}
330
2F48
100
AcDbXrecord
280
     1
270
     1
271
     1
  0
XRECORD
  5
2F4C
102
{ACAD_REACTORS
330
2F48
102
}
330
2F48
100
AcDbXrecord
280
     1
270
     1
271
     1
  0
XRECORD
  5
2F4E
102
{ACAD_REACTORS
330
2F48
102
}
330
2F48
100
AcDbXrecord
280
     1
270
     1
271
     1
  0
XRECORD
  5
2F4B
102
{ACAD_REACTORS
330
2F48
102
}
330
2F48
100
AcDbXrecord
280
     1
270
     1
271
     1
  0
CELLSTYLEMAP
  5
7FE7
102
{ACAD_REACTORS
330
2FC0
102
}
330
2FC0
100
AcDbCellStyleMap
 90
        3
300
CELLSTYLE
  1
TABLEFORMAT_BEGIN
 90
        5
170
     1
 91
        0
 92
    32768
 62
   257
 93
        1
300
CONTENTFORMAT
  1
CONTENTFORMAT_BEGIN
 90
        0
 91
        0
 92
      512
 93
        0
300

 40
0.0
140
1.0
 94
        5
 62
     0
340
555
144
0.25
309
CONTENTFORMAT_END
171
     0
 94
        0
309
TABLEFORMAT_END
  1
CELLSTYLE_BEGIN
 90
        1
 91
        1
300
_TITLE
309
CELLSTYLE_END
300
CELLSTYLE
  1
TABLEFORMAT_BEGIN
 90
        5
170
     1
 91
        0
 92
        0
 62
   257
 93
        1
300
CONTENTFORMAT
  1
CONTENTFORMAT_BEGIN
 90
        0
 91
        0
 92
      512
 93
        0
300

 40
0.0
140
1.0
 94
        5
 62
     0
340
555
144
0.18
309
CONTENTFORMAT_END
171
     0
 94
        0
309
TABLEFORMAT_END
  1
CELLSTYLE_BEGIN
 90
        2
 91
        1
300
_HEADER
309
CELLSTYLE_END
300
CELLSTYLE
  1
TABLEFORMAT_BEGIN
 90
        5
170
     1
 91
        0
 92
        0
 62
   257
 93
        1
300
CONTENTFORMAT
  1
CONTENTFORMAT_BEGIN
 90
        0
 91
        0
 92
      512
 93
        0
300

 40
0.0
140
1.0
 94
        2
 62
     0
340
555
144
0.18
309
CONTENTFORMAT_END
171
     0
 94
        0
309
TABLEFORMAT_END
  1
CELLSTYLE_BEGIN
 90
        3
 91
        2
300
_DATA
309
CELLSTYLE_END
  0
XRECORD
  5
801A
102
{ACAD_REACTORS
330
2FC0
102
}
330
2FC0
100
AcDbXrecord
280
     1
102
ACAD_ROUNDTRIP_PRE2007_TABLESTYLE
 90
      512
 91
        0
  1

 92
      512
 93
        0
  2

 94
      512
 95
        0
  3

  0
XRECORD
  5
8005
102
{ACAD_REACTORS
330
8004
102
}
330
8004
100
AcDbXrecord
280
     1
102
RTVSPost2010Prop28
280
     1
102
RTVSPost2010PropOp28
 70
     1
102
RTVSPost2010Prop29
280
     1
102
RTVSPost2010PropOp29
 70
     1
102
RTVSPost2010Prop30
280
     0
102
RTVSPost2010PropOp30
 70
     1
102
RTVSPost2010Prop31
280
     0
102
RTVSPost2010PropOp31
 70
     1
102
RTVSPost2010Prop32
280
     0
102
RTVSPost2010PropOp32
 70
     1
102
RTVSPost2010Prop33
280
     0
102
RTVSPost2010PropOp33
 70
     1
102
RTVSPost2010Prop34
280
     0
102
RTVSPost2010PropOp34
 70
     1
102
RTVSPost2010Prop35
280
     0
102
RTVSPost2010PropOp35
 70
     1
102
RTVSPost2010Prop36
280
     0
102
RTVSPost2010PropOp36
 70
     1
102
RTVSPost2010Prop37
 90
       50
102
RTVSPost2010PropOp37
 70
     1
102
RTVSPost2010Prop38
140
0.0
102
RTVSPost2010PropOp38
 70
     1
102
RTVSPost2010Prop39
140
1.0
102
RTVSPost2010PropOp39
 70
     1
102
RTVSPost2010Prop40
 90
        0
102
RTVSPost2010PropOp40
 70
     1
102
RTVSPost2010Prop41ColorIndex
 90
       18
102
RTVSPost2010Prop41ColorRGB
 90
        0
102
RTVSPost2010PropOp41
 70
     1
102
RTVSPost2010Prop42
 90
       50
102
RTVSPost2010PropOp42
 70
     1
102
RTVSPost2010Prop43
 90
        3
102
RTVSPost2010PropOp43
 70
     1
102
RTVSPost2010Prop44ColorIndex
 90
        5
102
RTVSPost2010Prop44ColorRGB
 90
      255
102
RTVSPost2010PropOp44
 70
     1
102
RTVSPost2010Prop45
280
     0
102
RTVSPost2010PropOp45
 70
     1
102
RTVSPost2010Prop46
 90
       50
102
RTVSPost2010PropOp46
 70
     1
102
RTVSPost2010Prop47
 90
       50
102
RTVSPost2010PropOp47
 70
     1
102
RTVSPost2010Prop48
 90
       50
102
RTVSPost2010PropOp48
 70
     1
102
RTVSPost2010Prop49
280
     0
102
RTVSPost2010PropOp49
 70
     1
102
RTVSPost2010Prop50
 90
       50
102
RTVSPost2010PropOp50
 70
     1
102
RTVSPost2010Prop51ColorIndex
 90
      256
102
RTVSPost2010Prop51ColorRGB
 90
-16777216
102
RTVSPost2010PropOp51
 70
     0
102
RTVSPost2010Prop52
140
1.0
102
RTVSPost2010PropOp52
 70
     0
102
RTVSPost2010Prop53
 90
        2
102
RTVSPost2010PropOp53
 70
     1
102
RTVSPost2010Prop54
  1
strokes_ogs.tif
102
RTVSPost2010PropOp54
 70
     1
102
RTVSPost2010Prop55
280
     0
102
RTVSPost2010PropOp55
 70
     1
102
RTVSPost2010Prop56
140
1.0
102
RTVSPost2010PropOp56
 70
     1
102
RTVSPost2010Prop57
140
1.0
102
RTVSPost2010PropOp57
 70
     1
102
RTVSPropertyOp0
 70
     1
102
RTVSPropertyOp1
 70
     1
102
RTVSPropertyOp2
 70
     1
102
RTVSPropertyOp3
 70
     1
102
RTVSPropertyOp4
 70
     1
102
RTVSPropertyOp5
 70
     1
102
RTVSPropertyOp6
 70
     1
102
RTVSPropertyOp7
 70
     1
102
RTVSPropertyOp8
 70
     1
102
RTVSPropertyOp9
 70
     1
102
RTVSPropertyOp10
 70
     1
102
RTVSPropertyOp11
 70
     1
102
RTVSPropertyOp12
 70
     1
102
RTVSPropertyOp13
 70
     1
102
RTVSPropertyOp14
 70
     1
102
RTVSPropertyOp15
 70
     1
102
RTVSPropertyOp16
 70
     1
102
RTVSPropertyOp17
 70
     1
102
RTVSPropertyOp18
 70
     1
102
RTVSPropertyOp19
 70
     1
102
RTVSPropertyOp20
 70
     1
102
RTVSPropertyOp21
 70
     1
102
RTVSPropertyOp22
 70
     1
102
RTVSPropertyOp23
 70
     1
102
RTVSPropertyOp24
 70
     1
102
RTVSPropertyOp25
 70
     1
102
RTVSPropertyOp26
 70
     1
102
RTVSPropertyOp27
 70
     1
102
RTVSPropertyOp28
 70
     1
102
RTVSPropertyOp29
 70
     1
102
RTVSPropertyOp30
 70
     1
102
RTVSPropertyOp31
 70
     1
102
RTVSPropertyOp32
 70
     1
102
RTVSPropertyOp33
 70
     1
102
RTVSPropertyOp34
 70
     1
102
RTVSPropertyOp35
 70
     1
102
RTVSPropertyOp36
 70
     1
102
RTVSPropertyOp37
 70
     1
102
RTVSPropertyOp38
 70
     1
102
RTVSPropertyOp39
 70
     1
102
RTVSPropertyOp40
 70
     1
102
RTVSPropertyOp41
 70
     1
102
RTVSPropertyOp42
 70
     1
102
RTVSPropertyOp43
 70
     1
102
RTVSPropertyOp44
 70
     1
102
RTVSPropertyOp45
 70
     1
102
RTVSPropertyOp46
 70
     1
102
RTVSPropertyOp47
 70
     1
102
RTVSPropertyOp48
 70
     1
102
RTVSPropertyOp49
 70
     1
102
RTVSPropertyOp50
 70
     1
102
RTVSPropertyOp51
 70
     0
102
RTVSPropertyOp52
 70
     0
102
RTVSPropertyOp53
 70
     1
102
RTVSPropertyOp54
 70
     1
102
RTVSPropertyOp55
 70
     1
102
RTVSPropertyOp56
 70
     1
102
RTVSPropertyOp57
 70
     1
102
RTVSPropertyOp58
 70
     1
102
RTVSPropertyOp59
 70
     1
102
RTVSPropertyOp60
 70
     1
102
RTVSPropertyOp61
 70
     1
102
RTVSPropertyOp62
 70
     1
  0
XRECORD
  5
8009
102
{ACAD_REACTORS
330
8008
102
}
330
8008
100
AcDbXrecord
280
     1
102
RTVSPost2010Prop28
280
     0
102
RTVSPost2010PropOp28
 70
     1
102
RTVSPost2010Prop29
280
     1
102
RTVSPost2010PropOp29
 70
     1
102
RTVSPost2010Prop30
280
     1
102
RTVSPost2010PropOp30
 70
     1
102
RTVSPost2010Prop31
280
     0
102
RTVSPost2010PropOp31
 70
     1
102
RTVSPost2010Prop32
280
     0
102
RTVSPost2010PropOp32
 70
     1
102
RTVSPost2010Prop33
280
     0
102
RTVSPost2010PropOp33
 70
     1
102
RTVSPost2010Prop34
280
     0
102
RTVSPost2010PropOp34
 70
     1
102
RTVSPost2010Prop35
280
     0
102
RTVSPost2010PropOp35
 70
     1
102
RTVSPost2010Prop36
280
     0
102
RTVSPost2010PropOp36
 70
     1
102
RTVSPost2010Prop37
 90
       50
102
RTVSPost2010PropOp37
 70
     1
102
RTVSPost2010Prop38
140
0.0
102
RTVSPost2010PropOp38
 70
     1
102
RTVSPost2010Prop39
140
1.0
102
RTVSPost2010PropOp39
 70
     1
102
RTVSPost2010Prop40
 90
        0
102
RTVSPost2010PropOp40
 70
     1
102
RTVSPost2010Prop41ColorIndex
 90
       18
102
RTVSPost2010Prop41ColorRGB
 90
        0
102
RTVSPost2010PropOp41
 70
     1
102
RTVSPost2010Prop42
 90
       50
102
RTVSPost2010PropOp42
 70
     1
102
RTVSPost2010Prop43
 90
        3
102
RTVSPost2010PropOp43
 70
     1
102
RTVSPost2010Prop44ColorIndex
 90
        5
102
RTVSPost2010Prop44ColorRGB
 90
      255
102
RTVSPost2010PropOp44
 70
     1
102
RTVSPost2010Prop45
280
     0
102
RTVSPost2010PropOp45
 70
     1
102
RTVSPost2010Prop46
 90
       50
102
RTVSPost2010PropOp46
 70
     1
102
RTVSPost2010Prop47
 90
       50
102
RTVSPost2010PropOp47
 70
     1
102
RTVSPost2010Prop48
 90
       50
102
RTVSPost2010PropOp48
 70
     1
102
RTVSPost2010Prop49
280
     0
102
RTVSPost2010PropOp49
 70
     1
102
RTVSPost2010Prop50
 90
       50
102
RTVSPost2010PropOp50
 70
     1
102
RTVSPost2010Prop51ColorIndex
 90
      256
102
RTVSPost2010Prop51ColorRGB
 90
-16777216
102
RTVSPost2010PropOp51
 70
     0
102
RTVSPost2010Prop52
140
1.0
102
RTVSPost2010PropOp52
 70
     0
102
RTVSPost2010Prop53
 90
        2
102
RTVSPost2010PropOp53
 70
     1
102
RTVSPost2010Prop54
  1
strokes_ogs.tif
102
RTVSPost2010PropOp54
 70
     1
102
RTVSPost2010Prop55
280
     0
102
RTVSPost2010PropOp55
 70
     1
102
RTVSPost2010Prop56
140
1.0
102
RTVSPost2010PropOp56
 70
     1
102
RTVSPost2010Prop57
140
1.0
102
RTVSPost2010PropOp57
 70
     1
102
RTVSPropertyOp0
 70
     1
102
RTVSPropertyOp1
 70
     1
102
RTVSPropertyOp2
 70
     1
102
RTVSPropertyOp3
 70
     1
102
RTVSPropertyOp4
 70
     1
102
RTVSPropertyOp5
 70
     1
102
RTVSPropertyOp6
 70
     1
102
RTVSPropertyOp7
 70
     1
102
RTVSPropertyOp8
 70
     1
102
RTVSPropertyOp9
 70
     1
102
RTVSPropertyOp10
 70
     1
102
RTVSPropertyOp11
 70
     1
102
RTVSPropertyOp12
 70
     1
102
RTVSPropertyOp13
 70
     1
102
RTVSPropertyOp14
 70
     1
102
RTVSPropertyOp15
 70
     1
102
RTVSPropertyOp16
 70
     1
102
RTVSPropertyOp17
 70
     1
102
RTVSPropertyOp18
 70
     1
102
RTVSPropertyOp19
 70
     1
102
RTVSPropertyOp20
 70
     1
102
RTVSPropertyOp21
 70
     1
102
RTVSPropertyOp22
 70
     1
102
RTVSPropertyOp23
 70
     1
102
RTVSPropertyOp24
 70
     1
102
RTVSPropertyOp25
 70
     1
102
RTVSPropertyOp26
 70
     1
102
RTVSPropertyOp27
 70
     1
102
RTVSPropertyOp28
 70
     1
102
RTVSPropertyOp29
 70
     1
102
RTVSPropertyOp30
 70
     1
102
RTVSPropertyOp31
 70
     1
102
RTVSPropertyOp32
 70
     1
102
RTVSPropertyOp33
 70
     1
102
RTVSPropertyOp34
 70
     1
102
RTVSPropertyOp35
 70
     1
102
RTVSPropertyOp36
 70
     1
102
RTVSPropertyOp37
 70
     1
102
RTVSPropertyOp38
 70
     1
102
RTVSPropertyOp39
 70
     1
102
RTVSPropertyOp40
 70
     1
102
RTVSPropertyOp41
 70
     1
102
RTVSPropertyOp42
 70
     1
102
RTVSPropertyOp43
 70
     1
102
RTVSPropertyOp44
 70
     1
102
RTVSPropertyOp45
 70
     1
102
RTVSPropertyOp46
 70
     1
102
RTVSPropertyOp47
 70
     1
102
RTVSPropertyOp48
 70
     1
102
RTVSPropertyOp49
 70
     1
102
RTVSPropertyOp50
 70
     1
102
RTVSPropertyOp51
 70
     0
102
RTVSPropertyOp52
 70
     0
102
RTVSPropertyOp53
 70
     1
102
RTVSPropertyOp54
 70
     1
102
RTVSPropertyOp55
 70
     1
102
RTVSPropertyOp56
 70
     1
102
RTVSPropertyOp57
 70
     1
102
RTVSPropertyOp58
 70
     1
102
RTVSPropertyOp59
 70
     1
102
RTVSPropertyOp60
 70
     1
102
RTVSPropertyOp61
 70
     1
102
RTVSPropertyOp62
 70
     1
  0
XRECORD
  5
8007
102
{ACAD_REACTORS
330
8006
102
}
330
8006
100
AcDbXrecord
280
     1
102
RTVSPost2010Prop28
280
     0
102
RTVSPost2010PropOp28
 70
     1
102
RTVSPost2010Prop29
280
     1
102
RTVSPost2010PropOp29
 70
     1
102
RTVSPost2010Prop30
280
     1
102
RTVSPost2010PropOp30
 70
     1
102
RTVSPost2010Prop31
280
     0
102
RTVSPost2010PropOp31
 70
     1
102
RTVSPost2010Prop32
280
     0
102
RTVSPost2010PropOp32
 70
     1
102
RTVSPost2010Prop33
280
     0
102
RTVSPost2010PropOp33
 70
     1
102
RTVSPost2010Prop34
280
     0
102
RTVSPost2010PropOp34
 70
     1
102
RTVSPost2010Prop35
280
     0
102
RTVSPost2010PropOp35
 70
     1
102
RTVSPost2010Prop36
280
     0
102
RTVSPost2010PropOp36
 70
     1
102
RTVSPost2010Prop37
 90
       50
102
RTVSPost2010PropOp37
 70
     1
102
RTVSPost2010Prop38
140
0.0
102
RTVSPost2010PropOp38
 70
     1
102
RTVSPost2010Prop39
140
1.0
102
RTVSPost2010PropOp39
 70
     1
102
RTVSPost2010Prop40
 90
        0
102
RTVSPost2010PropOp40
 70
     1
102
RTVSPost2010Prop41ColorIndex
 90
       18
102
RTVSPost2010Prop41ColorRGB
 90
        0
102
RTVSPost2010PropOp41
 70
     1
102
RTVSPost2010Prop42
 90
       50
102
RTVSPost2010PropOp42
 70
     1
102
RTVSPost2010Prop43
 90
        3
102
RTVSPost2010PropOp43
 70
     1
102
RTVSPost2010Prop44ColorIndex
 90
        5
102
RTVSPost2010Prop44ColorRGB
 90
      255
102
RTVSPost2010PropOp44
 70
     1
102
RTVSPost2010Prop45
280
     0
102
RTVSPost2010PropOp45
 70
     1
102
RTVSPost2010Prop46
 90
       50
102
RTVSPost2010PropOp46
 70
     1
102
RTVSPost2010Prop47
 90
       50
102
RTVSPost2010PropOp47
 70
     1
102
RTVSPost2010Prop48
 90
       50
102
RTVSPost2010PropOp48
 70
     1
102
RTVSPost2010Prop49
280
     0
102
RTVSPost2010PropOp49
 70
     1
102
RTVSPost2010Prop50
 90
       50
102
RTVSPost2010PropOp50
 70
     1
102
RTVSPost2010Prop51ColorIndex
 90
      256
102
RTVSPost2010Prop51ColorRGB
 90
-16777216
102
RTVSPost2010PropOp51
 70
     0
102
RTVSPost2010Prop52
140
1.0
102
RTVSPost2010PropOp52
 70
     0
102
RTVSPost2010Prop53
 90
        2
102
RTVSPost2010PropOp53
 70
     1
102
RTVSPost2010Prop54
  1
strokes_ogs.tif
102
RTVSPost2010PropOp54
 70
     1
102
RTVSPost2010Prop55
280
     0
102
RTVSPost2010PropOp55
 70
     1
102
RTVSPost2010Prop56
140
1.0
102
RTVSPost2010PropOp56
 70
     1
102
RTVSPost2010Prop57
140
1.0
102
RTVSPost2010PropOp57
 70
     1
102
RTVSPropertyOp0
 70
     1
102
RTVSPropertyOp1
 70
     1
102
RTVSPropertyOp2
 70
     1
102
RTVSPropertyOp3
 70
     1
102
RTVSPropertyOp4
 70
     1
102
RTVSPropertyOp5
 70
     1
102
RTVSPropertyOp6
 70
     1
102
RTVSPropertyOp7
 70
     1
102
RTVSPropertyOp8
 70
     1
102
RTVSPropertyOp9
 70
     1
102
RTVSPropertyOp10
 70
     1
102
RTVSPropertyOp11
 70
     1
102
RTVSPropertyOp12
 70
     1
102
RTVSPropertyOp13
 70
     1
102
RTVSPropertyOp14
 70
     1
102
RTVSPropertyOp15
 70
     1
102
RTVSPropertyOp16
 70
     1
102
RTVSPropertyOp17
 70
     1
102
RTVSPropertyOp18
 70
     1
102
RTVSPropertyOp19
 70
     1
102
RTVSPropertyOp20
 70
     1
102
RTVSPropertyOp21
 70
     1
102
RTVSPropertyOp22
 70
     1
102
RTVSPropertyOp23
 70
     1
102
RTVSPropertyOp24
 70
     1
102
RTVSPropertyOp25
 70
     1
102
RTVSPropertyOp26
 70
     1
102
RTVSPropertyOp27
 70
     1
102
RTVSPropertyOp28
 70
     1
102
RTVSPropertyOp29
 70
     1
102
RTVSPropertyOp30
 70
     1
102
RTVSPropertyOp31
 70
     1
102
RTVSPropertyOp32
 70
     1
102
RTVSPropertyOp33
 70
     1
102
RTVSPropertyOp34
 70
     1
102
RTVSPropertyOp35
 70
     1
102
RTVSPropertyOp36
 70
     1
102
RTVSPropertyOp37
 70
     1
102
RTVSPropertyOp38
 70
     1
102
RTVSPropertyOp39
 70
     1
102
RTVSPropertyOp40
 70
     1
102
RTVSPropertyOp41
 70
     1
102
RTVSPropertyOp42
 70
     1
102
RTVSPropertyOp43
 70
     1
102
RTVSPropertyOp44
 70
     1
102
RTVSPropertyOp45
 70
     1
102
RTVSPropertyOp46
 70
     1
102
RTVSPropertyOp47
 70
     1
102
RTVSPropertyOp48
 70
     1
102
RTVSPropertyOp49
 70
     1
102
RTVSPropertyOp50
 70
     1
102
RTVSPropertyOp51
 70
     0
102
RTVSPropertyOp52
 70
     0
102
RTVSPropertyOp53
 70
     1
102
RTVSPropertyOp54
 70
     1
102
RTVSPropertyOp55
 70
     1
102
RTVSPropertyOp56
 70
     1
102
RTVSPropertyOp57
 70
     1
102
RTVSPropertyOp58
 70
     1
102
RTVSPropertyOp59
 70
     1
102
RTVSPropertyOp60
 70
     1
102
RTVSPropertyOp61
 70
     1
102
RTVSPropertyOp62
 70
     1
  0
XRECORD
  5
8003
102
{ACAD_REACTORS
330
8002
102
}
330
8002
100
AcDbXrecord
280
     1
102
RTVSPost2010Prop28
280
     0
102
RTVSPost2010PropOp28
 70
     1
102
RTVSPost2010Prop29
280
     1
102
RTVSPost2010PropOp29
 70
     1
102
RTVSPost2010Prop30
280
     1
102
RTVSPost2010PropOp30
 70
     1
102
RTVSPost2010Prop31
280
     0
102
RTVSPost2010PropOp31
 70
     1
102
RTVSPost2010Prop32
280
     0
102
RTVSPost2010PropOp32
 70
     1
102
RTVSPost2010Prop33
280
     0
102
RTVSPost2010PropOp33
 70
     1
102
RTVSPost2010Prop34
280
     0
102
RTVSPost2010PropOp34
 70
     1
102
RTVSPost2010Prop35
280
     0
102
RTVSPost2010PropOp35
 70
     1
102
RTVSPost2010Prop36
280
     0
102
RTVSPost2010PropOp36
 70
     1
102
RTVSPost2010Prop37
 90
       50
102
RTVSPost2010PropOp37
 70
     1
102
RTVSPost2010Prop38
140
0.0
102
RTVSPost2010PropOp38
 70
     1
102
RTVSPost2010Prop39
140
1.0
102
RTVSPost2010PropOp39
 70
     1
102
RTVSPost2010Prop40
 90
        0
102
RTVSPost2010PropOp40
 70
     1
102
RTVSPost2010Prop41ColorIndex
 90
       18
102
RTVSPost2010Prop41ColorRGB
 90
        0
102
RTVSPost2010PropOp41
 70
     1
102
RTVSPost2010Prop42
 90
       50
102
RTVSPost2010PropOp42
 70
     1
102
RTVSPost2010Prop43
 90
        3
102
RTVSPost2010PropOp43
 70
     1
102
RTVSPost2010Prop44ColorIndex
 90
        5
102
RTVSPost2010Prop44ColorRGB
 90
      255
102
RTVSPost2010PropOp44
 70
     1
102
RTVSPost2010Prop45
280
     0
102
RTVSPost2010PropOp45
 70
     1
102
RTVSPost2010Prop46
 90
       50
102
RTVSPost2010PropOp46
 70
     1
102
RTVSPost2010Prop47
 90
       50
102
RTVSPost2010PropOp47
 70
     1
102
RTVSPost2010Prop48
 90
       50
102
RTVSPost2010PropOp48
 70
     1
102
RTVSPost2010Prop49
280
     0
102
RTVSPost2010PropOp49
 70
     1
102
RTVSPost2010Prop50
 90
       50
102
RTVSPost2010PropOp50
 70
     1
102
RTVSPost2010Prop51ColorIndex
 90
      256
102
RTVSPost2010Prop51ColorRGB
 90
-16777216
102
RTVSPost2010PropOp51
 70
     0
102
RTVSPost2010Prop52
140
1.0
102
RTVSPost2010PropOp52
 70
     0
102
RTVSPost2010Prop53
 90
        2
102
RTVSPost2010PropOp53
 70
     1
102
RTVSPost2010Prop54
  1
strokes_ogs.tif
102
RTVSPost2010PropOp54
 70
     1
102
RTVSPost2010Prop55
280
     0
102
RTVSPost2010PropOp55
 70
     1
102
RTVSPost2010Prop56
140
1.0
102
RTVSPost2010PropOp56
 70
     1
102
RTVSPost2010Prop57
140
1.0
102
RTVSPost2010PropOp57
 70
     1
102
RTVSPropertyOp0
 70
     1
102
RTVSPropertyOp1
 70
     1
102
RTVSPropertyOp2
 70
     1
102
RTVSPropertyOp3
 70
     1
102
RTVSPropertyOp4
 70
     1
102
RTVSPropertyOp5
 70
     1
102
RTVSPropertyOp6
 70
     1
102
RTVSPropertyOp7
 70
     1
102
RTVSPropertyOp8
 70
     1
102
RTVSPropertyOp9
 70
     1
102
RTVSPropertyOp10
 70
     1
102
RTVSPropertyOp11
 70
     1
102
RTVSPropertyOp12
 70
     1
102
RTVSPropertyOp13
 70
     1
102
RTVSPropertyOp14
 70
     1
102
RTVSPropertyOp15
 70
     1
102
RTVSPropertyOp16
 70
     1
102
RTVSPropertyOp17
 70
     1
102
RTVSPropertyOp18
 70
     1
102
RTVSPropertyOp19
 70
     1
102
RTVSPropertyOp20
 70
     1
102
RTVSPropertyOp21
 70
     1
102
RTVSPropertyOp22
 70
     1
102
RTVSPropertyOp23
 70
     1
102
RTVSPropertyOp24
 70
     1
102
RTVSPropertyOp25
 70
     1
102
RTVSPropertyOp26
 70
     1
102
RTVSPropertyOp27
 70
     1
102
RTVSPropertyOp28
 70
     1
102
RTVSPropertyOp29
 70
     1
102
RTVSPropertyOp30
 70
     1
102
RTVSPropertyOp31
 70
     1
102
RTVSPropertyOp32
 70
     1
102
RTVSPropertyOp33
 70
     1
102
RTVSPropertyOp34
 70
     1
102
RTVSPropertyOp35
 70
     1
102
RTVSPropertyOp36
 70
     1
102
RTVSPropertyOp37
 70
     1
102
RTVSPropertyOp38
 70
     1
102
RTVSPropertyOp39
 70
     1
102
RTVSPropertyOp40
 70
     1
102
RTVSPropertyOp41
 70
     1
102
RTVSPropertyOp42
 70
     1
102
RTVSPropertyOp43
 70
     1
102
RTVSPropertyOp44
 70
     1
102
RTVSPropertyOp45
 70
     1
102
RTVSPropertyOp46
 70
     1
102
RTVSPropertyOp47
 70
     1
102
RTVSPropertyOp48
 70
     1
102
RTVSPropertyOp49
 70
     1
102
RTVSPropertyOp50
 70
     1
102
RTVSPropertyOp51
 70
     0
102
RTVSPropertyOp52
 70
     0
102
RTVSPropertyOp53
 70
     1
102
RTVSPropertyOp54
 70
     1
102
RTVSPropertyOp55
 70
     1
102
RTVSPropertyOp56
 70
     1
102
RTVSPropertyOp57
 70
     1
102
RTVSPropertyOp58
 70
     1
102
RTVSPropertyOp59
 70
     1
102
RTVSPropertyOp60
 70
     1
102
RTVSPropertyOp61
 70
     1
102
RTVSPropertyOp62
 70
     1
  0
XRECORD
  5
8011
102
{ACAD_REACTORS
330
8010
102
}
330
8010
100
AcDbXrecord
280
     1
102
RTVSPost2010Prop28
280
     0
102
RTVSPost2010PropOp28
 70
     1
102
RTVSPost2010Prop29
280
     1
102
RTVSPost2010PropOp29
 70
     1
102
RTVSPost2010Prop30
280
     1
102
RTVSPost2010PropOp30
 70
     1
102
RTVSPost2010Prop31
280
     0
102
RTVSPost2010PropOp31
 70
     1
102
RTVSPost2010Prop32
280
     0
102
RTVSPost2010PropOp32
 70
     1
102
RTVSPost2010Prop33
280
     0
102
RTVSPost2010PropOp33
 70
     1
102
RTVSPost2010Prop34
280
     0
102
RTVSPost2010PropOp34
 70
     1
102
RTVSPost2010Prop35
280
     0
102
RTVSPost2010PropOp35
 70
     1
102
RTVSPost2010Prop36
280
     0
102
RTVSPost2010PropOp36
 70
     1
102
RTVSPost2010Prop37
 90
       50
102
RTVSPost2010PropOp37
 70
     1
102
RTVSPost2010Prop38
140
0.0
102
RTVSPost2010PropOp38
 70
     1
102
RTVSPost2010Prop39
140
1.0
102
RTVSPost2010PropOp39
 70
     1
102
RTVSPost2010Prop40
 90
        0
102
RTVSPost2010PropOp40
 70
     1
102
RTVSPost2010Prop41ColorIndex
 90
       18
102
RTVSPost2010Prop41ColorRGB
 90
        0
102
RTVSPost2010PropOp41
 70
     1
102
RTVSPost2010Prop42
 90
       50
102
RTVSPost2010PropOp42
 70
     1
102
RTVSPost2010Prop43
 90
        3
102
RTVSPost2010PropOp43
 70
     1
102
RTVSPost2010Prop44ColorIndex
 90
        5
102
RTVSPost2010Prop44ColorRGB
 90
      255
102
RTVSPost2010PropOp44
 70
     1
102
RTVSPost2010Prop45
280
     0
102
RTVSPost2010PropOp45
 70
     1
102
RTVSPost2010Prop46
 90
       50
102
RTVSPost2010PropOp46
 70
     1
102
RTVSPost2010Prop47
 90
       50
102
RTVSPost2010PropOp47
 70
     1
102
RTVSPost2010Prop48
 90
       50
102
RTVSPost2010PropOp48
 70
     1
102
RTVSPost2010Prop49
280
     0
102
RTVSPost2010PropOp49
 70
     1
102
RTVSPost2010Prop50
 90
       50
102
RTVSPost2010PropOp50
 70
     1
102
RTVSPost2010Prop51ColorIndex
 90
      256
102
RTVSPost2010Prop51ColorRGB
 90
-16777216
102
RTVSPost2010PropOp51
 70
     0
102
RTVSPost2010Prop52
140
1.0
102
RTVSPost2010PropOp52
 70
     0
102
RTVSPost2010Prop53
 90
        2
102
RTVSPost2010PropOp53
 70
     1
102
RTVSPost2010Prop54
  1
strokes_ogs.tif
102
RTVSPost2010PropOp54
 70
     1
102
RTVSPost2010Prop55
280
     0
102
RTVSPost2010PropOp55
 70
     1
102
RTVSPost2010Prop56
140
1.0
102
RTVSPost2010PropOp56
 70
     1
102
RTVSPost2010Prop57
140
1.0
102
RTVSPost2010PropOp57
 70
     1
102
RTVSPropertyOp0
 70
     1
102
RTVSPropertyOp1
 70
     1
102
RTVSPropertyOp2
 70
     1
102
RTVSPropertyOp3
 70
     1
102
RTVSPropertyOp4
 70
     1
102
RTVSPropertyOp5
 70
     1
102
RTVSPropertyOp6
 70
     1
102
RTVSPropertyOp7
 70
     1
102
RTVSPropertyOp8
 70
     1
102
RTVSPropertyOp9
 70
     1
102
RTVSPropertyOp10
 70
     1
102
RTVSPropertyOp11
 70
     1
102
RTVSPropertyOp12
 70
     1
102
RTVSPropertyOp13
 70
     1
102
RTVSPropertyOp14
 70
     1
102
RTVSPropertyOp15
 70
     1
102
RTVSPropertyOp16
 70
     1
102
RTVSPropertyOp17
 70
     1
102
RTVSPropertyOp18
 70
     1
102
RTVSPropertyOp19
 70
     1
102
RTVSPropertyOp20
 70
     1
102
RTVSPropertyOp21
 70
     1
102
RTVSPropertyOp22
 70
     1
102
RTVSPropertyOp23
 70
     1
102
RTVSPropertyOp24
 70
     1
102
RTVSPropertyOp25
 70
     1
102
RTVSPropertyOp26
 70
     1
102
RTVSPropertyOp27
 70
     1
102
RTVSPropertyOp28
 70
     1
102
RTVSPropertyOp29
 70
     1
102
RTVSPropertyOp30
 70
     1
102
RTVSPropertyOp31
 70
     1
102
RTVSPropertyOp32
 70
     1
102
RTVSPropertyOp33
 70
     1
102
RTVSPropertyOp34
 70
     1
102
RTVSPropertyOp35
 70
     1
102
RTVSPropertyOp36
 70
     1
102
RTVSPropertyOp37
 70
     1
102
RTVSPropertyOp38
 70
     1
102
RTVSPropertyOp39
 70
     1
102
RTVSPropertyOp40
 70
     1
102
RTVSPropertyOp41
 70
     1
102
RTVSPropertyOp42
 70
     1
102
RTVSPropertyOp43
 70
     1
102
RTVSPropertyOp44
 70
     1
102
RTVSPropertyOp45
 70
     1
102
RTVSPropertyOp46
 70
     1
102
RTVSPropertyOp47
 70
     1
102
RTVSPropertyOp48
 70
     1
102
RTVSPropertyOp49
 70
     1
102
RTVSPropertyOp50
 70
     1
102
RTVSPropertyOp51
 70
     0
102
RTVSPropertyOp52
 70
     0
102
RTVSPropertyOp53
 70
     1
102
RTVSPropertyOp54
 70
     1
102
RTVSPropertyOp55
 70
     1
102
RTVSPropertyOp56
 70
     1
102
RTVSPropertyOp57
 70
     1
102
RTVSPropertyOp58
 70
     1
102
RTVSPropertyOp59
 70
     1
102
RTVSPropertyOp60
 70
     1
102
RTVSPropertyOp61
 70
     1
102
RTVSPropertyOp62
 70
     1
  0
XRECORD
  5
8019
102
{ACAD_REACTORS
330
8018
102
}
330
8018
100
AcDbXrecord
280
     1
102
RTVSPost2010Prop28
280
     0
102
RTVSPost2010PropOp28
 70
     1
102
RTVSPost2010Prop29
280
     1
102
RTVSPost2010PropOp29
 70
     1
102
RTVSPost2010Prop30
280
     1
102
RTVSPost2010PropOp30
 70
     1
102
RTVSPost2010Prop31
280
     0
102
RTVSPost2010PropOp31
 70
     1
102
RTVSPost2010Prop32
280
     0
102
RTVSPost2010PropOp32
 70
     1
102
RTVSPost2010Prop33
280
     0
102
RTVSPost2010PropOp33
 70
     1
102
RTVSPost2010Prop34
280
     0
102
RTVSPost2010PropOp34
 70
     1
102
RTVSPost2010Prop35
280
     0
102
RTVSPost2010PropOp35
 70
     1
102
RTVSPost2010Prop36
280
     0
102
RTVSPost2010PropOp36
 70
     1
102
RTVSPost2010Prop37
 90
       50
102
RTVSPost2010PropOp37
 70
     1
102
RTVSPost2010Prop38
140
0.0
102
RTVSPost2010PropOp38
 70
     1
102
RTVSPost2010Prop39
140
1.0
102
RTVSPost2010PropOp39
 70
     1
102
RTVSPost2010Prop40
 90
        0
102
RTVSPost2010PropOp40
 70
     1
102
RTVSPost2010Prop41ColorIndex
 90
       18
102
RTVSPost2010Prop41ColorRGB
 90
        0
102
RTVSPost2010PropOp41
 70
     1
102
RTVSPost2010Prop42
 90
       50
102
RTVSPost2010PropOp42
 70
     1
102
RTVSPost2010Prop43
 90
        3
102
RTVSPost2010PropOp43
 70
     1
102
RTVSPost2010Prop44ColorIndex
 90
        5
102
RTVSPost2010Prop44ColorRGB
 90
      255
102
RTVSPost2010PropOp44
 70
     1
102
RTVSPost2010Prop45
280
     0
102
RTVSPost2010PropOp45
 70
     1
102
RTVSPost2010Prop46
 90
       50
102
RTVSPost2010PropOp46
 70
     1
102
RTVSPost2010Prop47
 90
       50
102
RTVSPost2010PropOp47
 70
     1
102
RTVSPost2010Prop48
 90
       50
102
RTVSPost2010PropOp48
 70
     1
102
RTVSPost2010Prop49
280
     0
102
RTVSPost2010PropOp49
 70
     1
102
RTVSPost2010Prop50
 90
       50
102
RTVSPost2010PropOp50
 70
     1
102
RTVSPost2010Prop51ColorIndex
 90
      256
102
RTVSPost2010Prop51ColorRGB
 90
-16777216
102
RTVSPost2010PropOp51
 70
     0
102
RTVSPost2010Prop52
140
1.0
102
RTVSPost2010PropOp52
 70
     0
102
RTVSPost2010Prop53
 90
        2
102
RTVSPost2010PropOp53
 70
     1
102
RTVSPost2010Prop54
  1
strokes_ogs.tif
102
RTVSPost2010PropOp54
 70
     1
102
RTVSPost2010Prop55
280
     0
102
RTVSPost2010PropOp55
 70
     1
102
RTVSPost2010Prop56
140
1.0
102
RTVSPost2010PropOp56
 70
     1
102
RTVSPost2010Prop57
140
1.0
102
RTVSPost2010PropOp57
 70
     1
102
RTVSPropertyOp0
 70
     1
102
RTVSPropertyOp1
 70
     1
102
RTVSPropertyOp2
 70
     1
102
RTVSPropertyOp3
 70
     1
102
RTVSPropertyOp4
 70
     1
102
RTVSPropertyOp5
 70
     1
102
RTVSPropertyOp6
 70
     1
102
RTVSPropertyOp7
 70
     1
102
RTVSPropertyOp8
 70
     1
102
RTVSPropertyOp9
 70
     1
102
RTVSPropertyOp10
 70
     1
102
RTVSPropertyOp11
 70
     1
102
RTVSPropertyOp12
 70
     1
102
RTVSPropertyOp13
 70
     1
102
RTVSPropertyOp14
 70
     1
102
RTVSPropertyOp15
 70
     1
102
RTVSPropertyOp16
 70
     1
102
RTVSPropertyOp17
 70
     1
102
RTVSPropertyOp18
 70
     1
102
RTVSPropertyOp19
 70
     1
102
RTVSPropertyOp20
 70
     1
102
RTVSPropertyOp21
 70
     1
102
RTVSPropertyOp22
 70
     1
102
RTVSPropertyOp23
 70
     1
102
RTVSPropertyOp24
 70
     1
102
RTVSPropertyOp25
 70
     1
102
RTVSPropertyOp26
 70
     1
102
RTVSPropertyOp27
 70
     1
102
RTVSPropertyOp28
 70
     1
102
RTVSPropertyOp29
 70
     1
102
RTVSPropertyOp30
 70
     1
102
RTVSPropertyOp31
 70
     1
102
RTVSPropertyOp32
 70
     1
102
RTVSPropertyOp33
 70
     1
102
RTVSPropertyOp34
 70
     1
102
RTVSPropertyOp35
 70
     1
102
RTVSPropertyOp36
 70
     1
102
RTVSPropertyOp37
 70
     1
102
RTVSPropertyOp38
 70
     1
102
RTVSPropertyOp39
 70
     1
102
RTVSPropertyOp40
 70
     1
102
RTVSPropertyOp41
 70
     1
102
RTVSPropertyOp42
 70
     1
102
RTVSPropertyOp43
 70
     1
102
RTVSPropertyOp44
 70
     1
102
RTVSPropertyOp45
 70
     1
102
RTVSPropertyOp46
 70
     1
102
RTVSPropertyOp47
 70
     1
102
RTVSPropertyOp48
 70
     1
102
RTVSPropertyOp49
 70
     1
102
RTVSPropertyOp50
 70
     1
102
RTVSPropertyOp51
 70
     0
102
RTVSPropertyOp52
 70
     0
102
RTVSPropertyOp53
 70
     1
102
RTVSPropertyOp54
 70
     1
102
RTVSPropertyOp55
 70
     1
102
RTVSPropertyOp56
 70
     1
102
RTVSPropertyOp57
 70
     1
102
RTVSPropertyOp58
 70
     1
102
RTVSPropertyOp59
 70
     1
102
RTVSPropertyOp60
 70
     1
102
RTVSPropertyOp61
 70
     1
102
RTVSPropertyOp62
 70
     1
  0
XRECORD
  5
800B
102
{ACAD_REACTORS
330
800A
102
}
330
800A
100
AcDbXrecord
280
     1
102
RTVSPost2010Prop28
280
     0
102
RTVSPost2010PropOp28
 70
     1
102
RTVSPost2010Prop29
280
     1
102
RTVSPost2010PropOp29
 70
     1
102
RTVSPost2010Prop30
280
     1
102
RTVSPost2010PropOp30
 70
     1
102
RTVSPost2010Prop31
280
     0
102
RTVSPost2010PropOp31
 70
     1
102
RTVSPost2010Prop32
280
     0
102
RTVSPost2010PropOp32
 70
     1
102
RTVSPost2010Prop33
280
     0
102
RTVSPost2010PropOp33
 70
     1
102
RTVSPost2010Prop34
280
     0
102
RTVSPost2010PropOp34
 70
     1
102
RTVSPost2010Prop35
280
     0
102
RTVSPost2010PropOp35
 70
     1
102
RTVSPost2010Prop36
280
     0
102
RTVSPost2010PropOp36
 70
     1
102
RTVSPost2010Prop37
 90
       50
102
RTVSPost2010PropOp37
 70
     1
102
RTVSPost2010Prop38
140
0.0
102
RTVSPost2010PropOp38
 70
     1
102
RTVSPost2010Prop39
140
1.0
102
RTVSPost2010PropOp39
 70
     1
102
RTVSPost2010Prop40
 90
        0
102
RTVSPost2010PropOp40
 70
     1
102
RTVSPost2010Prop41ColorIndex
 90
       18
102
RTVSPost2010Prop41ColorRGB
 90
        0
102
RTVSPost2010PropOp41
 70
     1
102
RTVSPost2010Prop42
 90
       50
102
RTVSPost2010PropOp42
 70
     1
102
RTVSPost2010Prop43
 90
        3
102
RTVSPost2010PropOp43
 70
     1
102
RTVSPost2010Prop44ColorIndex
 90
        5
102
RTVSPost2010Prop44ColorRGB
 90
      255
102
RTVSPost2010PropOp44
 70
     1
102
RTVSPost2010Prop45
280
     0
102
RTVSPost2010PropOp45
 70
     1
102
RTVSPost2010Prop46
 90
       50
102
RTVSPost2010PropOp46
 70
     1
102
RTVSPost2010Prop47
 90
       50
102
RTVSPost2010PropOp47
 70
     1
102
RTVSPost2010Prop48
 90
       50
102
RTVSPost2010PropOp48
 70
     1
102
RTVSPost2010Prop49
280
     0
102
RTVSPost2010PropOp49
 70
     1
102
RTVSPost2010Prop50
 90
       50
102
RTVSPost2010PropOp50
 70
     1
102
RTVSPost2010Prop51ColorIndex
 90
      256
102
RTVSPost2010Prop51ColorRGB
 90
-16777216
102
RTVSPost2010PropOp51
 70
     0
102
RTVSPost2010Prop52
140
1.0
102
RTVSPost2010PropOp52
 70
     0
102
RTVSPost2010Prop53
 90
        2
102
RTVSPost2010PropOp53
 70
     1
102
RTVSPost2010Prop54
  1
strokes_ogs.tif
102
RTVSPost2010PropOp54
 70
     1
102
RTVSPost2010Prop55
280
     0
102
RTVSPost2010PropOp55
 70
     1
102
RTVSPost2010Prop56
140
1.0
102
RTVSPost2010PropOp56
 70
     1
102
RTVSPost2010Prop57
140
1.0
102
RTVSPost2010PropOp57
 70
     1
102
RTVSPropertyOp0
 70
     1
102
RTVSPropertyOp1
 70
     1
102
RTVSPropertyOp2
 70
     1
102
RTVSPropertyOp3
 70
     1
102
RTVSPropertyOp4
 70
     1
102
RTVSPropertyOp5
 70
     1
102
RTVSPropertyOp6
 70
     1
102
RTVSPropertyOp7
 70
     1
102
RTVSPropertyOp8
 70
     1
102
RTVSPropertyOp9
 70
     1
102
RTVSPropertyOp10
 70
     1
102
RTVSPropertyOp11
 70
     1
102
RTVSPropertyOp12
 70
     1
102
RTVSPropertyOp13
 70
     1
102
RTVSPropertyOp14
 70
     1
102
RTVSPropertyOp15
 70
     1
102
RTVSPropertyOp16
 70
     1
102
RTVSPropertyOp17
 70
     1
102
RTVSPropertyOp18
 70
     1
102
RTVSPropertyOp19
 70
     1
102
RTVSPropertyOp20
 70
     1
102
RTVSPropertyOp21
 70
     1
102
RTVSPropertyOp22
 70
     1
102
RTVSPropertyOp23
 70
     1
102
RTVSPropertyOp24
 70
     1
102
RTVSPropertyOp25
 70
     1
102
RTVSPropertyOp26
 70
     1
102
RTVSPropertyOp27
 70
     1
102
RTVSPropertyOp28
 70
     1
102
RTVSPropertyOp29
 70
     1
102
RTVSPropertyOp30
 70
     1
102
RTVSPropertyOp31
 70
     1
102
RTVSPropertyOp32
 70
     1
102
RTVSPropertyOp33
 70
     1
102
RTVSPropertyOp34
 70
     1
102
RTVSPropertyOp35
 70
     1
102
RTVSPropertyOp36
 70
     1
102
RTVSPropertyOp37
 70
     1
102
RTVSPropertyOp38
 70
     1
102
RTVSPropertyOp39
 70
     1
102
RTVSPropertyOp40
 70
     1
102
RTVSPropertyOp41
 70
     1
102
RTVSPropertyOp42
 70
     1
102
RTVSPropertyOp43
 70
     1
102
RTVSPropertyOp44
 70
     1
102
RTVSPropertyOp45
 70
     1
102
RTVSPropertyOp46
 70
     1
102
RTVSPropertyOp47
 70
     1
102
RTVSPropertyOp48
 70
     1
102
RTVSPropertyOp49
 70
     1
102
RTVSPropertyOp50
 70
     1
102
RTVSPropertyOp51
 70
     0
102
RTVSPropertyOp52
 70
     0
102
RTVSPropertyOp53
 70
     1
102
RTVSPropertyOp54
 70
     1
102
RTVSPropertyOp55
 70
     1
102
RTVSPropertyOp56
 70
     1
102
RTVSPropertyOp57
 70
     1
102
RTVSPropertyOp58
 70
     1
102
RTVSPropertyOp59
 70
     1
102
RTVSPropertyOp60
 70
     1
102
RTVSPropertyOp61
 70
     1
102
RTVSPropertyOp62
 70
     1
  0
XRECORD
  5
800F
102
{ACAD_REACTORS
330
800E
102
}
330
800E
100
AcDbXrecord
280
     1
102
RTVSPost2010Prop28
280
     0
102
RTVSPost2010PropOp28
 70
     1
102
RTVSPost2010Prop29
280
     1
102
RTVSPost2010PropOp29
 70
     1
102
RTVSPost2010Prop30
280
     1
102
RTVSPost2010PropOp30
 70
     1
102
RTVSPost2010Prop31
280
     0
102
RTVSPost2010PropOp31
 70
     1
102
RTVSPost2010Prop32
280
     0
102
RTVSPost2010PropOp32
 70
     1
102
RTVSPost2010Prop33
280
     0
102
RTVSPost2010PropOp33
 70
     1
102
RTVSPost2010Prop34
280
     0
102
RTVSPost2010PropOp34
 70
     1
102
RTVSPost2010Prop35
280
     0
102
RTVSPost2010PropOp35
 70
     1
102
RTVSPost2010Prop36
280
     0
102
RTVSPost2010PropOp36
 70
     1
102
RTVSPost2010Prop37
 90
       50
102
RTVSPost2010PropOp37
 70
     1
102
RTVSPost2010Prop38
140
0.0
102
RTVSPost2010PropOp38
 70
     1
102
RTVSPost2010Prop39
140
1.0
102
RTVSPost2010PropOp39
 70
     1
102
RTVSPost2010Prop40
 90
        0
102
RTVSPost2010PropOp40
 70
     1
102
RTVSPost2010Prop41ColorIndex
 90
       18
102
RTVSPost2010Prop41ColorRGB
 90
        0
102
RTVSPost2010PropOp41
 70
     1
102
RTVSPost2010Prop42
 90
       50
102
RTVSPost2010PropOp42
 70
     1
102
RTVSPost2010Prop43
 90
        3
102
RTVSPost2010PropOp43
 70
     1
102
RTVSPost2010Prop44ColorIndex
 90
        5
102
RTVSPost2010Prop44ColorRGB
 90
      255
102
RTVSPost2010PropOp44
 70
     1
102
RTVSPost2010Prop45
280
     0
102
RTVSPost2010PropOp45
 70
     1
102
RTVSPost2010Prop46
 90
       50
102
RTVSPost2010PropOp46
 70
     1
102
RTVSPost2010Prop47
 90
       50
102
RTVSPost2010PropOp47
 70
     1
102
RTVSPost2010Prop48
 90
       50
102
RTVSPost2010PropOp48
 70
     1
102
RTVSPost2010Prop49
280
     0
102
RTVSPost2010PropOp49
 70
     1
102
RTVSPost2010Prop50
 90
       50
102
RTVSPost2010PropOp50
 70
     1
102
RTVSPost2010Prop51ColorIndex
 90
      256
102
RTVSPost2010Prop51ColorRGB
 90
-16777216
102
RTVSPost2010PropOp51
 70
     0
102
RTVSPost2010Prop52
140
1.0
102
RTVSPost2010PropOp52
 70
     0
102
RTVSPost2010Prop53
 90
        2
102
RTVSPost2010PropOp53
 70
     1
102
RTVSPost2010Prop54
  1
strokes_ogs.tif
102
RTVSPost2010PropOp54
 70
     1
102
RTVSPost2010Prop55
280
     0
102
RTVSPost2010PropOp55
 70
     1
102
RTVSPost2010Prop56
140
1.0
102
RTVSPost2010PropOp56
 70
     1
102
RTVSPost2010Prop57
140
1.0
102
RTVSPost2010PropOp57
 70
     1
102
RTVSPropertyOp0
 70
     1
102
RTVSPropertyOp1
 70
     1
102
RTVSPropertyOp2
 70
     1
102
RTVSPropertyOp3
 70
     1
102
RTVSPropertyOp4
 70
     1
102
RTVSPropertyOp5
 70
     1
102
RTVSPropertyOp6
 70
     1
102
RTVSPropertyOp7
 70
     1
102
RTVSPropertyOp8
 70
     1
102
RTVSPropertyOp9
 70
     1
102
RTVSPropertyOp10
 70
     1
102
RTVSPropertyOp11
 70
     1
102
RTVSPropertyOp12
 70
     1
102
RTVSPropertyOp13
 70
     1
102
RTVSPropertyOp14
 70
     1
102
RTVSPropertyOp15
 70
     1
102
RTVSPropertyOp16
 70
     1
102
RTVSPropertyOp17
 70
     1
102
RTVSPropertyOp18
 70
     1
102
RTVSPropertyOp19
 70
     1
102
RTVSPropertyOp20
 70
     1
102
RTVSPropertyOp21
 70
     1
102
RTVSPropertyOp22
 70
     1
102
RTVSPropertyOp23
 70
     1
102
RTVSPropertyOp24
 70
     1
102
RTVSPropertyOp25
 70
     1
102
RTVSPropertyOp26
 70
     1
102
RTVSPropertyOp27
 70
     1
102
RTVSPropertyOp28
 70
     1
102
RTVSPropertyOp29
 70
     1
102
RTVSPropertyOp30
 70
     1
102
RTVSPropertyOp31
 70
     1
102
RTVSPropertyOp32
 70
     1
102
RTVSPropertyOp33
 70
     1
102
RTVSPropertyOp34
 70
     1
102
RTVSPropertyOp35
 70
     1
102
RTVSPropertyOp36
 70
     1
102
RTVSPropertyOp37
 70
     1
102
RTVSPropertyOp38
 70
     1
102
RTVSPropertyOp39
 70
     1
102
RTVSPropertyOp40
 70
     1
102
RTVSPropertyOp41
 70
     1
102
RTVSPropertyOp42
 70
     1
102
RTVSPropertyOp43
 70
     1
102
RTVSPropertyOp44
 70
     1
102
RTVSPropertyOp45
 70
     1
102
RTVSPropertyOp46
 70
     1
102
RTVSPropertyOp47
 70
     1
102
RTVSPropertyOp48
 70
     1
102
RTVSPropertyOp49
 70
     1
102
RTVSPropertyOp50
 70
     1
102
RTVSPropertyOp51
 70
     0
102
RTVSPropertyOp52
 70
     0
102
RTVSPropertyOp53
 70
     1
102
RTVSPropertyOp54
 70
     1
102
RTVSPropertyOp55
 70
     1
102
RTVSPropertyOp56
 70
     1
102
RTVSPropertyOp57
 70
     1
102
RTVSPropertyOp58
 70
     1
102
RTVSPropertyOp59
 70
     1
102
RTVSPropertyOp60
 70
     1
102
RTVSPropertyOp61
 70
     1
102
RTVSPropertyOp62
 70
     1
  0
XRECORD
  5
802F
102
{ACAD_REACTORS
330
802E
102
}
330
802E
100
AcDbXrecord
280
     1
102
RTVSPost2010Prop28
280
     0
102
RTVSPost2010PropOp28
 70
     0
102
RTVSPost2010Prop29
280
     1
102
RTVSPost2010PropOp29
 70
     0
102
RTVSPost2010Prop30
280
     1
102
RTVSPost2010PropOp30
 70
     0
102
RTVSPost2010Prop31
280
     0
102
RTVSPost2010PropOp31
 70
     0
102
RTVSPost2010Prop32
280
     0
102
RTVSPost2010PropOp32
 70
     0
102
RTVSPost2010Prop33
280
     0
102
RTVSPost2010PropOp33
 70
     0
102
RTVSPost2010Prop34
280
     0
102
RTVSPost2010PropOp34
 70
     0
102
RTVSPost2010Prop35
280
     0
102
RTVSPost2010PropOp35
 70
     0
102
RTVSPost2010Prop36
280
     0
102
RTVSPost2010PropOp36
 70
     0
102
RTVSPost2010Prop37
 90
       50
102
RTVSPost2010PropOp37
 70
     0
102
RTVSPost2010Prop38
140
0.0
102
RTVSPost2010PropOp38
 70
     0
102
RTVSPost2010Prop39
140
1.0
102
RTVSPost2010PropOp39
 70
     0
102
RTVSPost2010Prop40
 90
        0
102
RTVSPost2010PropOp40
 70
     0
102
RTVSPost2010Prop41ColorIndex
 90
       18
102
RTVSPost2010Prop41ColorRGB
 90
        0
102
RTVSPost2010PropOp41
 70
     0
102
RTVSPost2010Prop42
 90
       50
102
RTVSPost2010PropOp42
 70
     0
102
RTVSPost2010Prop43
 90
        3
102
RTVSPost2010PropOp43
 70
     0
102
RTVSPost2010Prop44ColorIndex
 90
        5
102
RTVSPost2010Prop44ColorRGB
 90
      255
102
RTVSPost2010PropOp44
 70
     0
102
RTVSPost2010Prop45
280
     0
102
RTVSPost2010PropOp45
 70
     0
102
RTVSPost2010Prop46
 90
       50
102
RTVSPost2010PropOp46
 70
     0
102
RTVSPost2010Prop47
 90
       50
102
RTVSPost2010PropOp47
 70
     0
102
RTVSPost2010Prop48
 90
       50
102
RTVSPost2010PropOp48
 70
     0
102
RTVSPost2010Prop49
280
     0
102
RTVSPost2010PropOp49
 70
     0
102
RTVSPost2010Prop50
 90
       50
102
RTVSPost2010PropOp50
 70
     0
102
RTVSPost2010Prop51ColorIndex
 90
      256
102
RTVSPost2010Prop51ColorRGB
 90
-16777216
102
RTVSPost2010PropOp51
 70
     0
102
RTVSPost2010Prop52
140
1.0
102
RTVSPost2010PropOp52
 70
     0
102
RTVSPost2010Prop53
 90
        2
102
RTVSPost2010PropOp53
 70
     0
102
RTVSPost2010Prop54
  1
strokes_ogs.tif
102
RTVSPost2010PropOp54
 70
     0
102
RTVSPost2010Prop55
280
     0
102
RTVSPost2010PropOp55
 70
     0
102
RTVSPost2010Prop56
140
1.0
102
RTVSPost2010PropOp56
 70
     0
102
RTVSPost2010Prop57
140
1.0
102
RTVSPost2010PropOp57
 70
     0
102
RTVSPropertyOp0
 70
     0
102
RTVSPropertyOp1
 70
     0
102
RTVSPropertyOp2
 70
     0
102
RTVSPropertyOp3
 70
     0
102
RTVSPropertyOp4
 70
     0
102
RTVSPropertyOp5
 70
     0
102
RTVSPropertyOp6
 70
     0
102
RTVSPropertyOp7
 70
     0
102
RTVSPropertyOp8
 70
     0
102
RTVSPropertyOp9
 70
     0
102
RTVSPropertyOp10
 70
     0
102
RTVSPropertyOp11
 70
     0
102
RTVSPropertyOp12
 70
     0
102
RTVSPropertyOp13
 70
     0
102
RTVSPropertyOp14
 70
     2
102
RTVSPropertyOp15
 70
     0
102
RTVSPropertyOp16
 70
     0
102
RTVSPropertyOp17
 70
     0
102
RTVSPropertyOp18
 70
     0
102
RTVSPropertyOp19
 70
     0
102
RTVSPropertyOp20
 70
     0
102
RTVSPropertyOp21
 70
     0
102
RTVSPropertyOp22
 70
     0
102
RTVSPropertyOp23
 70
     0
102
RTVSPropertyOp24
 70
     0
102
RTVSPropertyOp25
 70
     0
102
RTVSPropertyOp26
 70
     0
102
RTVSPropertyOp27
 70
     0
102
RTVSPropertyOp28
 70
     0
102
RTVSPropertyOp29
 70
     0
102
RTVSPropertyOp30
 70
     0
102
RTVSPropertyOp31
 70
     0
102
RTVSPropertyOp32
 70
     0
102
RTVSPropertyOp33
 70
     0
102
RTVSPropertyOp34
 70
     0
102
RTVSPropertyOp35
 70
     0
102
RTVSPropertyOp36
 70
     0
102
RTVSPropertyOp37
 70
     0
102
RTVSPropertyOp38
 70
     0
102
RTVSPropertyOp39
 70
     0
102
RTVSPropertyOp40
 70
     0
102
RTVSPropertyOp41
 70
     0
102
RTVSPropertyOp42
 70
     0
102
RTVSPropertyOp43
 70
     0
102
RTVSPropertyOp44
 70
     0
102
RTVSPropertyOp45
 70
     0
102
RTVSPropertyOp46
 70
     0
102
RTVSPropertyOp47
 70
     0
102
RTVSPropertyOp48
 70
     0
102
RTVSPropertyOp49
 70
     0
102
RTVSPropertyOp50
 70
     0
102
RTVSPropertyOp51
 70
     0
102
RTVSPropertyOp52
 70
     0
102
RTVSPropertyOp53
 70
     0
102
RTVSPropertyOp54
 70
     0
102
RTVSPropertyOp55
 70
     0
102
RTVSPropertyOp56
 70
     0
102
RTVSPropertyOp57
 70
     0
102
RTVSPropertyOp58
 70
     0
102
RTVSPropertyOp59
 70
     0
102
RTVSPropertyOp60
 70
     0
102
RTVSPropertyOp61
 70
     0
102
RTVSPropertyOp62
 70
     0
  0
XRECORD
  5
8017
102
{ACAD_REACTORS
330
8016
102
}
330
8016
100
AcDbXrecord
280
     1
102
RTVSPost2010Prop28
280
     0
102
RTVSPost2010PropOp28
 70
     1
102
RTVSPost2010Prop29
280
     1
102
RTVSPost2010PropOp29
 70
     1
102
RTVSPost2010Prop30
280
     1
102
RTVSPost2010PropOp30
 70
     1
102
RTVSPost2010Prop31
280
     0
102
RTVSPost2010PropOp31
 70
     1
102
RTVSPost2010Prop32
280
     0
102
RTVSPost2010PropOp32
 70
     1
102
RTVSPost2010Prop33
280
     0
102
RTVSPost2010PropOp33
 70
     1
102
RTVSPost2010Prop34
280
     0
102
RTVSPost2010PropOp34
 70
     1
102
RTVSPost2010Prop35
280
     0
102
RTVSPost2010PropOp35
 70
     1
102
RTVSPost2010Prop36
280
     0
102
RTVSPost2010PropOp36
 70
     1
102
RTVSPost2010Prop37
 90
       50
102
RTVSPost2010PropOp37
 70
     1
102
RTVSPost2010Prop38
140
0.0
102
RTVSPost2010PropOp38
 70
     1
102
RTVSPost2010Prop39
140
1.0
102
RTVSPost2010PropOp39
 70
     1
102
RTVSPost2010Prop40
 90
        0
102
RTVSPost2010PropOp40
 70
     1
102
RTVSPost2010Prop41ColorIndex
 90
       18
102
RTVSPost2010Prop41ColorRGB
 90
        0
102
RTVSPost2010PropOp41
 70
     1
102
RTVSPost2010Prop42
 90
       50
102
RTVSPost2010PropOp42
 70
     1
102
RTVSPost2010Prop43
 90
        3
102
RTVSPost2010PropOp43
 70
     1
102
RTVSPost2010Prop44ColorIndex
 90
        5
102
RTVSPost2010Prop44ColorRGB
 90
      255
102
RTVSPost2010PropOp44
 70
     1
102
RTVSPost2010Prop45
280
     0
102
RTVSPost2010PropOp45
 70
     1
102
RTVSPost2010Prop46
 90
       50
102
RTVSPost2010PropOp46
 70
     1
102
RTVSPost2010Prop47
 90
       50
102
RTVSPost2010PropOp47
 70
     1
102
RTVSPost2010Prop48
 90
       50
102
RTVSPost2010PropOp48
 70
     1
102
RTVSPost2010Prop49
280
     0
102
RTVSPost2010PropOp49
 70
     1
102
RTVSPost2010Prop50
 90
       50
102
RTVSPost2010PropOp50
 70
     1
102
RTVSPost2010Prop51ColorIndex
 90
      256
102
RTVSPost2010Prop51ColorRGB
 90
-16777216
102
RTVSPost2010PropOp51
 70
     0
102
RTVSPost2010Prop52
140
1.0
102
RTVSPost2010PropOp52
 70
     0
102
RTVSPost2010Prop53
 90
        2
102
RTVSPost2010PropOp53
 70
     1
102
RTVSPost2010Prop54
  1
strokes_ogs.tif
102
RTVSPost2010PropOp54
 70
     1
102
RTVSPost2010Prop55
280
     0
102
RTVSPost2010PropOp55
 70
     1
102
RTVSPost2010Prop56
140
1.0
102
RTVSPost2010PropOp56
 70
     1
102
RTVSPost2010Prop57
140
1.0
102
RTVSPost2010PropOp57
 70
     1
102
RTVSPropertyOp0
 70
     1
102
RTVSPropertyOp1
 70
     1
102
RTVSPropertyOp2
 70
     1
102
RTVSPropertyOp3
 70
     1
102
RTVSPropertyOp4
 70
     1
102
RTVSPropertyOp5
 70
     1
102
RTVSPropertyOp6
 70
     1
102
RTVSPropertyOp7
 70
     1
102
RTVSPropertyOp8
 70
     1
102
RTVSPropertyOp9
 70
     1
102
RTVSPropertyOp10
 70
     1
102
RTVSPropertyOp11
 70
     1
102
RTVSPropertyOp12
 70
     1
102
RTVSPropertyOp13
 70
     1
102
RTVSPropertyOp14
 70
     1
102
RTVSPropertyOp15
 70
     1
102
RTVSPropertyOp16
 70
     1
102
RTVSPropertyOp17
 70
     1
102
RTVSPropertyOp18
 70
     1
102
RTVSPropertyOp19
 70
     1
102
RTVSPropertyOp20
 70
     1
102
RTVSPropertyOp21
 70
     1
102
RTVSPropertyOp22
 70
     1
102
RTVSPropertyOp23
 70
     1
102
RTVSPropertyOp24
 70
     1
102
RTVSPropertyOp25
 70
     1
102
RTVSPropertyOp26
 70
     1
102
RTVSPropertyOp27
 70
     1
102
RTVSPropertyOp28
 70
     1
102
RTVSPropertyOp29
 70
     1
102
RTVSPropertyOp30
 70
     1
102
RTVSPropertyOp31
 70
     1
102
RTVSPropertyOp32
 70
     1
102
RTVSPropertyOp33
 70
     1
102
RTVSPropertyOp34
 70
     1
102
RTVSPropertyOp35
 70
     1
102
RTVSPropertyOp36
 70
     1
102
RTVSPropertyOp37
 70
     1
102
RTVSPropertyOp38
 70
     1
102
RTVSPropertyOp39
 70
     1
102
RTVSPropertyOp40
 70
     1
102
RTVSPropertyOp41
 70
     1
102
RTVSPropertyOp42
 70
     1
102
RTVSPropertyOp43
 70
     1
102
RTVSPropertyOp44
 70
     1
102
RTVSPropertyOp45
 70
     1
102
RTVSPropertyOp46
 70
     1
102
RTVSPropertyOp47
 70
     1
102
RTVSPropertyOp48
 70
     1
102
RTVSPropertyOp49
 70
     1
102
RTVSPropertyOp50
 70
     1
102
RTVSPropertyOp51
 70
     0
102
RTVSPropertyOp52
 70
     0
102
RTVSPropertyOp53
 70
     1
102
RTVSPropertyOp54
 70
     1
102
RTVSPropertyOp55
 70
     1
102
RTVSPropertyOp56
 70
     1
102
RTVSPropertyOp57
 70
     1
102
RTVSPropertyOp58
 70
     1
102
RTVSPropertyOp59
 70
     1
102
RTVSPropertyOp60
 70
     1
102
RTVSPropertyOp61
 70
     1
102
RTVSPropertyOp62
 70
     1
  0
XRECORD
  5
7FFB
102
{ACAD_REACTORS
330
7FFA
102
}
330
7FFA
100
AcDbXrecord
280
     1
102
RTVSPost2010Prop28
280
     0
102
RTVSPost2010PropOp28
 70
     1
102
RTVSPost2010Prop29
280
     1
102
RTVSPost2010PropOp29
 70
     1
102
RTVSPost2010Prop30
280
     1
102
RTVSPost2010PropOp30
 70
     1
102
RTVSPost2010Prop31
280
     0
102
RTVSPost2010PropOp31
 70
     1
102
RTVSPost2010Prop32
280
     0
102
RTVSPost2010PropOp32
 70
     1
102
RTVSPost2010Prop33
280
     0
102
RTVSPost2010PropOp33
 70
     1
102
RTVSPost2010Prop34
280
     0
102
RTVSPost2010PropOp34
 70
     1
102
RTVSPost2010Prop35
280
     0
102
RTVSPost2010PropOp35
 70
     1
102
RTVSPost2010Prop36
280
     0
102
RTVSPost2010PropOp36
 70
     1
102
RTVSPost2010Prop37
 90
       50
102
RTVSPost2010PropOp37
 70
     1
102
RTVSPost2010Prop38
140
0.0
102
RTVSPost2010PropOp38
 70
     1
102
RTVSPost2010Prop39
140
1.0
102
RTVSPost2010PropOp39
 70
     1
102
RTVSPost2010Prop40
 90
        0
102
RTVSPost2010PropOp40
 70
     1
102
RTVSPost2010Prop41ColorIndex
 90
       18
102
RTVSPost2010Prop41ColorRGB
 90
        0
102
RTVSPost2010PropOp41
 70
     1
102
RTVSPost2010Prop42
 90
       50
102
RTVSPost2010PropOp42
 70
     1
102
RTVSPost2010Prop43
 90
        3
102
RTVSPost2010PropOp43
 70
     1
102
RTVSPost2010Prop44ColorIndex
 90
        5
102
RTVSPost2010Prop44ColorRGB
 90
      255
102
RTVSPost2010PropOp44
 70
     1
102
RTVSPost2010Prop45
280
     0
102
RTVSPost2010PropOp45
 70
     1
102
RTVSPost2010Prop46
 90
       50
102
RTVSPost2010PropOp46
 70
     1
102
RTVSPost2010Prop47
 90
       50
102
RTVSPost2010PropOp47
 70
     1
102
RTVSPost2010Prop48
 90
       50
102
RTVSPost2010PropOp48
 70
     1
102
RTVSPost2010Prop49
280
     0
102
RTVSPost2010PropOp49
 70
     1
102
RTVSPost2010Prop50
 90
       50
102
RTVSPost2010PropOp50
 70
     1
102
RTVSPost2010Prop51ColorIndex
 90
      256
102
RTVSPost2010Prop51ColorRGB
 90
-16777216
102
RTVSPost2010PropOp51
 70
     0
102
RTVSPost2010Prop52
140
1.0
102
RTVSPost2010PropOp52
 70
     0
102
RTVSPost2010Prop53
 90
        2
102
RTVSPost2010PropOp53
 70
     1
102
RTVSPost2010Prop54
  1
strokes_ogs.tif
102
RTVSPost2010PropOp54
 70
     1
102
RTVSPost2010Prop55
280
     0
102
RTVSPost2010PropOp55
 70
     1
102
RTVSPost2010Prop56
140
1.0
102
RTVSPost2010PropOp56
 70
     1
102
RTVSPost2010Prop57
140
1.0
102
RTVSPost2010PropOp57
 70
     1
102
RTVSPropertyOp0
 70
     1
102
RTVSPropertyOp1
 70
     1
102
RTVSPropertyOp2
 70
     1
102
RTVSPropertyOp3
 70
     1
102
RTVSPropertyOp4
 70
     1
102
RTVSPropertyOp5
 70
     1
102
RTVSPropertyOp6
 70
     1
102
RTVSPropertyOp7
 70
     1
102
RTVSPropertyOp8
 70
     1
102
RTVSPropertyOp9
 70
     1
102
RTVSPropertyOp10
 70
     1
102
RTVSPropertyOp11
 70
     1
102
RTVSPropertyOp12
 70
     1
102
RTVSPropertyOp13
 70
     1
102
RTVSPropertyOp14
 70
     1
102
RTVSPropertyOp15
 70
     1
102
RTVSPropertyOp16
 70
     1
102
RTVSPropertyOp17
 70
     1
102
RTVSPropertyOp18
 70
     1
102
RTVSPropertyOp19
 70
     1
102
RTVSPropertyOp20
 70
     1
102
RTVSPropertyOp21
 70
     1
102
RTVSPropertyOp22
 70
     1
102
RTVSPropertyOp23
 70
     1
102
RTVSPropertyOp24
 70
     1
102
RTVSPropertyOp25
 70
     1
102
RTVSPropertyOp26
 70
     1
102
RTVSPropertyOp27
 70
     1
102
RTVSPropertyOp28
 70
     1
102
RTVSPropertyOp29
 70
     1
102
RTVSPropertyOp30
 70
     1
102
RTVSPropertyOp31
 70
     1
102
RTVSPropertyOp32
 70
     1
102
RTVSPropertyOp33
 70
     1
102
RTVSPropertyOp34
 70
     1
102
RTVSPropertyOp35
 70
     1
102
RTVSPropertyOp36
 70
     1
102
RTVSPropertyOp37
 70
     1
102
RTVSPropertyOp38
 70
     1
102
RTVSPropertyOp39
 70
     1
102
RTVSPropertyOp40
 70
     1
102
RTVSPropertyOp41
 70
     1
102
RTVSPropertyOp42
 70
     1
102
RTVSPropertyOp43
 70
     1
102
RTVSPropertyOp44
 70
     1
102
RTVSPropertyOp45
 70
     1
102
RTVSPropertyOp46
 70
     1
102
RTVSPropertyOp47
 70
     1
102
RTVSPropertyOp48
 70
     1
102
RTVSPropertyOp49
 70
     1
102
RTVSPropertyOp50
 70
     1
102
RTVSPropertyOp51
 70
     0
102
RTVSPropertyOp52
 70
     0
102
RTVSPropertyOp53
 70
     1
102
RTVSPropertyOp54
 70
     1
102
RTVSPropertyOp55
 70
     1
102
RTVSPropertyOp56
 70
     1
102
RTVSPropertyOp57
 70
     1
102
RTVSPropertyOp58
 70
     1
102
RTVSPropertyOp59
 70
     1
102
RTVSPropertyOp60
 70
     1
102
RTVSPropertyOp61
 70
     1
102
RTVSPropertyOp62
 70
     1
  0
XRECORD
  5
7FFD
102
{ACAD_REACTORS
330
7FFC
102
}
330
7FFC
100
AcDbXrecord
280
     1
102
RTVSPost2010Prop28
280
     0
102
RTVSPost2010PropOp28
 70
     1
102
RTVSPost2010Prop29
280
     1
102
RTVSPost2010PropOp29
 70
     1
102
RTVSPost2010Prop30
280
     1
102
RTVSPost2010PropOp30
 70
     1
102
RTVSPost2010Prop31
280
     0
102
RTVSPost2010PropOp31
 70
     1
102
RTVSPost2010Prop32
280
     0
102
RTVSPost2010PropOp32
 70
     1
102
RTVSPost2010Prop33
280
     0
102
RTVSPost2010PropOp33
 70
     1
102
RTVSPost2010Prop34
280
     0
102
RTVSPost2010PropOp34
 70
     1
102
RTVSPost2010Prop35
280
     0
102
RTVSPost2010PropOp35
 70
     1
102
RTVSPost2010Prop36
280
     0
102
RTVSPost2010PropOp36
 70
     1
102
RTVSPost2010Prop37
 90
       50
102
RTVSPost2010PropOp37
 70
     1
102
RTVSPost2010Prop38
140
0.0
102
RTVSPost2010PropOp38
 70
     1
102
RTVSPost2010Prop39
140
1.0
102
RTVSPost2010PropOp39
 70
     1
102
RTVSPost2010Prop40
 90
        0
102
RTVSPost2010PropOp40
 70
     1
102
RTVSPost2010Prop41ColorIndex
 90
       18
102
RTVSPost2010Prop41ColorRGB
 90
        0
102
RTVSPost2010PropOp41
 70
     1
102
RTVSPost2010Prop42
 90
       50
102
RTVSPost2010PropOp42
 70
     1
102
RTVSPost2010Prop43
 90
        3
102
RTVSPost2010PropOp43
 70
     1
102
RTVSPost2010Prop44ColorIndex
 90
        5
102
RTVSPost2010Prop44ColorRGB
 90
      255
102
RTVSPost2010PropOp44
 70
     1
102
RTVSPost2010Prop45
280
     0
102
RTVSPost2010PropOp45
 70
     1
102
RTVSPost2010Prop46
 90
       50
102
RTVSPost2010PropOp46
 70
     1
102
RTVSPost2010Prop47
 90
       50
102
RTVSPost2010PropOp47
 70
     1
102
RTVSPost2010Prop48
 90
       50
102
RTVSPost2010PropOp48
 70
     1
102
RTVSPost2010Prop49
280
     0
102
RTVSPost2010PropOp49
 70
     1
102
RTVSPost2010Prop50
 90
       50
102
RTVSPost2010PropOp50
 70
     1
102
RTVSPost2010Prop51ColorIndex
 90
      256
102
RTVSPost2010Prop51ColorRGB
 90
-16777216
102
RTVSPost2010PropOp51
 70
     0
102
RTVSPost2010Prop52
140
1.0
102
RTVSPost2010PropOp52
 70
     0
102
RTVSPost2010Prop53
 90
        2
102
RTVSPost2010PropOp53
 70
     1
102
RTVSPost2010Prop54
  1
strokes_ogs.tif
102
RTVSPost2010PropOp54
 70
     1
102
RTVSPost2010Prop55
280
     0
102
RTVSPost2010PropOp55
 70
     1
102
RTVSPost2010Prop56
140
1.0
102
RTVSPost2010PropOp56
 70
     1
102
RTVSPost2010Prop57
140
1.0
102
RTVSPost2010PropOp57
 70
     1
102
RTVSPropertyOp0
 70
     1
102
RTVSPropertyOp1
 70
     1
102
RTVSPropertyOp2
 70
     1
102
RTVSPropertyOp3
 70
     1
102
RTVSPropertyOp4
 70
     1
102
RTVSPropertyOp5
 70
     1
102
RTVSPropertyOp6
 70
     1
102
RTVSPropertyOp7
 70
     1
102
RTVSPropertyOp8
 70
     1
102
RTVSPropertyOp9
 70
     1
102
RTVSPropertyOp10
 70
     1
102
RTVSPropertyOp11
 70
     1
102
RTVSPropertyOp12
 70
     1
102
RTVSPropertyOp13
 70
     1
102
RTVSPropertyOp14
 70
     1
102
RTVSPropertyOp15
 70
     1
102
RTVSPropertyOp16
 70
     1
102
RTVSPropertyOp17
 70
     1
102
RTVSPropertyOp18
 70
     1
102
RTVSPropertyOp19
 70
     1
102
RTVSPropertyOp20
 70
     1
102
RTVSPropertyOp21
 70
     1
102
RTVSPropertyOp22
 70
     1
102
RTVSPropertyOp23
 70
     1
102
RTVSPropertyOp24
 70
     1
102
RTVSPropertyOp25
 70
     1
102
RTVSPropertyOp26
 70
     1
102
RTVSPropertyOp27
 70
     1
102
RTVSPropertyOp28
 70
     1
102
RTVSPropertyOp29
 70
     1
102
RTVSPropertyOp30
 70
     1
102
RTVSPropertyOp31
 70
     1
102
RTVSPropertyOp32
 70
     1
102
RTVSPropertyOp33
 70
     1
102
RTVSPropertyOp34
 70
     1
102
RTVSPropertyOp35
 70
     1
102
RTVSPropertyOp36
 70
     1
102
RTVSPropertyOp37
 70
     1
102
RTVSPropertyOp38
 70
     1
102
RTVSPropertyOp39
 70
     1
102
RTVSPropertyOp40
 70
     1
102
RTVSPropertyOp41
 70
     1
102
RTVSPropertyOp42
 70
     1
102
RTVSPropertyOp43
 70
     1
102
RTVSPropertyOp44
 70
     1
102
RTVSPropertyOp45
 70
     1
102
RTVSPropertyOp46
 70
     1
102
RTVSPropertyOp47
 70
     1
102
RTVSPropertyOp48
 70
     1
102
RTVSPropertyOp49
 70
     1
102
RTVSPropertyOp50
 70
     1
102
RTVSPropertyOp51
 70
     0
102
RTVSPropertyOp52
 70
     0
102
RTVSPropertyOp53
 70
     1
102
RTVSPropertyOp54
 70
     1
102
RTVSPropertyOp55
 70
     1
102
RTVSPropertyOp56
 70
     1
102
RTVSPropertyOp57
 70
     1
102
RTVSPropertyOp58
 70
     1
102
RTVSPropertyOp59
 70
     1
102
RTVSPropertyOp60
 70
     1
102
RTVSPropertyOp61
 70
     1
102
RTVSPropertyOp62
 70
     1
  0
XRECORD
  5
7FFF
102
{ACAD_REACTORS
330
7FFE
102
}
330
7FFE
100
AcDbXrecord
280
     1
102
RTVSPost2010Prop28
280
     0
102
RTVSPost2010PropOp28
 70
     1
102
RTVSPost2010Prop29
280
     1
102
RTVSPost2010PropOp29
 70
     1
102
RTVSPost2010Prop30
280
     1
102
RTVSPost2010PropOp30
 70
     1
102
RTVSPost2010Prop31
280
     0
102
RTVSPost2010PropOp31
 70
     1
102
RTVSPost2010Prop32
280
     0
102
RTVSPost2010PropOp32
 70
     1
102
RTVSPost2010Prop33
280
     0
102
RTVSPost2010PropOp33
 70
     1
102
RTVSPost2010Prop34
280
     0
102
RTVSPost2010PropOp34
 70
     1
102
RTVSPost2010Prop35
280
     0
102
RTVSPost2010PropOp35
 70
     1
102
RTVSPost2010Prop36
280
     0
102
RTVSPost2010PropOp36
 70
     1
102
RTVSPost2010Prop37
 90
       50
102
RTVSPost2010PropOp37
 70
     1
102
RTVSPost2010Prop38
140
0.0
102
RTVSPost2010PropOp38
 70
     1
102
RTVSPost2010Prop39
140
1.0
102
RTVSPost2010PropOp39
 70
     1
102
RTVSPost2010Prop40
 90
        0
102
RTVSPost2010PropOp40
 70
     1
102
RTVSPost2010Prop41ColorIndex
 90
       18
102
RTVSPost2010Prop41ColorRGB
 90
        0
102
RTVSPost2010PropOp41
 70
     1
102
RTVSPost2010Prop42
 90
       50
102
RTVSPost2010PropOp42
 70
     1
102
RTVSPost2010Prop43
 90
        3
102
RTVSPost2010PropOp43
 70
     1
102
RTVSPost2010Prop44ColorIndex
 90
        5
102
RTVSPost2010Prop44ColorRGB
 90
      255
102
RTVSPost2010PropOp44
 70
     1
102
RTVSPost2010Prop45
280
     0
102
RTVSPost2010PropOp45
 70
     1
102
RTVSPost2010Prop46
 90
       50
102
RTVSPost2010PropOp46
 70
     1
102
RTVSPost2010Prop47
 90
       50
102
RTVSPost2010PropOp47
 70
     1
102
RTVSPost2010Prop48
 90
       50
102
RTVSPost2010PropOp48
 70
     1
102
RTVSPost2010Prop49
280
     0
102
RTVSPost2010PropOp49
 70
     1
102
RTVSPost2010Prop50
 90
       50
102
RTVSPost2010PropOp50
 70
     1
102
RTVSPost2010Prop51ColorIndex
 90
      256
102
RTVSPost2010Prop51ColorRGB
 90
-16777216
102
RTVSPost2010PropOp51
 70
     0
102
RTVSPost2010Prop52
140
1.0
102
RTVSPost2010PropOp52
 70
     0
102
RTVSPost2010Prop53
 90
        2
102
RTVSPost2010PropOp53
 70
     1
102
RTVSPost2010Prop54
  1
strokes_ogs.tif
102
RTVSPost2010PropOp54
 70
     1
102
RTVSPost2010Prop55
280
     0
102
RTVSPost2010PropOp55
 70
     1
102
RTVSPost2010Prop56
140
1.0
102
RTVSPost2010PropOp56
 70
     1
102
RTVSPost2010Prop57
140
1.0
102
RTVSPost2010PropOp57
 70
     1
102
RTVSPropertyOp0
 70
     1
102
RTVSPropertyOp1
 70
     1
102
RTVSPropertyOp2
 70
     1
102
RTVSPropertyOp3
 70
     1
102
RTVSPropertyOp4
 70
     1
102
RTVSPropertyOp5
 70
     1
102
RTVSPropertyOp6
 70
     1
102
RTVSPropertyOp7
 70
     1
102
RTVSPropertyOp8
 70
     1
102
RTVSPropertyOp9
 70
     1
102
RTVSPropertyOp10
 70
     1
102
RTVSPropertyOp11
 70
     1
102
RTVSPropertyOp12
 70
     1
102
RTVSPropertyOp13
 70
     1
102
RTVSPropertyOp14
 70
     1
102
RTVSPropertyOp15
 70
     1
102
RTVSPropertyOp16
 70
     1
102
RTVSPropertyOp17
 70
     1
102
RTVSPropertyOp18
 70
     1
102
RTVSPropertyOp19
 70
     1
102
RTVSPropertyOp20
 70
     1
102
RTVSPropertyOp21
 70
     1
102
RTVSPropertyOp22
 70
     1
102
RTVSPropertyOp23
 70
     1
102
RTVSPropertyOp24
 70
     1
102
RTVSPropertyOp25
 70
     1
102
RTVSPropertyOp26
 70
     1
102
RTVSPropertyOp27
 70
     1
102
RTVSPropertyOp28
 70
     1
102
RTVSPropertyOp29
 70
     1
102
RTVSPropertyOp30
 70
     1
102
RTVSPropertyOp31
 70
     1
102
RTVSPropertyOp32
 70
     1
102
RTVSPropertyOp33
 70
     1
102
RTVSPropertyOp34
 70
     1
102
RTVSPropertyOp35
 70
     1
102
RTVSPropertyOp36
 70
     1
102
RTVSPropertyOp37
 70
     1
102
RTVSPropertyOp38
 70
     1
102
RTVSPropertyOp39
 70
     1
102
RTVSPropertyOp40
 70
     1
102
RTVSPropertyOp41
 70
     1
102
RTVSPropertyOp42
 70
     1
102
RTVSPropertyOp43
 70
     1
102
RTVSPropertyOp44
 70
     1
102
RTVSPropertyOp45
 70
     1
102
RTVSPropertyOp46
 70
     1
102
RTVSPropertyOp47
 70
     1
102
RTVSPropertyOp48
 70
     1
102
RTVSPropertyOp49
 70
     1
102
RTVSPropertyOp50
 70
     1
102
RTVSPropertyOp51
 70
     0
102
RTVSPropertyOp52
 70
     0
102
RTVSPropertyOp53
 70
     1
102
RTVSPropertyOp54
 70
     1
102
RTVSPropertyOp55
 70
     1
102
RTVSPropertyOp56
 70
     1
102
RTVSPropertyOp57
 70
     1
102
RTVSPropertyOp58
 70
     1
102
RTVSPropertyOp59
 70
     1
102
RTVSPropertyOp60
 70
     1
102
RTVSPropertyOp61
 70
     1
102
RTVSPropertyOp62
 70
     1
  0
XRECORD
  5
8001
102
{ACAD_REACTORS
330
8000
102
}
330
8000
100
AcDbXrecord
280
     1
102
RTVSPost2010Prop28
280
     0
102
RTVSPost2010PropOp28
 70
     1
102
RTVSPost2010Prop29
280
     1
102
RTVSPost2010PropOp29
 70
     1
102
RTVSPost2010Prop30
280
     1
102
RTVSPost2010PropOp30
 70
     1
102
RTVSPost2010Prop31
280
     0
102
RTVSPost2010PropOp31
 70
     1
102
RTVSPost2010Prop32
280
     0
102
RTVSPost2010PropOp32
 70
     1
102
RTVSPost2010Prop33
280
     0
102
RTVSPost2010PropOp33
 70
     1
102
RTVSPost2010Prop34
280
     0
102
RTVSPost2010PropOp34
 70
     1
102
RTVSPost2010Prop35
280
     0
102
RTVSPost2010PropOp35
 70
     1
102
RTVSPost2010Prop36
280
     0
102
RTVSPost2010PropOp36
 70
     1
102
RTVSPost2010Prop37
 90
       50
102
RTVSPost2010PropOp37
 70
     1
102
RTVSPost2010Prop38
140
0.0
102
RTVSPost2010PropOp38
 70
     1
102
RTVSPost2010Prop39
140
1.0
102
RTVSPost2010PropOp39
 70
     1
102
RTVSPost2010Prop40
 90
        0
102
RTVSPost2010PropOp40
 70
     1
102
RTVSPost2010Prop41ColorIndex
 90
       18
102
RTVSPost2010Prop41ColorRGB
 90
        0
102
RTVSPost2010PropOp41
 70
     1
102
RTVSPost2010Prop42
 90
       50
102
RTVSPost2010PropOp42
 70
     1
102
RTVSPost2010Prop43
 90
        3
102
RTVSPost2010PropOp43
 70
     1
102
RTVSPost2010Prop44ColorIndex
 90
        5
102
RTVSPost2010Prop44ColorRGB
 90
      255
102
RTVSPost2010PropOp44
 70
     1
102
RTVSPost2010Prop45
280
     0
102
RTVSPost2010PropOp45
 70
     1
102
RTVSPost2010Prop46
 90
       50
102
RTVSPost2010PropOp46
 70
     1
102
RTVSPost2010Prop47
 90
       50
102
RTVSPost2010PropOp47
 70
     1
102
RTVSPost2010Prop48
 90
       50
102
RTVSPost2010PropOp48
 70
     1
102
RTVSPost2010Prop49
280
     0
102
RTVSPost2010PropOp49
 70
     1
102
RTVSPost2010Prop50
 90
       50
102
RTVSPost2010PropOp50
 70
     1
102
RTVSPost2010Prop51ColorIndex
 90
      256
102
RTVSPost2010Prop51ColorRGB
 90
-16777216
102
RTVSPost2010PropOp51
 70
     0
102
RTVSPost2010Prop52
140
1.0
102
RTVSPost2010PropOp52
 70
     0
102
RTVSPost2010Prop53
 90
        2
102
RTVSPost2010PropOp53
 70
     1
102
RTVSPost2010Prop54
  1
strokes_ogs.tif
102
RTVSPost2010PropOp54
 70
     1
102
RTVSPost2010Prop55
280
     0
102
RTVSPost2010PropOp55
 70
     1
102
RTVSPost2010Prop56
140
1.0
102
RTVSPost2010PropOp56
 70
     1
102
RTVSPost2010Prop57
140
1.0
102
RTVSPost2010PropOp57
 70
     1
102
RTVSPropertyOp0
 70
     1
102
RTVSPropertyOp1
 70
     1
102
RTVSPropertyOp2
 70
     1
102
RTVSPropertyOp3
 70
     1
102
RTVSPropertyOp4
 70
     1
102
RTVSPropertyOp5
 70
     1
102
RTVSPropertyOp6
 70
     1
102
RTVSPropertyOp7
 70
     1
102
RTVSPropertyOp8
 70
     1
102
RTVSPropertyOp9
 70
     1
102
RTVSPropertyOp10
 70
     1
102
RTVSPropertyOp11
 70
     1
102
RTVSPropertyOp12
 70
     1
102
RTVSPropertyOp13
 70
     1
102
RTVSPropertyOp14
 70
     1
102
RTVSPropertyOp15
 70
     1
102
RTVSPropertyOp16
 70
     1
102
RTVSPropertyOp17
 70
     1
102
RTVSPropertyOp18
 70
     1
102
RTVSPropertyOp19
 70
     1
102
RTVSPropertyOp20
 70
     1
102
RTVSPropertyOp21
 70
     1
102
RTVSPropertyOp22
 70
     1
102
RTVSPropertyOp23
 70
     1
102
RTVSPropertyOp24
 70
     1
102
RTVSPropertyOp25
 70
     1
102
RTVSPropertyOp26
 70
     1
102
RTVSPropertyOp27
 70
     1
102
RTVSPropertyOp28
 70
     1
102
RTVSPropertyOp29
 70
     1
102
RTVSPropertyOp30
 70
     1
102
RTVSPropertyOp31
 70
     1
102
RTVSPropertyOp32
 70
     1
102
RTVSPropertyOp33
 70
     1
102
RTVSPropertyOp34
 70
     1
102
RTVSPropertyOp35
 70
     1
102
RTVSPropertyOp36
 70
     1
102
RTVSPropertyOp37
 70
     1
102
RTVSPropertyOp38
 70
     1
102
RTVSPropertyOp39
 70
     1
102
RTVSPropertyOp40
 70
     1
102
RTVSPropertyOp41
 70
     1
102
RTVSPropertyOp42
 70
     1
102
RTVSPropertyOp43
 70
     1
102
RTVSPropertyOp44
 70
     1
102
RTVSPropertyOp45
 70
     1
102
RTVSPropertyOp46
 70
     1
102
RTVSPropertyOp47
 70
     1
102
RTVSPropertyOp48
 70
     1
102
RTVSPropertyOp49
 70
     1
102
RTVSPropertyOp50
 70
     1
102
RTVSPropertyOp51
 70
     0
102
RTVSPropertyOp52
 70
     0
102
RTVSPropertyOp53
 70
     1
102
RTVSPropertyOp54
 70
     1
102
RTVSPropertyOp55
 70
     1
102
RTVSPropertyOp56
 70
     1
102
RTVSPropertyOp57
 70
     1
102
RTVSPropertyOp58
 70
     1
102
RTVSPropertyOp59
 70
     1
102
RTVSPropertyOp60
 70
     1
102
RTVSPropertyOp61
 70
     1
102
RTVSPropertyOp62
 70
     1
  0
XRECORD
  5
801F
102
{ACAD_REACTORS
330
801E
102
}
330
801E
100
AcDbXrecord
280
     1
102
RTVSPost2010Prop28
280
     0
102
RTVSPost2010PropOp28
 70
     1
102
RTVSPost2010Prop29
280
     1
102
RTVSPost2010PropOp29
 70
     1
102
RTVSPost2010Prop30
280
     1
102
RTVSPost2010PropOp30
 70
     1
102
RTVSPost2010Prop31
280
     0
102
RTVSPost2010PropOp31
 70
     1
102
RTVSPost2010Prop32
280
     0
102
RTVSPost2010PropOp32
 70
     1
102
RTVSPost2010Prop33
280
     0
102
RTVSPost2010PropOp33
 70
     1
102
RTVSPost2010Prop34
280
     0
102
RTVSPost2010PropOp34
 70
     1
102
RTVSPost2010Prop35
280
     0
102
RTVSPost2010PropOp35
 70
     1
102
RTVSPost2010Prop36
280
     0
102
RTVSPost2010PropOp36
 70
     1
102
RTVSPost2010Prop37
 90
       50
102
RTVSPost2010PropOp37
 70
     1
102
RTVSPost2010Prop38
140
0.0
102
RTVSPost2010PropOp38
 70
     1
102
RTVSPost2010Prop39
140
1.0
102
RTVSPost2010PropOp39
 70
     1
102
RTVSPost2010Prop40
 90
        0
102
RTVSPost2010PropOp40
 70
     1
102
RTVSPost2010Prop41ColorIndex
 90
       18
102
RTVSPost2010Prop41ColorRGB
 90
        0
102
RTVSPost2010PropOp41
 70
     1
102
RTVSPost2010Prop42
 90
       50
102
RTVSPost2010PropOp42
 70
     1
102
RTVSPost2010Prop43
 90
        3
102
RTVSPost2010PropOp43
 70
     1
102
RTVSPost2010Prop44ColorIndex
 90
        5
102
RTVSPost2010Prop44ColorRGB
 90
      255
102
RTVSPost2010PropOp44
 70
     1
102
RTVSPost2010Prop45
280
     0
102
RTVSPost2010PropOp45
 70
     1
102
RTVSPost2010Prop46
 90
       50
102
RTVSPost2010PropOp46
 70
     1
102
RTVSPost2010Prop47
 90
       50
102
RTVSPost2010PropOp47
 70
     1
102
RTVSPost2010Prop48
 90
       50
102
RTVSPost2010PropOp48
 70
     1
102
RTVSPost2010Prop49
280
     0
102
RTVSPost2010PropOp49
 70
     1
102
RTVSPost2010Prop50
 90
       50
102
RTVSPost2010PropOp50
 70
     1
102
RTVSPost2010Prop51ColorIndex
 90
      256
102
RTVSPost2010Prop51ColorRGB
 90
-16777216
102
RTVSPost2010PropOp51
 70
     0
102
RTVSPost2010Prop52
140
1.0
102
RTVSPost2010PropOp52
 70
     0
102
RTVSPost2010Prop53
 90
        2
102
RTVSPost2010PropOp53
 70
     1
102
RTVSPost2010Prop54
  1
strokes_ogs.tif
102
RTVSPost2010PropOp54
 70
     1
102
RTVSPost2010Prop55
280
     0
102
RTVSPost2010PropOp55
 70
     1
102
RTVSPost2010Prop56
140
1.0
102
RTVSPost2010PropOp56
 70
     1
102
RTVSPost2010Prop57
140
1.0
102
RTVSPost2010PropOp57
 70
     1
102
RTVSPropertyOp0
 70
     1
102
RTVSPropertyOp1
 70
     1
102
RTVSPropertyOp2
 70
     1
102
RTVSPropertyOp3
 70
     1
102
RTVSPropertyOp4
 70
     1
102
RTVSPropertyOp5
 70
     1
102
RTVSPropertyOp6
 70
     1
102
RTVSPropertyOp7
 70
     1
102
RTVSPropertyOp8
 70
     1
102
RTVSPropertyOp9
 70
     1
102
RTVSPropertyOp10
 70
     1
102
RTVSPropertyOp11
 70
     1
102
RTVSPropertyOp12
 70
     1
102
RTVSPropertyOp13
 70
     1
102
RTVSPropertyOp14
 70
     1
102
RTVSPropertyOp15
 70
     1
102
RTVSPropertyOp16
 70
     1
102
RTVSPropertyOp17
 70
     1
102
RTVSPropertyOp18
 70
     1
102
RTVSPropertyOp19
 70
     1
102
RTVSPropertyOp20
 70
     1
102
RTVSPropertyOp21
 70
     1
102
RTVSPropertyOp22
 70
     1
102
RTVSPropertyOp23
 70
     1
102
RTVSPropertyOp24
 70
     1
102
RTVSPropertyOp25
 70
     1
102
RTVSPropertyOp26
 70
     1
102
RTVSPropertyOp27
 70
     1
102
RTVSPropertyOp28
 70
     1
102
RTVSPropertyOp29
 70
     1
102
RTVSPropertyOp30
 70
     1
102
RTVSPropertyOp31
 70
     1
102
RTVSPropertyOp32
 70
     1
102
RTVSPropertyOp33
 70
     1
102
RTVSPropertyOp34
 70
     1
102
RTVSPropertyOp35
 70
     1
102
RTVSPropertyOp36
 70
     1
102
RTVSPropertyOp37
 70
     1
102
RTVSPropertyOp38
 70
     1
102
RTVSPropertyOp39
 70
     1
102
RTVSPropertyOp40
 70
     1
102
RTVSPropertyOp41
 70
     1
102
RTVSPropertyOp42
 70
     1
102
RTVSPropertyOp43
 70
     1
102
RTVSPropertyOp44
 70
     1
102
RTVSPropertyOp45
 70
     1
102
RTVSPropertyOp46
 70
     1
102
RTVSPropertyOp47
 70
     1
102
RTVSPropertyOp48
 70
     1
102
RTVSPropertyOp49
 70
     1
102
RTVSPropertyOp50
 70
     1
102
RTVSPropertyOp51
 70
     0
102
RTVSPropertyOp52
 70
     0
102
RTVSPropertyOp53
 70
     1
102
RTVSPropertyOp54
 70
     1
102
RTVSPropertyOp55
 70
     1
102
RTVSPropertyOp56
 70
     1
102
RTVSPropertyOp57
 70
     1
102
RTVSPropertyOp58
 70
     1
102
RTVSPropertyOp59
 70
     1
102
RTVSPropertyOp60
 70
     1
102
RTVSPropertyOp61
 70
     1
102
RTVSPropertyOp62
 70
     1
  0
XRECORD
  5
802B
102
{ACAD_REACTORS
330
802A
102
}
330
802A
100
AcDbXrecord
280
     1
102
RTVSPost2010Prop28
280
     0
102
RTVSPost2010PropOp28
 70
     0
102
RTVSPost2010Prop29
280
     1
102
RTVSPost2010PropOp29
 70
     0
102
RTVSPost2010Prop30
280
     1
102
RTVSPost2010PropOp30
 70
     0
102
RTVSPost2010Prop31
280
     0
102
RTVSPost2010PropOp31
 70
     0
102
RTVSPost2010Prop32
280
     0
102
RTVSPost2010PropOp32
 70
     0
102
RTVSPost2010Prop33
280
     0
102
RTVSPost2010PropOp33
 70
     0
102
RTVSPost2010Prop34
280
     0
102
RTVSPost2010PropOp34
 70
     0
102
RTVSPost2010Prop35
280
     0
102
RTVSPost2010PropOp35
 70
     0
102
RTVSPost2010Prop36
280
     0
102
RTVSPost2010PropOp36
 70
     0
102
RTVSPost2010Prop37
 90
       50
102
RTVSPost2010PropOp37
 70
     0
102
RTVSPost2010Prop38
140
0.0
102
RTVSPost2010PropOp38
 70
     0
102
RTVSPost2010Prop39
140
1.0
102
RTVSPost2010PropOp39
 70
     0
102
RTVSPost2010Prop40
 90
        0
102
RTVSPost2010PropOp40
 70
     0
102
RTVSPost2010Prop41ColorIndex
 90
       18
102
RTVSPost2010Prop41ColorRGB
 90
        0
102
RTVSPost2010PropOp41
 70
     0
102
RTVSPost2010Prop42
 90
       50
102
RTVSPost2010PropOp42
 70
     0
102
RTVSPost2010Prop43
 90
        3
102
RTVSPost2010PropOp43
 70
     0
102
RTVSPost2010Prop44ColorIndex
 90
        5
102
RTVSPost2010Prop44ColorRGB
 90
      255
102
RTVSPost2010PropOp44
 70
     0
102
RTVSPost2010Prop45
280
     0
102
RTVSPost2010PropOp45
 70
     0
102
RTVSPost2010Prop46
 90
       50
102
RTVSPost2010PropOp46
 70
     0
102
RTVSPost2010Prop47
 90
       50
102
RTVSPost2010PropOp47
 70
     0
102
RTVSPost2010Prop48
 90
       50
102
RTVSPost2010PropOp48
 70
     0
102
RTVSPost2010Prop49
280
     0
102
RTVSPost2010PropOp49
 70
     0
102
RTVSPost2010Prop50
 90
       50
102
RTVSPost2010PropOp50
 70
     0
102
RTVSPost2010Prop51ColorIndex
 90
      256
102
RTVSPost2010Prop51ColorRGB
 90
-16777216
102
RTVSPost2010PropOp51
 70
     0
102
RTVSPost2010Prop52
140
1.0
102
RTVSPost2010PropOp52
 70
     0
102
RTVSPost2010Prop53
 90
        2
102
RTVSPost2010PropOp53
 70
     0
102
RTVSPost2010Prop54
  1
strokes_ogs.tif
102
RTVSPost2010PropOp54
 70
     0
102
RTVSPost2010Prop55
280
     0
102
RTVSPost2010PropOp55
 70
     0
102
RTVSPost2010Prop56
140
1.0
102
RTVSPost2010PropOp56
 70
     0
102
RTVSPost2010Prop57
140
1.0
102
RTVSPost2010PropOp57
 70
     0
102
RTVSPropertyOp0
 70
     0
102
RTVSPropertyOp1
 70
     0
102
RTVSPropertyOp2
 70
     0
102
RTVSPropertyOp3
 70
     0
102
RTVSPropertyOp4
 70
     0
102
RTVSPropertyOp5
 70
     0
102
RTVSPropertyOp6
 70
     0
102
RTVSPropertyOp7
 70
     0
102
RTVSPropertyOp8
 70
     0
102
RTVSPropertyOp9
 70
     0
102
RTVSPropertyOp10
 70
     0
102
RTVSPropertyOp11
 70
     0
102
RTVSPropertyOp12
 70
     0
102
RTVSPropertyOp13
 70
     0
102
RTVSPropertyOp14
 70
     2
102
RTVSPropertyOp15
 70
     0
102
RTVSPropertyOp16
 70
     0
102
RTVSPropertyOp17
 70
     0
102
RTVSPropertyOp18
 70
     0
102
RTVSPropertyOp19
 70
     0
102
RTVSPropertyOp20
 70
     0
102
RTVSPropertyOp21
 70
     0
102
RTVSPropertyOp22
 70
     0
102
RTVSPropertyOp23
 70
     0
102
RTVSPropertyOp24
 70
     0
102
RTVSPropertyOp25
 70
     0
102
RTVSPropertyOp26
 70
     0
102
RTVSPropertyOp27
 70
     0
102
RTVSPropertyOp28
 70
     0
102
RTVSPropertyOp29
 70
     0
102
RTVSPropertyOp30
 70
     0
102
RTVSPropertyOp31
 70
     0
102
RTVSPropertyOp32
 70
     0
102
RTVSPropertyOp33
 70
     0
102
RTVSPropertyOp34
 70
     0
102
RTVSPropertyOp35
 70
     0
102
RTVSPropertyOp36
 70
     0
102
RTVSPropertyOp37
 70
     0
102
RTVSPropertyOp38
 70
     0
102
RTVSPropertyOp39
 70
     0
102
RTVSPropertyOp40
 70
     0
102
RTVSPropertyOp41
 70
     0
102
RTVSPropertyOp42
 70
     0
102
RTVSPropertyOp43
 70
     0
102
RTVSPropertyOp44
 70
     0
102
RTVSPropertyOp45
 70
     0
102
RTVSPropertyOp46
 70
     0
102
RTVSPropertyOp47
 70
     0
102
RTVSPropertyOp48
 70
     0
102
RTVSPropertyOp49
 70
     0
102
RTVSPropertyOp50
 70
     0
102
RTVSPropertyOp51
 70
     0
102
RTVSPropertyOp52
 70
     0
102
RTVSPropertyOp53
 70
     0
102
RTVSPropertyOp54
 70
     0
102
RTVSPropertyOp55
 70
     0
102
RTVSPropertyOp56
 70
     0
102
RTVSPropertyOp57
 70
     0
102
RTVSPropertyOp58
 70
     0
102
RTVSPropertyOp59
 70
     0
102
RTVSPropertyOp60
 70
     0
102
RTVSPropertyOp61
 70
     0
102
RTVSPropertyOp62
 70
     0
  0
XRECORD
  5
8015
102
{ACAD_REACTORS
330
8014
102
}
330
8014
100
AcDbXrecord
280
     1
102
RTVSPost2010Prop28
280
     0
102
RTVSPost2010PropOp28
 70
     1
102
RTVSPost2010Prop29
280
     1
102
RTVSPost2010PropOp29
 70
     1
102
RTVSPost2010Prop30
280
     1
102
RTVSPost2010PropOp30
 70
     1
102
RTVSPost2010Prop31
280
     0
102
RTVSPost2010PropOp31
 70
     1
102
RTVSPost2010Prop32
280
     0
102
RTVSPost2010PropOp32
 70
     1
102
RTVSPost2010Prop33
280
     0
102
RTVSPost2010PropOp33
 70
     1
102
RTVSPost2010Prop34
280
     0
102
RTVSPost2010PropOp34
 70
     1
102
RTVSPost2010Prop35
280
     0
102
RTVSPost2010PropOp35
 70
     1
102
RTVSPost2010Prop36
280
     0
102
RTVSPost2010PropOp36
 70
     1
102
RTVSPost2010Prop37
 90
       50
102
RTVSPost2010PropOp37
 70
     1
102
RTVSPost2010Prop38
140
0.0
102
RTVSPost2010PropOp38
 70
     1
102
RTVSPost2010Prop39
140
1.0
102
RTVSPost2010PropOp39
 70
     1
102
RTVSPost2010Prop40
 90
        0
102
RTVSPost2010PropOp40
 70
     1
102
RTVSPost2010Prop41ColorIndex
 90
       18
102
RTVSPost2010Prop41ColorRGB
 90
        0
102
RTVSPost2010PropOp41
 70
     1
102
RTVSPost2010Prop42
 90
       50
102
RTVSPost2010PropOp42
 70
     1
102
RTVSPost2010Prop43
 90
        3
102
RTVSPost2010PropOp43
 70
     1
102
RTVSPost2010Prop44ColorIndex
 90
        5
102
RTVSPost2010Prop44ColorRGB
 90
      255
102
RTVSPost2010PropOp44
 70
     1
102
RTVSPost2010Prop45
280
     0
102
RTVSPost2010PropOp45
 70
     1
102
RTVSPost2010Prop46
 90
       50
102
RTVSPost2010PropOp46
 70
     1
102
RTVSPost2010Prop47
 90
       50
102
RTVSPost2010PropOp47
 70
     1
102
RTVSPost2010Prop48
 90
       50
102
RTVSPost2010PropOp48
 70
     1
102
RTVSPost2010Prop49
280
     0
102
RTVSPost2010PropOp49
 70
     1
102
RTVSPost2010Prop50
 90
       50
102
RTVSPost2010PropOp50
 70
     1
102
RTVSPost2010Prop51ColorIndex
 90
      256
102
RTVSPost2010Prop51ColorRGB
 90
-16777216
102
RTVSPost2010PropOp51
 70
     0
102
RTVSPost2010Prop52
140
1.0
102
RTVSPost2010PropOp52
 70
     0
102
RTVSPost2010Prop53
 90
        2
102
RTVSPost2010PropOp53
 70
     1
102
RTVSPost2010Prop54
  1
strokes_ogs.tif
102
RTVSPost2010PropOp54
 70
     1
102
RTVSPost2010Prop55
280
     0
102
RTVSPost2010PropOp55
 70
     1
102
RTVSPost2010Prop56
140
1.0
102
RTVSPost2010PropOp56
 70
     1
102
RTVSPost2010Prop57
140
1.0
102
RTVSPost2010PropOp57
 70
     1
102
RTVSPropertyOp0
 70
     1
102
RTVSPropertyOp1
 70
     1
102
RTVSPropertyOp2
 70
     1
102
RTVSPropertyOp3
 70
     1
102
RTVSPropertyOp4
 70
     1
102
RTVSPropertyOp5
 70
     1
102
RTVSPropertyOp6
 70
     1
102
RTVSPropertyOp7
 70
     1
102
RTVSPropertyOp8
 70
     1
102
RTVSPropertyOp9
 70
     1
102
RTVSPropertyOp10
 70
     1
102
RTVSPropertyOp11
 70
     1
102
RTVSPropertyOp12
 70
     1
102
RTVSPropertyOp13
 70
     1
102
RTVSPropertyOp14
 70
     1
102
RTVSPropertyOp15
 70
     1
102
RTVSPropertyOp16
 70
     1
102
RTVSPropertyOp17
 70
     1
102
RTVSPropertyOp18
 70
     1
102
RTVSPropertyOp19
 70
     1
102
RTVSPropertyOp20
 70
     1
102
RTVSPropertyOp21
 70
     1
102
RTVSPropertyOp22
 70
     1
102
RTVSPropertyOp23
 70
     1
102
RTVSPropertyOp24
 70
     1
102
RTVSPropertyOp25
 70
     1
102
RTVSPropertyOp26
 70
     1
102
RTVSPropertyOp27
 70
     1
102
RTVSPropertyOp28
 70
     1
102
RTVSPropertyOp29
 70
     1
102
RTVSPropertyOp30
 70
     1
102
RTVSPropertyOp31
 70
     1
102
RTVSPropertyOp32
 70
     1
102
RTVSPropertyOp33
 70
     1
102
RTVSPropertyOp34
 70
     1
102
RTVSPropertyOp35
 70
     1
102
RTVSPropertyOp36
 70
     1
102
RTVSPropertyOp37
 70
     1
102
RTVSPropertyOp38
 70
     1
102
RTVSPropertyOp39
 70
     1
102
RTVSPropertyOp40
 70
     1
102
RTVSPropertyOp41
 70
     1
102
RTVSPropertyOp42
 70
     1
102
RTVSPropertyOp43
 70
     1
102
RTVSPropertyOp44
 70
     1
102
RTVSPropertyOp45
 70
     1
102
RTVSPropertyOp46
 70
     1
102
RTVSPropertyOp47
 70
     1
102
RTVSPropertyOp48
 70
     1
102
RTVSPropertyOp49
 70
     1
102
RTVSPropertyOp50
 70
     1
102
RTVSPropertyOp51
 70
     0
102
RTVSPropertyOp52
 70
     0
102
RTVSPropertyOp53
 70
     1
102
RTVSPropertyOp54
 70
     1
102
RTVSPropertyOp55
 70
     1
102
RTVSPropertyOp56
 70
     1
102
RTVSPropertyOp57
 70
     1
102
RTVSPropertyOp58
 70
     1
102
RTVSPropertyOp59
 70
     1
102
RTVSPropertyOp60
 70
     1
102
RTVSPropertyOp61
 70
     1
102
RTVSPropertyOp62
 70
     1
  0
XRECORD
  5
802D
102
{ACAD_REACTORS
330
802C
102
}
330
802C
100
AcDbXrecord
280
     1
102
RTVSPost2010Prop28
280
     0
102
RTVSPost2010PropOp28
 70
     0
102
RTVSPost2010Prop29
280
     1
102
RTVSPost2010PropOp29
 70
     0
102
RTVSPost2010Prop30
280
     1
102
RTVSPost2010PropOp30
 70
     0
102
RTVSPost2010Prop31
280
     0
102
RTVSPost2010PropOp31
 70
     0
102
RTVSPost2010Prop32
280
     0
102
RTVSPost2010PropOp32
 70
     0
102
RTVSPost2010Prop33
280
     0
102
RTVSPost2010PropOp33
 70
     0
102
RTVSPost2010Prop34
280
     0
102
RTVSPost2010PropOp34
 70
     0
102
RTVSPost2010Prop35
280
     0
102
RTVSPost2010PropOp35
 70
     0
102
RTVSPost2010Prop36
280
     0
102
RTVSPost2010PropOp36
 70
     0
102
RTVSPost2010Prop37
 90
       50
102
RTVSPost2010PropOp37
 70
     0
102
RTVSPost2010Prop38
140
0.0
102
RTVSPost2010PropOp38
 70
     0
102
RTVSPost2010Prop39
140
1.0
102
RTVSPost2010PropOp39
 70
     0
102
RTVSPost2010Prop40
 90
        0
102
RTVSPost2010PropOp40
 70
     0
102
RTVSPost2010Prop41ColorIndex
 90
       18
102
RTVSPost2010Prop41ColorRGB
 90
        0
102
RTVSPost2010PropOp41
 70
     0
102
RTVSPost2010Prop42
 90
       50
102
RTVSPost2010PropOp42
 70
     0
102
RTVSPost2010Prop43
 90
        3
102
RTVSPost2010PropOp43
 70
     0
102
RTVSPost2010Prop44ColorIndex
 90
        5
102
RTVSPost2010Prop44ColorRGB
 90
      255
102
RTVSPost2010PropOp44
 70
     0
102
RTVSPost2010Prop45
280
     0
102
RTVSPost2010PropOp45
 70
     0
102
RTVSPost2010Prop46
 90
       50
102
RTVSPost2010PropOp46
 70
     0
102
RTVSPost2010Prop47
 90
       50
102
RTVSPost2010PropOp47
 70
     0
102
RTVSPost2010Prop48
 90
       50
102
RTVSPost2010PropOp48
 70
     0
102
RTVSPost2010Prop49
280
     0
102
RTVSPost2010PropOp49
 70
     0
102
RTVSPost2010Prop50
 90
       50
102
RTVSPost2010PropOp50
 70
     0
102
RTVSPost2010Prop51ColorIndex
 90
      256
102
RTVSPost2010Prop51ColorRGB
 90
-16777216
102
RTVSPost2010PropOp51
 70
     0
102
RTVSPost2010Prop52
140
1.0
102
RTVSPost2010PropOp52
 70
     0
102
RTVSPost2010Prop53
 90
        2
102
RTVSPost2010PropOp53
 70
     0
102
RTVSPost2010Prop54
  1
strokes_ogs.tif
102
RTVSPost2010PropOp54
 70
     0
102
RTVSPost2010Prop55
280
     0
102
RTVSPost2010PropOp55
 70
     0
102
RTVSPost2010Prop56
140
1.0
102
RTVSPost2010PropOp56
 70
     0
102
RTVSPost2010Prop57
140
1.0
102
RTVSPost2010PropOp57
 70
     0
102
RTVSPropertyOp0
 70
     0
102
RTVSPropertyOp1
 70
     0
102
RTVSPropertyOp2
 70
     0
102
RTVSPropertyOp3
 70
     0
102
RTVSPropertyOp4
 70
     0
102
RTVSPropertyOp5
 70
     0
102
RTVSPropertyOp6
 70
     0
102
RTVSPropertyOp7
 70
     0
102
RTVSPropertyOp8
 70
     0
102
RTVSPropertyOp9
 70
     0
102
RTVSPropertyOp10
 70
     0
102
RTVSPropertyOp11
 70
     0
102
RTVSPropertyOp12
 70
     0
102
RTVSPropertyOp13
 70
     0
102
RTVSPropertyOp14
 70
     2
102
RTVSPropertyOp15
 70
     0
102
RTVSPropertyOp16
 70
     0
102
RTVSPropertyOp17
 70
     0
102
RTVSPropertyOp18
 70
     0
102
RTVSPropertyOp19
 70
     0
102
RTVSPropertyOp20
 70
     0
102
RTVSPropertyOp21
 70
     0
102
RTVSPropertyOp22
 70
     0
102
RTVSPropertyOp23
 70
     0
102
RTVSPropertyOp24
 70
     0
102
RTVSPropertyOp25
 70
     0
102
RTVSPropertyOp26
 70
     0
102
RTVSPropertyOp27
 70
     0
102
RTVSPropertyOp28
 70
     0
102
RTVSPropertyOp29
 70
     0
102
RTVSPropertyOp30
 70
     0
102
RTVSPropertyOp31
 70
     0
102
RTVSPropertyOp32
 70
     0
102
RTVSPropertyOp33
 70
     0
102
RTVSPropertyOp34
 70
     0
102
RTVSPropertyOp35
 70
     0
102
RTVSPropertyOp36
 70
     0
102
RTVSPropertyOp37
 70
     0
102
RTVSPropertyOp38
 70
     0
102
RTVSPropertyOp39
 70
     0
102
RTVSPropertyOp40
 70
     0
102
RTVSPropertyOp41
 70
     0
102
RTVSPropertyOp42
 70
     0
102
RTVSPropertyOp43
 70
     0
102
RTVSPropertyOp44
 70
     0
102
RTVSPropertyOp45
 70
     0
102
RTVSPropertyOp46
 70
     0
102
RTVSPropertyOp47
 70
     0
102
RTVSPropertyOp48
 70
     0
102
RTVSPropertyOp49
 70
     0
102
RTVSPropertyOp50
 70
     0
102
RTVSPropertyOp51
 70
     0
102
RTVSPropertyOp52
 70
     0
102
RTVSPropertyOp53
 70
     0
102
RTVSPropertyOp54
 70
     0
102
RTVSPropertyOp55
 70
     0
102
RTVSPropertyOp56
 70
     0
102
RTVSPropertyOp57
 70
     0
102
RTVSPropertyOp58
 70
     0
102
RTVSPropertyOp59
 70
     0
102
RTVSPropertyOp60
 70
     0
102
RTVSPropertyOp61
 70
     0
102
RTVSPropertyOp62
 70
     0
  0
XRECORD
  5
800D
102
{ACAD_REACTORS
330
800C
102
}
330
800C
100
AcDbXrecord
280
     1
102
RTVSPost2010Prop28
280
     0
102
RTVSPost2010PropOp28
 70
     1
102
RTVSPost2010Prop29
280
     1
102
RTVSPost2010PropOp29
 70
     1
102
RTVSPost2010Prop30
280
     1
102
RTVSPost2010PropOp30
 70
     1
102
RTVSPost2010Prop31
280
     0
102
RTVSPost2010PropOp31
 70
     1
102
RTVSPost2010Prop32
280
     0
102
RTVSPost2010PropOp32
 70
     1
102
RTVSPost2010Prop33
280
     0
102
RTVSPost2010PropOp33
 70
     1
102
RTVSPost2010Prop34
280
     0
102
RTVSPost2010PropOp34
 70
     1
102
RTVSPost2010Prop35
280
     0
102
RTVSPost2010PropOp35
 70
     1
102
RTVSPost2010Prop36
280
     0
102
RTVSPost2010PropOp36
 70
     1
102
RTVSPost2010Prop37
 90
       50
102
RTVSPost2010PropOp37
 70
     1
102
RTVSPost2010Prop38
140
0.0
102
RTVSPost2010PropOp38
 70
     1
102
RTVSPost2010Prop39
140
1.0
102
RTVSPost2010PropOp39
 70
     1
102
RTVSPost2010Prop40
 90
        0
102
RTVSPost2010PropOp40
 70
     1
102
RTVSPost2010Prop41ColorIndex
 90
       18
102
RTVSPost2010Prop41ColorRGB
 90
        0
102
RTVSPost2010PropOp41
 70
     1
102
RTVSPost2010Prop42
 90
       50
102
RTVSPost2010PropOp42
 70
     1
102
RTVSPost2010Prop43
 90
        3
102
RTVSPost2010PropOp43
 70
     1
102
RTVSPost2010Prop44ColorIndex
 90
        5
102
RTVSPost2010Prop44ColorRGB
 90
      255
102
RTVSPost2010PropOp44
 70
     1
102
RTVSPost2010Prop45
280
     0
102
RTVSPost2010PropOp45
 70
     1
102
RTVSPost2010Prop46
 90
       50
102
RTVSPost2010PropOp46
 70
     1
102
RTVSPost2010Prop47
 90
       50
102
RTVSPost2010PropOp47
 70
     1
102
RTVSPost2010Prop48
 90
       50
102
RTVSPost2010PropOp48
 70
     1
102
RTVSPost2010Prop49
280
     0
102
RTVSPost2010PropOp49
 70
     1
102
RTVSPost2010Prop50
 90
       50
102
RTVSPost2010PropOp50
 70
     1
102
RTVSPost2010Prop51ColorIndex
 90
      256
102
RTVSPost2010Prop51ColorRGB
 90
-16777216
102
RTVSPost2010PropOp51
 70
     0
102
RTVSPost2010Prop52
140
1.0
102
RTVSPost2010PropOp52
 70
     0
102
RTVSPost2010Prop53
 90
        2
102
RTVSPost2010PropOp53
 70
     1
102
RTVSPost2010Prop54
  1
strokes_ogs.tif
102
RTVSPost2010PropOp54
 70
     1
102
RTVSPost2010Prop55
280
     0
102
RTVSPost2010PropOp55
 70
     1
102
RTVSPost2010Prop56
140
1.0
102
RTVSPost2010PropOp56
 70
     1
102
RTVSPost2010Prop57
140
1.0
102
RTVSPost2010PropOp57
 70
     1
102
RTVSPropertyOp0
 70
     1
102
RTVSPropertyOp1
 70
     1
102
RTVSPropertyOp2
 70
     1
102
RTVSPropertyOp3
 70
     1
102
RTVSPropertyOp4
 70
     1
102
RTVSPropertyOp5
 70
     1
102
RTVSPropertyOp6
 70
     1
102
RTVSPropertyOp7
 70
     1
102
RTVSPropertyOp8
 70
     1
102
RTVSPropertyOp9
 70
     1
102
RTVSPropertyOp10
 70
     1
102
RTVSPropertyOp11
 70
     1
102
RTVSPropertyOp12
 70
     1
102
RTVSPropertyOp13
 70
     1
102
RTVSPropertyOp14
 70
     1
102
RTVSPropertyOp15
 70
     1
102
RTVSPropertyOp16
 70
     1
102
RTVSPropertyOp17
 70
     1
102
RTVSPropertyOp18
 70
     1
102
RTVSPropertyOp19
 70
     1
102
RTVSPropertyOp20
 70
     1
102
RTVSPropertyOp21
 70
     1
102
RTVSPropertyOp22
 70
     1
102
RTVSPropertyOp23
 70
     1
102
RTVSPropertyOp24
 70
     1
102
RTVSPropertyOp25
 70
     1
102
RTVSPropertyOp26
 70
     1
102
RTVSPropertyOp27
 70
     1
102
RTVSPropertyOp28
 70
     1
102
RTVSPropertyOp29
 70
     1
102
RTVSPropertyOp30
 70
     1
102
RTVSPropertyOp31
 70
     1
102
RTVSPropertyOp32
 70
     1
102
RTVSPropertyOp33
 70
     1
102
RTVSPropertyOp34
 70
     1
102
RTVSPropertyOp35
 70
     1
102
RTVSPropertyOp36
 70
     1
102
RTVSPropertyOp37
 70
     1
102
RTVSPropertyOp38
 70
     1
102
RTVSPropertyOp39
 70
     1
102
RTVSPropertyOp40
 70
     1
102
RTVSPropertyOp41
 70
     1
102
RTVSPropertyOp42
 70
     1
102
RTVSPropertyOp43
 70
     1
102
RTVSPropertyOp44
 70
     1
102
RTVSPropertyOp45
 70
     1
102
RTVSPropertyOp46
 70
     1
102
RTVSPropertyOp47
 70
     1
102
RTVSPropertyOp48
 70
     1
102
RTVSPropertyOp49
 70
     1
102
RTVSPropertyOp50
 70
     1
102
RTVSPropertyOp51
 70
     0
102
RTVSPropertyOp52
 70
     0
102
RTVSPropertyOp53
 70
     1
102
RTVSPropertyOp54
 70
     1
102
RTVSPropertyOp55
 70
     1
102
RTVSPropertyOp56
 70
     1
102
RTVSPropertyOp57
 70
     1
102
RTVSPropertyOp58
 70
     1
102
RTVSPropertyOp59
 70
     1
102
RTVSPropertyOp60
 70
     1
102
RTVSPropertyOp61
 70
     1
102
RTVSPropertyOp62
 70
     1
  0
XRECORD
  5
8029
102
{ACAD_REACTORS
330
8028
102
}
330
8028
100
AcDbXrecord
280
     1
102
RTVSPost2010Prop28
280
     0
102
RTVSPost2010PropOp28
 70
     1
102
RTVSPost2010Prop29
280
     1
102
RTVSPost2010PropOp29
 70
     1
102
RTVSPost2010Prop30
280
     1
102
RTVSPost2010PropOp30
 70
     1
102
RTVSPost2010Prop31
280
     0
102
RTVSPost2010PropOp31
 70
     1
102
RTVSPost2010Prop32
280
     0
102
RTVSPost2010PropOp32
 70
     1
102
RTVSPost2010Prop33
280
     0
102
RTVSPost2010PropOp33
 70
     1
102
RTVSPost2010Prop34
280
     0
102
RTVSPost2010PropOp34
 70
     1
102
RTVSPost2010Prop35
280
     0
102
RTVSPost2010PropOp35
 70
     1
102
RTVSPost2010Prop36
280
     0
102
RTVSPost2010PropOp36
 70
     1
102
RTVSPost2010Prop37
 90
       50
102
RTVSPost2010PropOp37
 70
     1
102
RTVSPost2010Prop38
140
0.0
102
RTVSPost2010PropOp38
 70
     1
102
RTVSPost2010Prop39
140
1.0
102
RTVSPost2010PropOp39
 70
     1
102
RTVSPost2010Prop40
 90
        0
102
RTVSPost2010PropOp40
 70
     1
102
RTVSPost2010Prop41ColorIndex
 90
       18
102
RTVSPost2010Prop41ColorRGB
 90
        0
102
RTVSPost2010PropOp41
 70
     1
102
RTVSPost2010Prop42
 90
       50
102
RTVSPost2010PropOp42
 70
     1
102
RTVSPost2010Prop43
 90
        3
102
RTVSPost2010PropOp43
 70
     1
102
RTVSPost2010Prop44ColorIndex
 90
        5
102
RTVSPost2010Prop44ColorRGB
 90
      255
102
RTVSPost2010PropOp44
 70
     1
102
RTVSPost2010Prop45
280
     0
102
RTVSPost2010PropOp45
 70
     1
102
RTVSPost2010Prop46
 90
       50
102
RTVSPost2010PropOp46
 70
     1
102
RTVSPost2010Prop47
 90
       50
102
RTVSPost2010PropOp47
 70
     1
102
RTVSPost2010Prop48
 90
       50
102
RTVSPost2010PropOp48
 70
     1
102
RTVSPost2010Prop49
280
     0
102
RTVSPost2010PropOp49
 70
     1
102
RTVSPost2010Prop50
 90
       50
102
RTVSPost2010PropOp50
 70
     1
102
RTVSPost2010Prop51ColorIndex
 90
      256
102
RTVSPost2010Prop51ColorRGB
 90
-16777216
102
RTVSPost2010PropOp51
 70
     0
102
RTVSPost2010Prop52
140
1.0
102
RTVSPost2010PropOp52
 70
     0
102
RTVSPost2010Prop53
 90
        2
102
RTVSPost2010PropOp53
 70
     1
102
RTVSPost2010Prop54
  1
strokes_ogs.tif
102
RTVSPost2010PropOp54
 70
     1
102
RTVSPost2010Prop55
280
     0
102
RTVSPost2010PropOp55
 70
     1
102
RTVSPost2010Prop56
140
1.0
102
RTVSPost2010PropOp56
 70
     1
102
RTVSPost2010Prop57
140
1.0
102
RTVSPost2010PropOp57
 70
     1
102
RTVSPropertyOp0
 70
     1
102
RTVSPropertyOp1
 70
     1
102
RTVSPropertyOp2
 70
     1
102
RTVSPropertyOp3
 70
     1
102
RTVSPropertyOp4
 70
     1
102
RTVSPropertyOp5
 70
     1
102
RTVSPropertyOp6
 70
     1
102
RTVSPropertyOp7
 70
     1
102
RTVSPropertyOp8
 70
     1
102
RTVSPropertyOp9
 70
     1
102
RTVSPropertyOp10
 70
     1
102
RTVSPropertyOp11
 70
     1
102
RTVSPropertyOp12
 70
     1
102
RTVSPropertyOp13
 70
     1
102
RTVSPropertyOp14
 70
     1
102
RTVSPropertyOp15
 70
     1
102
RTVSPropertyOp16
 70
     1
102
RTVSPropertyOp17
 70
     1
102
RTVSPropertyOp18
 70
     1
102
RTVSPropertyOp19
 70
     1
102
RTVSPropertyOp20
 70
     1
102
RTVSPropertyOp21
 70
     1
102
RTVSPropertyOp22
 70
     1
102
RTVSPropertyOp23
 70
     1
102
RTVSPropertyOp24
 70
     1
102
RTVSPropertyOp25
 70
     1
102
RTVSPropertyOp26
 70
     1
102
RTVSPropertyOp27
 70
     1
102
RTVSPropertyOp28
 70
     1
102
RTVSPropertyOp29
 70
     1
102
RTVSPropertyOp30
 70
     1
102
RTVSPropertyOp31
 70
     1
102
RTVSPropertyOp32
 70
     1
102
RTVSPropertyOp33
 70
     1
102
RTVSPropertyOp34
 70
     1
102
RTVSPropertyOp35
 70
     1
102
RTVSPropertyOp36
 70
     1
102
RTVSPropertyOp37
 70
     1
102
RTVSPropertyOp38
 70
     1
102
RTVSPropertyOp39
 70
     1
102
RTVSPropertyOp40
 70
     1
102
RTVSPropertyOp41
 70
     1
102
RTVSPropertyOp42
 70
     1
102
RTVSPropertyOp43
 70
     1
102
RTVSPropertyOp44
 70
     1
102
RTVSPropertyOp45
 70
     1
102
RTVSPropertyOp46
 70
     1
102
RTVSPropertyOp47
 70
     1
102
RTVSPropertyOp48
 70
     1
102
RTVSPropertyOp49
 70
     1
102
RTVSPropertyOp50
 70
     1
102
RTVSPropertyOp51
 70
     0
102
RTVSPropertyOp52
 70
     0
102
RTVSPropertyOp53
 70
     1
102
RTVSPropertyOp54
 70
     1
102
RTVSPropertyOp55
 70
     1
102
RTVSPropertyOp56
 70
     1
102
RTVSPropertyOp57
 70
     1
102
RTVSPropertyOp58
 70
     1
102
RTVSPropertyOp59
 70
     1
102
RTVSPropertyOp60
 70
     1
102
RTVSPropertyOp61
 70
     1
102
RTVSPropertyOp62
 70
     1
  0
XRECORD
  5
8027
102
{ACAD_REACTORS
330
8026
102
}
330
8026
100
AcDbXrecord
280
     1
102
RTVSPost2010Prop28
280
     0
102
RTVSPost2010PropOp28
 70
     1
102
RTVSPost2010Prop29
280
     1
102
RTVSPost2010PropOp29
 70
     1
102
RTVSPost2010Prop30
280
     1
102
RTVSPost2010PropOp30
 70
     1
102
RTVSPost2010Prop31
280
     0
102
RTVSPost2010PropOp31
 70
     1
102
RTVSPost2010Prop32
280
     0
102
RTVSPost2010PropOp32
 70
     1
102
RTVSPost2010Prop33
280
     0
102
RTVSPost2010PropOp33
 70
     1
102
RTVSPost2010Prop34
280
     0
102
RTVSPost2010PropOp34
 70
     1
102
RTVSPost2010Prop35
280
     0
102
RTVSPost2010PropOp35
 70
     1
102
RTVSPost2010Prop36
280
     0
102
RTVSPost2010PropOp36
 70
     1
102
RTVSPost2010Prop37
 90
       50
102
RTVSPost2010PropOp37
 70
     1
102
RTVSPost2010Prop38
140
0.0
102
RTVSPost2010PropOp38
 70
     1
102
RTVSPost2010Prop39
140
1.0
102
RTVSPost2010PropOp39
 70
     1
102
RTVSPost2010Prop40
 90
        0
102
RTVSPost2010PropOp40
 70
     1
102
RTVSPost2010Prop41ColorIndex
 90
       18
102
RTVSPost2010Prop41ColorRGB
 90
        0
102
RTVSPost2010PropOp41
 70
     1
102
RTVSPost2010Prop42
 90
       50
102
RTVSPost2010PropOp42
 70
     1
102
RTVSPost2010Prop43
 90
        3
102
RTVSPost2010PropOp43
 70
     1
102
RTVSPost2010Prop44ColorIndex
 90
        5
102
RTVSPost2010Prop44ColorRGB
 90
      255
102
RTVSPost2010PropOp44
 70
     1
102
RTVSPost2010Prop45
280
     0
102
RTVSPost2010PropOp45
 70
     1
102
RTVSPost2010Prop46
 90
       50
102
RTVSPost2010PropOp46
 70
     1
102
RTVSPost2010Prop47
 90
       50
102
RTVSPost2010PropOp47
 70
     1
102
RTVSPost2010Prop48
 90
       50
102
RTVSPost2010PropOp48
 70
     1
102
RTVSPost2010Prop49
280
     0
102
RTVSPost2010PropOp49
 70
     1
102
RTVSPost2010Prop50
 90
       50
102
RTVSPost2010PropOp50
 70
     1
102
RTVSPost2010Prop51ColorIndex
 90
      256
102
RTVSPost2010Prop51ColorRGB
 90
-16777216
102
RTVSPost2010PropOp51
 70
     0
102
RTVSPost2010Prop52
140
1.0
102
RTVSPost2010PropOp52
 70
     0
102
RTVSPost2010Prop53
 90
        2
102
RTVSPost2010PropOp53
 70
     1
102
RTVSPost2010Prop54
  1
strokes_ogs.tif
102
RTVSPost2010PropOp54
 70
     1
102
RTVSPost2010Prop55
280
     0
102
RTVSPost2010PropOp55
 70
     1
102
RTVSPost2010Prop56
140
1.0
102
RTVSPost2010PropOp56
 70
     1
102
RTVSPost2010Prop57
140
1.0
102
RTVSPost2010PropOp57
 70
     1
102
RTVSPropertyOp0
 70
     1
102
RTVSPropertyOp1
 70
     1
102
RTVSPropertyOp2
 70
     1
102
RTVSPropertyOp3
 70
     1
102
RTVSPropertyOp4
 70
     1
102
RTVSPropertyOp5
 70
     1
102
RTVSPropertyOp6
 70
     1
102
RTVSPropertyOp7
 70
     1
102
RTVSPropertyOp8
 70
     1
102
RTVSPropertyOp9
 70
     1
102
RTVSPropertyOp10
 70
     1
102
RTVSPropertyOp11
 70
     1
102
RTVSPropertyOp12
 70
     1
102
RTVSPropertyOp13
 70
     1
102
RTVSPropertyOp14
 70
     1
102
RTVSPropertyOp15
 70
     1
102
RTVSPropertyOp16
 70
     1
102
RTVSPropertyOp17
 70
     1
102
RTVSPropertyOp18
 70
     1
102
RTVSPropertyOp19
 70
     1
102
RTVSPropertyOp20
 70
     1
102
RTVSPropertyOp21
 70
     1
102
RTVSPropertyOp22
 70
     1
102
RTVSPropertyOp23
 70
     1
102
RTVSPropertyOp24
 70
     1
102
RTVSPropertyOp25
 70
     1
102
RTVSPropertyOp26
 70
     1
102
RTVSPropertyOp27
 70
     1
102
RTVSPropertyOp28
 70
     1
102
RTVSPropertyOp29
 70
     1
102
RTVSPropertyOp30
 70
     1
102
RTVSPropertyOp31
 70
     1
102
RTVSPropertyOp32
 70
     1
102
RTVSPropertyOp33
 70
     1
102
RTVSPropertyOp34
 70
     1
102
RTVSPropertyOp35
 70
     1
102
RTVSPropertyOp36
 70
     1
102
RTVSPropertyOp37
 70
     1
102
RTVSPropertyOp38
 70
     1
102
RTVSPropertyOp39
 70
     1
102
RTVSPropertyOp40
 70
     1
102
RTVSPropertyOp41
 70
     1
102
RTVSPropertyOp42
 70
     1
102
RTVSPropertyOp43
 70
     1
102
RTVSPropertyOp44
 70
     1
102
RTVSPropertyOp45
 70
     1
102
RTVSPropertyOp46
 70
     1
102
RTVSPropertyOp47
 70
     1
102
RTVSPropertyOp48
 70
     1
102
RTVSPropertyOp49
 70
     1
102
RTVSPropertyOp50
 70
     1
102
RTVSPropertyOp51
 70
     0
102
RTVSPropertyOp52
 70
     0
102
RTVSPropertyOp53
 70
     1
102
RTVSPropertyOp54
 70
     1
102
RTVSPropertyOp55
 70
     1
102
RTVSPropertyOp56
 70
     1
102
RTVSPropertyOp57
 70
     1
102
RTVSPropertyOp58
 70
     1
102
RTVSPropertyOp59
 70
     1
102
RTVSPropertyOp60
 70
     1
102
RTVSPropertyOp61
 70
     1
102
RTVSPropertyOp62
 70
     1
  0
XRECORD
  5
8021
102
{ACAD_REACTORS
330
8020
102
}
330
8020
100
AcDbXrecord
280
     1
102
RTVSPost2010Prop28
280
     0
102
RTVSPost2010PropOp28
 70
     1
102
RTVSPost2010Prop29
280
     1
102
RTVSPost2010PropOp29
 70
     1
102
RTVSPost2010Prop30
280
     1
102
RTVSPost2010PropOp30
 70
     1
102
RTVSPost2010Prop31
280
     0
102
RTVSPost2010PropOp31
 70
     1
102
RTVSPost2010Prop32
280
     0
102
RTVSPost2010PropOp32
 70
     1
102
RTVSPost2010Prop33
280
     0
102
RTVSPost2010PropOp33
 70
     1
102
RTVSPost2010Prop34
280
     0
102
RTVSPost2010PropOp34
 70
     1
102
RTVSPost2010Prop35
280
     0
102
RTVSPost2010PropOp35
 70
     1
102
RTVSPost2010Prop36
280
     0
102
RTVSPost2010PropOp36
 70
     1
102
RTVSPost2010Prop37
 90
       50
102
RTVSPost2010PropOp37
 70
     1
102
RTVSPost2010Prop38
140
0.0
102
RTVSPost2010PropOp38
 70
     1
102
RTVSPost2010Prop39
140
1.0
102
RTVSPost2010PropOp39
 70
     1
102
RTVSPost2010Prop40
 90
        0
102
RTVSPost2010PropOp40
 70
     1
102
RTVSPost2010Prop41ColorIndex
 90
       18
102
RTVSPost2010Prop41ColorRGB
 90
        0
102
RTVSPost2010PropOp41
 70
     1
102
RTVSPost2010Prop42
 90
       50
102
RTVSPost2010PropOp42
 70
     1
102
RTVSPost2010Prop43
 90
        3
102
RTVSPost2010PropOp43
 70
     1
102
RTVSPost2010Prop44ColorIndex
 90
        5
102
RTVSPost2010Prop44ColorRGB
 90
      255
102
RTVSPost2010PropOp44
 70
     1
102
RTVSPost2010Prop45
280
     0
102
RTVSPost2010PropOp45
 70
     1
102
RTVSPost2010Prop46
 90
       50
102
RTVSPost2010PropOp46
 70
     1
102
RTVSPost2010Prop47
 90
       50
102
RTVSPost2010PropOp47
 70
     1
102
RTVSPost2010Prop48
 90
       50
102
RTVSPost2010PropOp48
 70
     1
102
RTVSPost2010Prop49
280
     0
102
RTVSPost2010PropOp49
 70
     1
102
RTVSPost2010Prop50
 90
       50
102
RTVSPost2010PropOp50
 70
     1
102
RTVSPost2010Prop51ColorIndex
 90
      256
102
RTVSPost2010Prop51ColorRGB
 90
-16777216
102
RTVSPost2010PropOp51
 70
     0
102
RTVSPost2010Prop52
140
1.0
102
RTVSPost2010PropOp52
 70
     0
102
RTVSPost2010Prop53
 90
        2
102
RTVSPost2010PropOp53
 70
     1
102
RTVSPost2010Prop54
  1
strokes_ogs.tif
102
RTVSPost2010PropOp54
 70
     1
102
RTVSPost2010Prop55
280
     0
102
RTVSPost2010PropOp55
 70
     1
102
RTVSPost2010Prop56
140
1.0
102
RTVSPost2010PropOp56
 70
     1
102
RTVSPost2010Prop57
140
1.0
102
RTVSPost2010PropOp57
 70
     1
102
RTVSPropertyOp0
 70
     1
102
RTVSPropertyOp1
 70
     1
102
RTVSPropertyOp2
 70
     1
102
RTVSPropertyOp3
 70
     1
102
RTVSPropertyOp4
 70
     1
102
RTVSPropertyOp5
 70
     1
102
RTVSPropertyOp6
 70
     1
102
RTVSPropertyOp7
 70
     1
102
RTVSPropertyOp8
 70
     1
102
RTVSPropertyOp9
 70
     1
102
RTVSPropertyOp10
 70
     1
102
RTVSPropertyOp11
 70
     1
102
RTVSPropertyOp12
 70
     1
102
RTVSPropertyOp13
 70
     1
102
RTVSPropertyOp14
 70
     1
102
RTVSPropertyOp15
 70
     1
102
RTVSPropertyOp16
 70
     1
102
RTVSPropertyOp17
 70
     1
102
RTVSPropertyOp18
 70
     1
102
RTVSPropertyOp19
 70
     1
102
RTVSPropertyOp20
 70
     1
102
RTVSPropertyOp21
 70
     1
102
RTVSPropertyOp22
 70
     1
102
RTVSPropertyOp23
 70
     1
102
RTVSPropertyOp24
 70
     1
102
RTVSPropertyOp25
 70
     1
102
RTVSPropertyOp26
 70
     1
102
RTVSPropertyOp27
 70
     1
102
RTVSPropertyOp28
 70
     1
102
RTVSPropertyOp29
 70
     1
102
RTVSPropertyOp30
 70
     1
102
RTVSPropertyOp31
 70
     1
102
RTVSPropertyOp32
 70
     1
102
RTVSPropertyOp33
 70
     1
102
RTVSPropertyOp34
 70
     1
102
RTVSPropertyOp35
 70
     1
102
RTVSPropertyOp36
 70
     1
102
RTVSPropertyOp37
 70
     1
102
RTVSPropertyOp38
 70
     1
102
RTVSPropertyOp39
 70
     1
102
RTVSPropertyOp40
 70
     1
102
RTVSPropertyOp41
 70
     1
102
RTVSPropertyOp42
 70
     1
102
RTVSPropertyOp43
 70
     1
102
RTVSPropertyOp44
 70
     1
102
RTVSPropertyOp45
 70
     1
102
RTVSPropertyOp46
 70
     1
102
RTVSPropertyOp47
 70
     1
102
RTVSPropertyOp48
 70
     1
102
RTVSPropertyOp49
 70
     1
102
RTVSPropertyOp50
 70
     1
102
RTVSPropertyOp51
 70
     0
102
RTVSPropertyOp52
 70
     0
102
RTVSPropertyOp53
 70
     1
102
RTVSPropertyOp54
 70
     1
102
RTVSPropertyOp55
 70
     1
102
RTVSPropertyOp56
 70
     1
102
RTVSPropertyOp57
 70
     1
102
RTVSPropertyOp58
 70
     1
102
RTVSPropertyOp59
 70
     1
102
RTVSPropertyOp60
 70
     1
102
RTVSPropertyOp61
 70
     1
102
RTVSPropertyOp62
 70
     1
  0
XRECORD
  5
8023
102
{ACAD_REACTORS
330
8022
102
}
330
8022
100
AcDbXrecord
280
     1
102
RTVSPost2010Prop28
280
     0
102
RTVSPost2010PropOp28
 70
     1
102
RTVSPost2010Prop29
280
     1
102
RTVSPost2010PropOp29
 70
     1
102
RTVSPost2010Prop30
280
     1
102
RTVSPost2010PropOp30
 70
     1
102
RTVSPost2010Prop31
280
     0
102
RTVSPost2010PropOp31
 70
     1
102
RTVSPost2010Prop32
280
     0
102
RTVSPost2010PropOp32
 70
     1
102
RTVSPost2010Prop33
280
     0
102
RTVSPost2010PropOp33
 70
     1
102
RTVSPost2010Prop34
280
     0
102
RTVSPost2010PropOp34
 70
     1
102
RTVSPost2010Prop35
280
     0
102
RTVSPost2010PropOp35
 70
     1
102
RTVSPost2010Prop36
280
     0
102
RTVSPost2010PropOp36
 70
     1
102
RTVSPost2010Prop37
 90
       50
102
RTVSPost2010PropOp37
 70
     1
102
RTVSPost2010Prop38
140
0.0
102
RTVSPost2010PropOp38
 70
     1
102
RTVSPost2010Prop39
140
1.0
102
RTVSPost2010PropOp39
 70
     1
102
RTVSPost2010Prop40
 90
        0
102
RTVSPost2010PropOp40
 70
     1
102
RTVSPost2010Prop41ColorIndex
 90
       18
102
RTVSPost2010Prop41ColorRGB
 90
        0
102
RTVSPost2010PropOp41
 70
     1
102
RTVSPost2010Prop42
 90
       50
102
RTVSPost2010PropOp42
 70
     1
102
RTVSPost2010Prop43
 90
        3
102
RTVSPost2010PropOp43
 70
     1
102
RTVSPost2010Prop44ColorIndex
 90
        5
102
RTVSPost2010Prop44ColorRGB
 90
      255
102
RTVSPost2010PropOp44
 70
     1
102
RTVSPost2010Prop45
280
     0
102
RTVSPost2010PropOp45
 70
     1
102
RTVSPost2010Prop46
 90
       50
102
RTVSPost2010PropOp46
 70
     1
102
RTVSPost2010Prop47
 90
       50
102
RTVSPost2010PropOp47
 70
     1
102
RTVSPost2010Prop48
 90
       50
102
RTVSPost2010PropOp48
 70
     1
102
RTVSPost2010Prop49
280
     0
102
RTVSPost2010PropOp49
 70
     1
102
RTVSPost2010Prop50
 90
       50
102
RTVSPost2010PropOp50
 70
     1
102
RTVSPost2010Prop51ColorIndex
 90
      256
102
RTVSPost2010Prop51ColorRGB
 90
-16777216
102
RTVSPost2010PropOp51
 70
     0
102
RTVSPost2010Prop52
140
1.0
102
RTVSPost2010PropOp52
 70
     0
102
RTVSPost2010Prop53
 90
        2
102
RTVSPost2010PropOp53
 70
     1
102
RTVSPost2010Prop54
  1
strokes_ogs.tif
102
RTVSPost2010PropOp54
 70
     1
102
RTVSPost2010Prop55
280
     0
102
RTVSPost2010PropOp55
 70
     1
102
RTVSPost2010Prop56
140
1.0
102
RTVSPost2010PropOp56
 70
     1
102
RTVSPost2010Prop57
140
1.0
102
RTVSPost2010PropOp57
 70
     1
102
RTVSPropertyOp0
 70
     1
102
RTVSPropertyOp1
 70
     1
102
RTVSPropertyOp2
 70
     1
102
RTVSPropertyOp3
 70
     1
102
RTVSPropertyOp4
 70
     1
102
RTVSPropertyOp5
 70
     1
102
RTVSPropertyOp6
 70
     1
102
RTVSPropertyOp7
 70
     1
102
RTVSPropertyOp8
 70
     1
102
RTVSPropertyOp9
 70
     1
102
RTVSPropertyOp10
 70
     1
102
RTVSPropertyOp11
 70
     1
102
RTVSPropertyOp12
 70
     1
102
RTVSPropertyOp13
 70
     1
102
RTVSPropertyOp14
 70
     1
102
RTVSPropertyOp15
 70
     1
102
RTVSPropertyOp16
 70
     1
102
RTVSPropertyOp17
 70
     1
102
RTVSPropertyOp18
 70
     1
102
RTVSPropertyOp19
 70
     1
102
RTVSPropertyOp20
 70
     1
102
RTVSPropertyOp21
 70
     1
102
RTVSPropertyOp22
 70
     1
102
RTVSPropertyOp23
 70
     1
102
RTVSPropertyOp24
 70
     1
102
RTVSPropertyOp25
 70
     1
102
RTVSPropertyOp26
 70
     1
102
RTVSPropertyOp27
 70
     1
102
RTVSPropertyOp28
 70
     1
102
RTVSPropertyOp29
 70
     1
102
RTVSPropertyOp30
 70
     1
102
RTVSPropertyOp31
 70
     1
102
RTVSPropertyOp32
 70
     1
102
RTVSPropertyOp33
 70
     1
102
RTVSPropertyOp34
 70
     1
102
RTVSPropertyOp35
 70
     1
102
RTVSPropertyOp36
 70
     1
102
RTVSPropertyOp37
 70
     1
102
RTVSPropertyOp38
 70
     1
102
RTVSPropertyOp39
 70
     1
102
RTVSPropertyOp40
 70
     1
102
RTVSPropertyOp41
 70
     1
102
RTVSPropertyOp42
 70
     1
102
RTVSPropertyOp43
 70
     1
102
RTVSPropertyOp44
 70
     1
102
RTVSPropertyOp45
 70
     1
102
RTVSPropertyOp46
 70
     1
102
RTVSPropertyOp47
 70
     1
102
RTVSPropertyOp48
 70
     1
102
RTVSPropertyOp49
 70
     1
102
RTVSPropertyOp50
 70
     1
102
RTVSPropertyOp51
 70
     0
102
RTVSPropertyOp52
 70
     0
102
RTVSPropertyOp53
 70
     1
102
RTVSPropertyOp54
 70
     1
102
RTVSPropertyOp55
 70
     1
102
RTVSPropertyOp56
 70
     1
102
RTVSPropertyOp57
 70
     1
102
RTVSPropertyOp58
 70
     1
102
RTVSPropertyOp59
 70
     1
102
RTVSPropertyOp60
 70
     1
102
RTVSPropertyOp61
 70
     1
102
RTVSPropertyOp62
 70
     1
  0
XRECORD
  5
8013
102
{ACAD_REACTORS
330
8012
102
}
330
8012
100
AcDbXrecord
280
     1
102
RTVSPost2010Prop28
280
     0
102
RTVSPost2010PropOp28
 70
     1
102
RTVSPost2010Prop29
280
     1
102
RTVSPost2010PropOp29
 70
     1
102
RTVSPost2010Prop30
280
     1
102
RTVSPost2010PropOp30
 70
     1
102
RTVSPost2010Prop31
280
     0
102
RTVSPost2010PropOp31
 70
     1
102
RTVSPost2010Prop32
280
     0
102
RTVSPost2010PropOp32
 70
     1
102
RTVSPost2010Prop33
280
     0
102
RTVSPost2010PropOp33
 70
     1
102
RTVSPost2010Prop34
280
     0
102
RTVSPost2010PropOp34
 70
     1
102
RTVSPost2010Prop35
280
     0
102
RTVSPost2010PropOp35
 70
     1
102
RTVSPost2010Prop36
280
     0
102
RTVSPost2010PropOp36
 70
     1
102
RTVSPost2010Prop37
 90
       50
102
RTVSPost2010PropOp37
 70
     1
102
RTVSPost2010Prop38
140
0.0
102
RTVSPost2010PropOp38
 70
     1
102
RTVSPost2010Prop39
140
1.0
102
RTVSPost2010PropOp39
 70
     1
102
RTVSPost2010Prop40
 90
        0
102
RTVSPost2010PropOp40
 70
     1
102
RTVSPost2010Prop41ColorIndex
 90
       18
102
RTVSPost2010Prop41ColorRGB
 90
        0
102
RTVSPost2010PropOp41
 70
     1
102
RTVSPost2010Prop42
 90
       50
102
RTVSPost2010PropOp42
 70
     1
102
RTVSPost2010Prop43
 90
        3
102
RTVSPost2010PropOp43
 70
     1
102
RTVSPost2010Prop44ColorIndex
 90
        5
102
RTVSPost2010Prop44ColorRGB
 90
      255
102
RTVSPost2010PropOp44
 70
     1
102
RTVSPost2010Prop45
280
     0
102
RTVSPost2010PropOp45
 70
     1
102
RTVSPost2010Prop46
 90
       50
102
RTVSPost2010PropOp46
 70
     1
102
RTVSPost2010Prop47
 90
       50
102
RTVSPost2010PropOp47
 70
     1
102
RTVSPost2010Prop48
 90
       50
102
RTVSPost2010PropOp48
 70
     1
102
RTVSPost2010Prop49
280
     0
102
RTVSPost2010PropOp49
 70
     1
102
RTVSPost2010Prop50
 90
       50
102
RTVSPost2010PropOp50
 70
     1
102
RTVSPost2010Prop51ColorIndex
 90
      256
102
RTVSPost2010Prop51ColorRGB
 90
-16777216
102
RTVSPost2010PropOp51
 70
     0
102
RTVSPost2010Prop52
140
1.0
102
RTVSPost2010PropOp52
 70
     0
102
RTVSPost2010Prop53
 90
        2
102
RTVSPost2010PropOp53
 70
     1
102
RTVSPost2010Prop54
  1
strokes_ogs.tif
102
RTVSPost2010PropOp54
 70
     1
102
RTVSPost2010Prop55
280
     0
102
RTVSPost2010PropOp55
 70
     1
102
RTVSPost2010Prop56
140
1.0
102
RTVSPost2010PropOp56
 70
     1
102
RTVSPost2010Prop57
140
1.0
102
RTVSPost2010PropOp57
 70
     1
102
RTVSPropertyOp0
 70
     1
102
RTVSPropertyOp1
 70
     1
102
RTVSPropertyOp2
 70
     1
102
RTVSPropertyOp3
 70
     1
102
RTVSPropertyOp4
 70
     1
102
RTVSPropertyOp5
 70
     1
102
RTVSPropertyOp6
 70
     1
102
RTVSPropertyOp7
 70
     1
102
RTVSPropertyOp8
 70
     1
102
RTVSPropertyOp9
 70
     1
102
RTVSPropertyOp10
 70
     1
102
RTVSPropertyOp11
 70
     1
102
RTVSPropertyOp12
 70
     1
102
RTVSPropertyOp13
 70
     1
102
RTVSPropertyOp14
 70
     1
102
RTVSPropertyOp15
 70
     1
102
RTVSPropertyOp16
 70
     1
102
RTVSPropertyOp17
 70
     1
102
RTVSPropertyOp18
 70
     1
102
RTVSPropertyOp19
 70
     1
102
RTVSPropertyOp20
 70
     1
102
RTVSPropertyOp21
 70
     1
102
RTVSPropertyOp22
 70
     1
102
RTVSPropertyOp23
 70
     1
102
RTVSPropertyOp24
 70
     1
102
RTVSPropertyOp25
 70
     1
102
RTVSPropertyOp26
 70
     1
102
RTVSPropertyOp27
 70
     1
102
RTVSPropertyOp28
 70
     1
102
RTVSPropertyOp29
 70
     1
102
RTVSPropertyOp30
 70
     1
102
RTVSPropertyOp31
 70
     1
102
RTVSPropertyOp32
 70
     1
102
RTVSPropertyOp33
 70
     1
102
RTVSPropertyOp34
 70
     1
102
RTVSPropertyOp35
 70
     1
102
RTVSPropertyOp36
 70
     1
102
RTVSPropertyOp37
 70
     1
102
RTVSPropertyOp38
 70
     1
102
RTVSPropertyOp39
 70
     1
102
RTVSPropertyOp40
 70
     1
102
RTVSPropertyOp41
 70
     1
102
RTVSPropertyOp42
 70
     1
102
RTVSPropertyOp43
 70
     1
102
RTVSPropertyOp44
 70
     1
102
RTVSPropertyOp45
 70
     1
102
RTVSPropertyOp46
 70
     1
102
RTVSPropertyOp47
 70
     1
102
RTVSPropertyOp48
 70
     1
102
RTVSPropertyOp49
 70
     1
102
RTVSPropertyOp50
 70
     1
102
RTVSPropertyOp51
 70
     0
102
RTVSPropertyOp52
 70
     0
102
RTVSPropertyOp53
 70
     1
102
RTVSPropertyOp54
 70
     1
102
RTVSPropertyOp55
 70
     1
102
RTVSPropertyOp56
 70
     1
102
RTVSPropertyOp57
 70
     1
102
RTVSPropertyOp58
 70
     1
102
RTVSPropertyOp59
 70
     1
102
RTVSPropertyOp60
 70
     1
102
RTVSPropertyOp61
 70
     1
102
RTVSPropertyOp62
 70
     1
  0
XRECORD
  5
801D
102
{ACAD_REACTORS
330
801C
102
}
330
801C
100
AcDbXrecord
280
     1
102
RTVSPost2010Prop28
280
     0
102
RTVSPost2010PropOp28
 70
     1
102
RTVSPost2010Prop29
280
     1
102
RTVSPost2010PropOp29
 70
     1
102
RTVSPost2010Prop30
280
     1
102
RTVSPost2010PropOp30
 70
     1
102
RTVSPost2010Prop31
280
     0
102
RTVSPost2010PropOp31
 70
     1
102
RTVSPost2010Prop32
280
     0
102
RTVSPost2010PropOp32
 70
     1
102
RTVSPost2010Prop33
280
     0
102
RTVSPost2010PropOp33
 70
     1
102
RTVSPost2010Prop34
280
     0
102
RTVSPost2010PropOp34
 70
     1
102
RTVSPost2010Prop35
280
     0
102
RTVSPost2010PropOp35
 70
     1
102
RTVSPost2010Prop36
280
     0
102
RTVSPost2010PropOp36
 70
     1
102
RTVSPost2010Prop37
 90
       50
102
RTVSPost2010PropOp37
 70
     1
102
RTVSPost2010Prop38
140
0.0
102
RTVSPost2010PropOp38
 70
     1
102
RTVSPost2010Prop39
140
1.0
102
RTVSPost2010PropOp39
 70
     1
102
RTVSPost2010Prop40
 90
        0
102
RTVSPost2010PropOp40
 70
     1
102
RTVSPost2010Prop41ColorIndex
 90
       18
102
RTVSPost2010Prop41ColorRGB
 90
        0
102
RTVSPost2010PropOp41
 70
     1
102
RTVSPost2010Prop42
 90
       50
102
RTVSPost2010PropOp42
 70
     1
102
RTVSPost2010Prop43
 90
        3
102
RTVSPost2010PropOp43
 70
     1
102
RTVSPost2010Prop44ColorIndex
 90
        5
102
RTVSPost2010Prop44ColorRGB
 90
      255
102
RTVSPost2010PropOp44
 70
     1
102
RTVSPost2010Prop45
280
     0
102
RTVSPost2010PropOp45
 70
     1
102
RTVSPost2010Prop46
 90
       50
102
RTVSPost2010PropOp46
 70
     1
102
RTVSPost2010Prop47
 90
       50
102
RTVSPost2010PropOp47
 70
     1
102
RTVSPost2010Prop48
 90
       50
102
RTVSPost2010PropOp48
 70
     1
102
RTVSPost2010Prop49
280
     0
102
RTVSPost2010PropOp49
 70
     1
102
RTVSPost2010Prop50
 90
       50
102
RTVSPost2010PropOp50
 70
     1
102
RTVSPost2010Prop51ColorIndex
 90
      256
102
RTVSPost2010Prop51ColorRGB
 90
-16777216
102
RTVSPost2010PropOp51
 70
     0
102
RTVSPost2010Prop52
140
1.0
102
RTVSPost2010PropOp52
 70
     0
102
RTVSPost2010Prop53
 90
        2
102
RTVSPost2010PropOp53
 70
     1
102
RTVSPost2010Prop54
  1
strokes_ogs.tif
102
RTVSPost2010PropOp54
 70
     1
102
RTVSPost2010Prop55
280
     0
102
RTVSPost2010PropOp55
 70
     1
102
RTVSPost2010Prop56
140
1.0
102
RTVSPost2010PropOp56
 70
     1
102
RTVSPost2010Prop57
140
1.0
102
RTVSPost2010PropOp57
 70
     1
102
RTVSPropertyOp0
 70
     1
102
RTVSPropertyOp1
 70
     1
102
RTVSPropertyOp2
 70
     1
102
RTVSPropertyOp3
 70
     1
102
RTVSPropertyOp4
 70
     1
102
RTVSPropertyOp5
 70
     1
102
RTVSPropertyOp6
 70
     1
102
RTVSPropertyOp7
 70
     1
102
RTVSPropertyOp8
 70
     1
102
RTVSPropertyOp9
 70
     1
102
RTVSPropertyOp10
 70
     1
102
RTVSPropertyOp11
 70
     1
102
RTVSPropertyOp12
 70
     1
102
RTVSPropertyOp13
 70
     1
102
RTVSPropertyOp14
 70
     1
102
RTVSPropertyOp15
 70
     1
102
RTVSPropertyOp16
 70
     1
102
RTVSPropertyOp17
 70
     1
102
RTVSPropertyOp18
 70
     1
102
RTVSPropertyOp19
 70
     1
102
RTVSPropertyOp20
 70
     1
102
RTVSPropertyOp21
 70
     1
102
RTVSPropertyOp22
 70
     1
102
RTVSPropertyOp23
 70
     1
102
RTVSPropertyOp24
 70
     1
102
RTVSPropertyOp25
 70
     1
102
RTVSPropertyOp26
 70
     1
102
RTVSPropertyOp27
 70
     1
102
RTVSPropertyOp28
 70
     1
102
RTVSPropertyOp29
 70
     1
102
RTVSPropertyOp30
 70
     1
102
RTVSPropertyOp31
 70
     1
102
RTVSPropertyOp32
 70
     1
102
RTVSPropertyOp33
 70
     1
102
RTVSPropertyOp34
 70
     1
102
RTVSPropertyOp35
 70
     1
102
RTVSPropertyOp36
 70
     1
102
RTVSPropertyOp37
 70
     1
102
RTVSPropertyOp38
 70
     1
102
RTVSPropertyOp39
 70
     1
102
RTVSPropertyOp40
 70
     1
102
RTVSPropertyOp41
 70
     1
102
RTVSPropertyOp42
 70
     1
102
RTVSPropertyOp43
 70
     1
102
RTVSPropertyOp44
 70
     1
102
RTVSPropertyOp45
 70
     1
102
RTVSPropertyOp46
 70
     1
102
RTVSPropertyOp47
 70
     1
102
RTVSPropertyOp48
 70
     1
102
RTVSPropertyOp49
 70
     1
102
RTVSPropertyOp50
 70
     1
102
RTVSPropertyOp51
 70
     0
102
RTVSPropertyOp52
 70
     0
102
RTVSPropertyOp53
 70
     1
102
RTVSPropertyOp54
 70
     1
102
RTVSPropertyOp55
 70
     1
102
RTVSPropertyOp56
 70
     1
102
RTVSPropertyOp57
 70
     1
102
RTVSPropertyOp58
 70
     1
102
RTVSPropertyOp59
 70
     1
102
RTVSPropertyOp60
 70
     1
102
RTVSPropertyOp61
 70
     1
102
RTVSPropertyOp62
 70
     1
  0
XRECORD
  5
8025
102
{ACAD_REACTORS
330
8024
102
}
330
8024
100
AcDbXrecord
280
     1
102
RTVSPost2010Prop28
280
     0
102
RTVSPost2010PropOp28
 70
     1
102
RTVSPost2010Prop29
280
     1
102
RTVSPost2010PropOp29
 70
     1
102
RTVSPost2010Prop30
280
     1
102
RTVSPost2010PropOp30
 70
     1
102
RTVSPost2010Prop31
280
     0
102
RTVSPost2010PropOp31
 70
     1
102
RTVSPost2010Prop32
280
     0
102
RTVSPost2010PropOp32
 70
     1
102
RTVSPost2010Prop33
280
     0
102
RTVSPost2010PropOp33
 70
     1
102
RTVSPost2010Prop34
280
     0
102
RTVSPost2010PropOp34
 70
     1
102
RTVSPost2010Prop35
280
     0
102
RTVSPost2010PropOp35
 70
     1
102
RTVSPost2010Prop36
280
     0
102
RTVSPost2010PropOp36
 70
     1
102
RTVSPost2010Prop37
 90
       50
102
RTVSPost2010PropOp37
 70
     1
102
RTVSPost2010Prop38
140
0.0
102
RTVSPost2010PropOp38
 70
     1
102
RTVSPost2010Prop39
140
1.0
102
RTVSPost2010PropOp39
 70
     1
102
RTVSPost2010Prop40
 90
        0
102
RTVSPost2010PropOp40
 70
     1
102
RTVSPost2010Prop41ColorIndex
 90
       18
102
RTVSPost2010Prop41ColorRGB
 90
        0
102
RTVSPost2010PropOp41
 70
     1
102
RTVSPost2010Prop42
 90
       50
102
RTVSPost2010PropOp42
 70
     1
102
RTVSPost2010Prop43
 90
        3
102
RTVSPost2010PropOp43
 70
     1
102
RTVSPost2010Prop44ColorIndex
 90
        5
102
RTVSPost2010Prop44ColorRGB
 90
      255
102
RTVSPost2010PropOp44
 70
     1
102
RTVSPost2010Prop45
280
     0
102
RTVSPost2010PropOp45
 70
     1
102
RTVSPost2010Prop46
 90
       50
102
RTVSPost2010PropOp46
 70
     1
102
RTVSPost2010Prop47
 90
       50
102
RTVSPost2010PropOp47
 70
     1
102
RTVSPost2010Prop48
 90
       50
102
RTVSPost2010PropOp48
 70
     1
102
RTVSPost2010Prop49
280
     0
102
RTVSPost2010PropOp49
 70
     1
102
RTVSPost2010Prop50
 90
       50
102
RTVSPost2010PropOp50
 70
     1
102
RTVSPost2010Prop51ColorIndex
 90
      256
102
RTVSPost2010Prop51ColorRGB
 90
-16777216
102
RTVSPost2010PropOp51
 70
     0
102
RTVSPost2010Prop52
140
1.0
102
RTVSPost2010PropOp52
 70
     0
102
RTVSPost2010Prop53
 90
        2
102
RTVSPost2010PropOp53
 70
     1
102
RTVSPost2010Prop54
  1
strokes_ogs.tif
102
RTVSPost2010PropOp54
 70
     1
102
RTVSPost2010Prop55
280
     0
102
RTVSPost2010PropOp55
 70
     1
102
RTVSPost2010Prop56
140
1.0
102
RTVSPost2010PropOp56
 70
     1
102
RTVSPost2010Prop57
140
1.0
102
RTVSPost2010PropOp57
 70
     1
102
RTVSPropertyOp0
 70
     1
102
RTVSPropertyOp1
 70
     1
102
RTVSPropertyOp2
 70
     1
102
RTVSPropertyOp3
 70
     1
102
RTVSPropertyOp4
 70
     1
102
RTVSPropertyOp5
 70
     1
102
RTVSPropertyOp6
 70
     1
102
RTVSPropertyOp7
 70
     1
102
RTVSPropertyOp8
 70
     1
102
RTVSPropertyOp9
 70
     1
102
RTVSPropertyOp10
 70
     1
102
RTVSPropertyOp11
 70
     1
102
RTVSPropertyOp12
 70
     1
102
RTVSPropertyOp13
 70
     1
102
RTVSPropertyOp14
 70
     1
102
RTVSPropertyOp15
 70
     1
102
RTVSPropertyOp16
 70
     1
102
RTVSPropertyOp17
 70
     1
102
RTVSPropertyOp18
 70
     1
102
RTVSPropertyOp19
 70
     1
102
RTVSPropertyOp20
 70
     1
102
RTVSPropertyOp21
 70
     1
102
RTVSPropertyOp22
 70
     1
102
RTVSPropertyOp23
 70
     1
102
RTVSPropertyOp24
 70
     1
102
RTVSPropertyOp25
 70
     1
102
RTVSPropertyOp26
 70
     1
102
RTVSPropertyOp27
 70
     1
102
RTVSPropertyOp28
 70
     1
102
RTVSPropertyOp29
 70
     1
102
RTVSPropertyOp30
 70
     1
102
RTVSPropertyOp31
 70
     1
102
RTVSPropertyOp32
 70
     1
102
RTVSPropertyOp33
 70
     1
102
RTVSPropertyOp34
 70
     1
102
RTVSPropertyOp35
 70
     1
102
RTVSPropertyOp36
 70
     1
102
RTVSPropertyOp37
 70
     1
102
RTVSPropertyOp38
 70
     1
102
RTVSPropertyOp39
 70
     1
102
RTVSPropertyOp40
 70
     1
102
RTVSPropertyOp41
 70
     1
102
RTVSPropertyOp42
 70
     1
102
RTVSPropertyOp43
 70
     1
102
RTVSPropertyOp44
 70
     1
102
RTVSPropertyOp45
 70
     1
102
RTVSPropertyOp46
 70
     1
102
RTVSPropertyOp47
 70
     1
102
RTVSPropertyOp48
 70
     1
102
RTVSPropertyOp49
 70
     1
102
RTVSPropertyOp50
 70
     1
102
RTVSPropertyOp51
 70
     0
102
RTVSPropertyOp52
 70
     0
102
RTVSPropertyOp53
 70
     1
102
RTVSPropertyOp54
 70
     1
102
RTVSPropertyOp55
 70
     1
102
RTVSPropertyOp56
 70
     1
102
RTVSPropertyOp57
 70
     1
102
RTVSPropertyOp58
 70
     1
102
RTVSPropertyOp59
 70
     1
102
RTVSPropertyOp60
 70
     1
102
RTVSPropertyOp61
 70
     1
102
RTVSPropertyOp62
 70
     1
  0
XRECORD
  5
35F9
102
{ACAD_REACTORS
330
35F8
102
}
330
35F8
100
AcDbXrecord
280
     1
330
2F64
  0
ENDSEC
  0
EOF
